  0
SECTION
  2
HEADER
  9
$ACADVER
  1
AC1009
  9
$INSBASE
 10
0.0
 20
0.0
 30
0.0
  9
$EXTMIN
 10
0.0
 20
-1.4802182810368341
 30
0.0
  9
$EXTMAX
 10
150.15493369170181
 20
75.729443295043112
 30
0.0
  9
$LIMMIN
 10
0.0
 20
0.0
  9
$LIMMAX
 10
385.0
 20
270.0
  9
$ORTHOMODE
 70
     1
  9
$REGENMODE
 70
     1
  9
$FILLMODE
 70
     1
  9
$QTEXTMODE
 70
     0
  9
$MIRRTEXT
 70
     0
  9
$DRAGMODE
 70
     2
  9
$LTSCALE
 40
5.0
  9
$OSMODE
 70
  3071
  9
$ATTMODE
 70
     1
  9
$TEXTSIZE
 40
4.000000000000048
  9
$TRACEWID
 40
0.05
  9
$TEXTSTYLE
  7
STANDARD
  9
$CLAYER
  8
0
  9
$CELTYPE
  6
BYLAYER
  9
$CECOLOR
 62
   256
  9
$DIMSCALE
 40
1.0
  9
$DIMASZ
 40
3.0
  9
$DIMEXO
 40
2.0
  9
$DIMDLI
 40
0.38
  9
$DIMRND
 40
0.0
  9
$DIMDLE
 40
0.0
  9
$DIMEXE
 40
2.0
  9
$DIMTP
 40
0.0
  9
$DIMTM
 40
0.0
  9
$DIMTXT
 40
3.0
  9
$DIMCEN
 40
0.0
  9
$DIMTSZ
 40
0.0
  9
$DIMTOL
 70
     0
  9
$DIMLIM
 70
     0
  9
$DIMTIH
 70
     0
  9
$DIMTOH
 70
     0
  9
$DIMSE1
 70
     0
  9
$DIMSE2
 70
     0
  9
$DIMTAD
 70
     1
  9
$DIMZIN
 70
     0
  9
$DIMBLK
  1

  9
$DIMASO
 70
     0
  9
$DIMSHO
 70
     0
  9
$DIMPOST
  1

  9
$DIMAPOST
  1

  9
$DIMALT
 70
     0
  9
$DIMALTD
 70
     2
  9
$DIMALTF
 40
25.399999999999999
  9
$DIMLFAC
 40
1.0
  9
$DIMTOFL
 70
     1
  9
$DIMTVP
 40
1.6000000000000001
  9
$DIMTIX
 70
     1
  9
$DIMSOXD
 70
     0
  9
$DIMSAH
 70
     0
  9
$DIMBLK1
  1

  9
$DIMBLK2
  1

  9
$DIMSTYLE
  2
STANDARD
  9
$DIMCLRD
 70
     0
  9
$DIMCLRE
 70
     0
  9
$DIMCLRT
 70
     0
  9
$DIMTFAC
 40
1.0
  9
$DIMGAP
 40
1.0
  9
$LUNITS
 70
     2
  9
$LUPREC
 70
     4
  9
$SKETCHINC
 40
0.1
  9
$FILLETRAD
 40
0.0
  9
$AUNITS
 70
     0
  9
$AUPREC
 70
     4
  9
$MENU
  1
E:\r13\win\SUPPORT\ACAD
  9
$ELEVATION
 40
0.0
  9
$PELEVATION
 40
0.0
  9
$THICKNESS
 40
0.0
  9
$LIMCHECK
 70
     0
  9
$BLIPMODE
 70
     0
  9
$CHAMFERA
 40
0.0
  9
$CHAMFERB
 40
0.0
  9
$SKPOLY
 70
     0
  9
$TDCREATE
 40
2450280.598206134
  9
$TDUPDATE
 40
2456597.6892591668
  9
$TDINDWG
 40
0.1180593634
  9
$TDUSRTIMER
 40
0.1180593634
  9
$USRTIMER
 70
     1
  9
$ANGBASE
 50
0.0
  9
$ANGDIR
 70
     0
  9
$PDMODE
 70
     0
  9
$PDSIZE
 40
0.0
  9
$PLINEWID
 40
0.0
  9
$COORDS
 70
     1
  9
$SPLFRAME
 70
     0
  9
$SPLINETYPE
 70
     6
  9
$SPLINESEGS
 70
     8
  9
$ATTDIA
 70
     0
  9
$ATTREQ
 70
     1
  9
$HANDLING
 70
     1
  9
$HANDSEED
  5
EA7
  9
$SURFTAB1
 70
     6
  9
$SURFTAB2
 70
     6
  9
$SURFTYPE
 70
     6
  9
$SURFU
 70
     6
  9
$SURFV
 70
     6
  9
$UCSNAME
  2

  9
$UCSORG
 10
0.0
 20
0.0
 30
0.0
  9
$UCSXDIR
 10
1.0
 20
0.0
 30
0.0
  9
$UCSYDIR
 10
0.0
 20
1.0
 30
0.0
  9
$PUCSNAME
  2

  9
$PUCSORG
 10
0.0
 20
0.0
 30
0.0
  9
$PUCSXDIR
 10
1.0
 20
0.0
 30
0.0
  9
$PUCSYDIR
 10
0.0
 20
1.0
 30
0.0
  9
$USERI1
 70
     3
  9
$USERI2
 70
     1
  9
$USERI3
 70
     1
  9
$USERI4
 70
     0
  9
$USERI5
 70
     0
  9
$USERR1
 40
1.0
  9
$USERR2
 40
3.0
  9
$USERR3
 40
3.0
  9
$USERR4
 40
3.0
  9
$USERR5
 40
10.0
  9
$WORLDVIEW
 70
     1
  9
$SHADEDGE
 70
     3
  9
$SHADEDIF
 70
    70
  9
$TILEMODE
 70
     1
  9
$MAXACTVP
 70
    16
  9
$PLIMCHECK
 70
     0
  9
$PEXTMIN
 10
1.0000000000000000E+020
 20
1.0000000000000000E+020
 30
1.0000000000000000E+020
  9
$PEXTMAX
 10
-1.0000000000000000E+020
 20
-1.0000000000000000E+020
 30
-1.0000000000000000E+020
  9
$PLIMMIN
 10
0.0
 20
0.0
  9
$PLIMMAX
 10
12.0
 20
9.0
  9
$UNITMODE
 70
     0
  9
$VISRETAIN
 70
     0
  9
$PLINEGEN
 70
     0
  9
$PSLTSCALE
 70
     0
  0
ENDSEC
  0
SECTION
  2
TABLES
  0
TABLE
  2
VPORT
 70
     1
  0
VPORT
  2
*ACTIVE
 70
     0
 10
0.0
 20
0.0
 11
1.0
 21
1.0
 12
192.49412581440311
 22
134.84202934784381
 13
0.0
 23
0.0
 14
5.0
 24
5.0
 15
10.0
 25
10.0
 16
0.0
 26
0.0
 36
1.0
 17
0.0
 27
0.0
 37
0.0
 40
275.78743625673241
 41
2.304913294797688
 42
50.0
 43
0.0
 44
0.0
 50
0.0
 51
0.0
 71
     0
 72
   500
 73
     1
 74
     0
 75
     0
 76
     0
 77
     0
 78
     2
  0
ENDTAB
  0
TABLE
  2
LTYPE
 70
     4
  0
LTYPE
  2
CONTINUOUS
 70
     0
  3
Solid Line
 72
    65
 73
     0
 40
0.0
  0
LTYPE
  2
CENTER
 70
     0
  3
____ _ ____ _ ____ _ ____ _ ____ _ ____ _ ____
 72
    65
 73
     4
 40
2.0
 49
1.25
 49
-0.25
 49
0.25
 49
-0.25
  0
LTYPE
  2
HIDDEN
 70
     0
  3
_ _ _ _ _ _ _ _ _ _ _ _ _ _ _ _ _ _ _ _ _ _ _
 72
    65
 73
     2
 40
0.375
 49
0.25
 49
-0.125
  0
LTYPE
  2
PHANTOM2
 70
     0
  3
___ _ _ ___ _ _ ___ _ _ ___ _ _
 72
    65
 73
     6
 40
1.25
 49
0.625
 49
-0.125
 49
0.125
 49
-0.125
 49
0.125
 49
-0.125
  0
ENDTAB
  0
TABLE
  2
LAYER
 70
     4
  0
LAYER
  2
0
 70
     0
 62
     7
  6
CONTINUOUS
  0
LAYER
  2
1
 70
     0
 62
     1
  6
CENTER
  0
LAYER
  2
3
 70
     0
 62
     3
  6
CONTINUOUS
  0
LAYER
  2
2
 70
     0
 62
     2
  6
HIDDEN
  0
ENDTAB
  0
TABLE
  2
STYLE
 70
     2
  0
STYLE
  2
STANDARD
 70
     0
 40
0.0
 41
1.0
 50
0.0
 71
     0
 42
4.000000000000048
  3
SIMPLEX
  4
BIGFONT
  0
STYLE
  2
STANDARD1
 70
     0
 40
0.0
 41
1.0
 50
0.0
 71
     0
 42
3.0
  3
txt
  4

  0
ENDTAB
  0
TABLE
  2
VIEW
 70
     0
  0
ENDTAB
  0
TABLE
  2
UCS
 70
     0
  0
ENDTAB
  0
TABLE
  2
APPID
 70
     3
  0
APPID
  2
ACAD
 70
     0
  0
APPID
  2
ACAD_MLEADERVER
 70
     0
  0
APPID
  2
ACAD_NAV_VCDISPLAY
 70
     0
  0
ENDTAB
  0
TABLE
  2
DIMSTYLE
 70
     1
  0
DIMSTYLE
  2
STANDARD
 70
     0
  3

  4

  5

  6

  7

 40
1.0
 41
0.18
 42
0.0625
 43
0.38
 44
0.18
 45
0.0
 46
0.0
 47
0.0
 48
0.0
140
0.18
141
0.09
142
0.0
143
25.399999999999999
144
1.0
145
0.0
146
1.0
147
0.09
 71
     0
 72
     0
 73
     1
 74
     1
 75
     0
 76
     0
 77
     0
 78
     0
170
     0
171
     2
172
     0
173
     0
174
     0
175
     0
176
     0
177
     0
178
     0
  0
ENDTAB
  0
ENDSEC
  0
SECTION
  2
BLOCKS
  0
BLOCK
  8
0
  2
$MODEL_SPACE
 70
     0
 10
0.0
 20
0.0
 30
0.0
  3
$MODEL_SPACE
  1

  0
ENDBLK
  5
175
  8
0
  0
BLOCK
 67
     1
  8
0
  2
$PAPER_SPACE
 70
     0
 10
0.0
 20
0.0
 30
0.0
  3
$PAPER_SPACE
  1

  0
ENDBLK
  5
173
 67
     1
  8
0
  0
ENDSEC
  0
SECTION
  2
ENTITIES
  0
LINE
  5
664
  8
1
 10
95.572202278690412
 20
68.729443295043097
 30
0.0
 11
57.654933691701842
 21
68.729443295043097
 31
0.0
  0
LINE
  5
665
  8
0
  6
CONTINUOUS
 62
     0
 10
74.572202278690398
 20
71.729443295043097
 30
0.0
 11
74.572202278690398
 21
71.11594329504311
 31
0.0
  0
LINE
  5
666
  8
3
 10
64.572202278690398
 20
71.11594329504311
 30
0.0
 11
69.072202278690384
 21
71.11594329504311
 31
0.0
  0
LINE
  5
667
  8
0
  6
CONTINUOUS
 62
     0
 10
74.572202278690398
 20
65.729443295043083
 30
0.0
 11
74.572202278690398
 21
71.729443295043097
 31
0.0
  0
LINE
  5
668
  8
0
  6
CONTINUOUS
 62
     0
 10
74.572202278690398
 20
65.729443295043083
 30
0.0
 11
74.572202278690398
 21
66.342943295043085
 31
0.0
  0
LINE
  5
669
  8
3
 10
64.572202278690398
 20
66.342943295043085
 30
0.0
 11
69.072202278690384
 21
66.342943295043085
 31
0.0
  0
POLYLINE
  5
66A
  8
0
  6
CONTINUOUS
 62
     0
 66
     1
 10
0.0
 20
0.0
 30
0.0
  0
VERTEX
  5
9EF
  8
0
  6
CONTINUOUS
 62
     0
 10
71.790670322715428
 20
68.729443295043097
 30
0.0
  0
VERTEX
  5
9F0
  8
0
  6
CONTINUOUS
 62
     0
 10
71.87652749992607
 20
69.168166919177111
 30
0.0
  0
VERTEX
  5
9F1
  8
0
  6
CONTINUOUS
 62
     0
 10
72.000776496262702
 20
70.004417479258279
 30
0.0
  0
VERTEX
  5
9F2
  8
0
  6
CONTINUOUS
 62
     0
 10
72.064018490653169
 20
70.818328992150157
 30
0.0
  0
VERTEX
  5
9F3
  8
0
  6
CONTINUOUS
 62
     0
 10
72.072202278690398
 20
71.229443295043097
 30
0.0
  0
SEQEND
  5
9F4
  8
0
  6
CONTINUOUS
 62
     0
  0
POLYLINE
  5
66B
  8
0
  6
CONTINUOUS
 62
     0
 66
     1
 10
0.0
 20
0.0
 30
0.0
  0
VERTEX
  5
9F5
  8
0
  6
CONTINUOUS
 62
     0
 10
69.072202278690384
 20
71.229443295043097
 30
0.0
  0
VERTEX
  5
9F6
  8
0
  6
CONTINUOUS
 62
     0
 10
69.080386066727684
 20
70.818328992149532
 30
0.0
  0
VERTEX
  5
9F7
  8
0
  6
CONTINUOUS
 62
     0
 10
69.14362806111815
 20
70.004417479257228
 30
0.0
  0
VERTEX
  5
9F8
  8
0
  6
CONTINUOUS
 62
     0
 10
69.267877057454726
 20
69.168166919176571
 30
0.0
  0
VERTEX
  5
9F9
  8
0
  6
CONTINUOUS
 62
     0
 10
69.353734234665424
 20
68.729443295043097
 30
0.0
  0
SEQEND
  5
9FA
  8
0
  6
CONTINUOUS
 62
     0
  0
POLYLINE
  5
66C
  8
0
  6
CONTINUOUS
 62
     0
 66
     1
 10
0.0
 20
0.0
 30
0.0
  0
VERTEX
  5
9FB
  8
0
  6
CONTINUOUS
 62
     0
 10
69.353734234665424
 20
73.729443295043097
 30
0.0
  0
VERTEX
  5
9FC
  8
0
  6
CONTINUOUS
 62
     0
 10
69.267877057454726
 20
73.290719670909084
 30
0.0
  0
VERTEX
  5
9FD
  8
0
  6
CONTINUOUS
 62
     0
 10
69.14362806111815
 20
72.454469110827915
 30
0.0
  0
VERTEX
  5
9FE
  8
0
  6
CONTINUOUS
 62
     0
 10
69.080386066727684
 20
71.640557597936038
 30
0.0
  0
VERTEX
  5
9FF
  8
0
  6
CONTINUOUS
 62
     0
 10
69.072202278690384
 20
71.229443295043097
 30
0.0
  0
SEQEND
  5
A00
  8
0
  6
CONTINUOUS
 62
     0
  0
POLYLINE
  5
66D
  8
0
  6
CONTINUOUS
 62
     0
 66
     1
 10
0.0
 20
0.0
 30
0.0
  0
VERTEX
  5
A01
  8
0
  6
CONTINUOUS
 62
     0
 10
72.072202278690398
 20
71.229443295043097
 30
0.0
  0
VERTEX
  5
A02
  8
0
  6
CONTINUOUS
 62
     0
 10
72.064018490653169
 20
71.640557597936663
 30
0.0
  0
VERTEX
  5
A03
  8
0
  6
CONTINUOUS
 62
     0
 10
72.000776496262702
 20
72.454469110828967
 30
0.0
  0
VERTEX
  5
A04
  8
0
  6
CONTINUOUS
 62
     0
 10
71.87652749992607
 20
73.290719670909624
 30
0.0
  0
VERTEX
  5
A05
  8
0
  6
CONTINUOUS
 62
     0
 10
71.790670322715428
 20
73.729443295043097
 30
0.0
  0
SEQEND
  5
A06
  8
0
  6
CONTINUOUS
 62
     0
  0
POLYLINE
  5
66E
  8
0
  6
CONTINUOUS
 62
     0
 66
     1
 10
0.0
 20
0.0
 30
0.0
  0
VERTEX
  5
A07
  8
0
  6
CONTINUOUS
 62
     0
 10
71.790670322715428
 20
73.729443295043097
 30
0.0
  0
VERTEX
  5
A08
  8
0
  6
CONTINUOUS
 62
     0
 10
71.87652749992607
 20
73.290719670909084
 30
0.0
  0
VERTEX
  5
A09
  8
0
  6
CONTINUOUS
 62
     0
 10
72.000776496262702
 20
72.454469110827915
 30
0.0
  0
VERTEX
  5
A0A
  8
0
  6
CONTINUOUS
 62
     0
 10
72.064018490653112
 20
71.640557597936038
 30
0.0
  0
VERTEX
  5
A0B
  8
0
  6
CONTINUOUS
 62
     0
 10
72.072202278690398
 20
71.229443295043097
 30
0.0
  0
SEQEND
  5
A0C
  8
0
  6
CONTINUOUS
 62
     0
  0
LINE
  5
66F
  8
0
  6
CONTINUOUS
 62
     0
 10
69.353734234665424
 20
73.729443295043097
 30
0.0
 11
71.790670322715428
 21
73.729443295043097
 31
0.0
  0
POLYLINE
  5
670
  8
0
  6
CONTINUOUS
 62
     0
 66
     1
 10
0.0
 20
0.0
 30
0.0
  0
VERTEX
  5
A0D
  8
0
  6
CONTINUOUS
 62
     0
 10
69.072202278690384
 20
71.229443295043097
 30
0.0
  0
VERTEX
  5
A0E
  8
0
  6
CONTINUOUS
 62
     0
 10
69.080386066727684
 20
71.640557597936663
 30
0.0
  0
VERTEX
  5
A0F
  8
0
  6
CONTINUOUS
 62
     0
 10
69.14362806111815
 20
72.454469110828967
 30
0.0
  0
VERTEX
  5
A10
  8
0
  6
CONTINUOUS
 62
     0
 10
69.267877057454726
 20
73.290719670909624
 30
0.0
  0
VERTEX
  5
A11
  8
0
  6
CONTINUOUS
 62
     0
 10
69.353734234665424
 20
73.729443295043097
 30
0.0
  0
SEQEND
  5
A12
  8
0
  6
CONTINUOUS
 62
     0
  0
POLYLINE
  5
671
  8
0
  6
CONTINUOUS
 62
     0
 66
     1
 10
0.0
 20
0.0
 30
0.0
  0
VERTEX
  5
A13
  8
0
  6
CONTINUOUS
 62
     0
 10
69.353734234665424
 20
68.729443295043097
 30
0.0
  0
VERTEX
  5
A14
  8
0
  6
CONTINUOUS
 62
     0
 10
69.267877057454726
 20
69.168166919177111
 30
0.0
  0
VERTEX
  5
A15
  8
0
  6
CONTINUOUS
 62
     0
 10
69.14362806111815
 20
70.004417479258279
 30
0.0
  0
VERTEX
  5
A16
  8
0
  6
CONTINUOUS
 62
     0
 10
69.080386066727684
 20
70.818328992150157
 30
0.0
  0
VERTEX
  5
A17
  8
0
  6
CONTINUOUS
 62
     0
 10
69.072202278690384
 20
71.229443295043097
 30
0.0
  0
SEQEND
  5
A18
  8
0
  6
CONTINUOUS
 62
     0
  0
LINE
  5
672
  8
0
  6
CONTINUOUS
 62
     0
 10
69.353734234665424
 20
68.729443295043097
 30
0.0
 11
71.790670322715428
 21
68.729443295043097
 31
0.0
  0
POLYLINE
  5
673
  8
0
  6
CONTINUOUS
 62
     0
 66
     1
 10
0.0
 20
0.0
 30
0.0
  0
VERTEX
  5
A19
  8
0
  6
CONTINUOUS
 62
     0
 10
72.072202278690398
 20
71.229443295043097
 30
0.0
  0
VERTEX
  5
A1A
  8
0
  6
CONTINUOUS
 62
     0
 10
72.064018490653169
 20
70.818328992149532
 30
0.0
  0
VERTEX
  5
A1B
  8
0
  6
CONTINUOUS
 62
     0
 10
72.000776496262702
 20
70.004417479257228
 30
0.0
  0
VERTEX
  5
A1C
  8
0
  6
CONTINUOUS
 62
     0
 10
71.87652749992607
 20
69.168166919176571
 30
0.0
  0
VERTEX
  5
A1D
  8
0
  6
CONTINUOUS
 62
     0
 10
71.790670322715428
 20
68.729443295043097
 30
0.0
  0
SEQEND
  5
A1E
  8
0
  6
CONTINUOUS
 62
     0
  0
POLYLINE
  5
674
  8
0
  6
CONTINUOUS
 62
     0
 66
     1
 10
0.0
 20
0.0
 30
0.0
  0
VERTEX
  5
A1F
  8
0
  6
CONTINUOUS
 62
     0
 10
69.353734234665424
 20
73.729443295043097
 30
0.0
  0
VERTEX
  5
A20
  8
0
  6
CONTINUOUS
 62
     0
 10
69.267877057454726
 20
73.729443295043097
 30
0.0
  0
VERTEX
  5
A21
  8
0
  6
CONTINUOUS
 62
     0
 10
69.14362806111815
 20
73.729443295043097
 30
0.0
  0
VERTEX
  5
A22
  8
0
  6
CONTINUOUS
 62
     0
 10
69.080386066727684
 20
73.729443295043097
 30
0.0
  0
VERTEX
  5
A23
  8
0
  6
CONTINUOUS
 62
     0
 10
69.072202278690384
 20
73.729443295043097
 30
0.0
  0
SEQEND
  5
A24
  8
0
  6
CONTINUOUS
 62
     0
  0
POLYLINE
  5
675
  8
0
  6
CONTINUOUS
 62
     0
 66
     1
 10
0.0
 20
0.0
 30
0.0
  0
VERTEX
  5
A25
  8
0
  6
CONTINUOUS
 62
     0
 10
72.072202278690398
 20
73.729443295043097
 30
0.0
  0
VERTEX
  5
A26
  8
0
  6
CONTINUOUS
 62
     0
 10
72.064018490653169
 20
73.729443295043097
 30
0.0
  0
VERTEX
  5
A27
  8
0
  6
CONTINUOUS
 62
     0
 10
72.000776496262702
 20
73.729443295043097
 30
0.0
  0
VERTEX
  5
A28
  8
0
  6
CONTINUOUS
 62
     0
 10
71.87652749992607
 20
73.729443295043097
 30
0.0
  0
VERTEX
  5
A29
  8
0
  6
CONTINUOUS
 62
     0
 10
71.790670322715428
 20
73.729443295043097
 30
0.0
  0
SEQEND
  5
A2A
  8
0
  6
CONTINUOUS
 62
     0
  0
POLYLINE
  5
676
  8
0
  6
CONTINUOUS
 62
     0
 66
     1
 10
0.0
 20
0.0
 30
0.0
  0
VERTEX
  5
A2B
  8
0
  6
CONTINUOUS
 62
     0
 10
72.072202278690398
 20
66.229443295043097
 30
0.0
  0
VERTEX
  5
A2C
  8
0
  6
CONTINUOUS
 62
     0
 10
72.064018490653169
 20
65.818328992149532
 30
0.0
  0
VERTEX
  5
A2D
  8
0
  6
CONTINUOUS
 62
     0
 10
72.000776496262702
 20
65.004417479257228
 30
0.0
  0
VERTEX
  5
A2E
  8
0
  6
CONTINUOUS
 62
     0
 10
71.87652749992607
 20
64.168166919176571
 30
0.0
  0
VERTEX
  5
A2F
  8
0
  6
CONTINUOUS
 62
     0
 10
71.790670322715428
 20
63.729443295043133
 30
0.0
  0
SEQEND
  5
A30
  8
0
  6
CONTINUOUS
 62
     0
  0
POLYLINE
  5
677
  8
0
  6
CONTINUOUS
 62
     0
 66
     1
 10
0.0
 20
0.0
 30
0.0
  0
VERTEX
  5
A31
  8
0
  6
CONTINUOUS
 62
     0
 10
71.790670322715428
 20
68.729443295043097
 30
0.0
  0
VERTEX
  5
A32
  8
0
  6
CONTINUOUS
 62
     0
 10
71.87652749992607
 20
68.290719670909084
 30
0.0
  0
VERTEX
  5
A33
  8
0
  6
CONTINUOUS
 62
     0
 10
72.000776496262702
 20
67.454469110827915
 30
0.0
  0
VERTEX
  5
A34
  8
0
  6
CONTINUOUS
 62
     0
 10
72.064018490653169
 20
66.640557597936038
 30
0.0
  0
VERTEX
  5
A35
  8
0
  6
CONTINUOUS
 62
     0
 10
72.072202278690398
 20
66.229443295043097
 30
0.0
  0
SEQEND
  5
A36
  8
0
  6
CONTINUOUS
 62
     0
  0
POLYLINE
  5
678
  8
0
  6
CONTINUOUS
 62
     0
 66
     1
 10
0.0
 20
0.0
 30
0.0
  0
VERTEX
  5
A37
  8
0
  6
CONTINUOUS
 62
     0
 10
69.072202278690384
 20
66.229443295043097
 30
0.0
  0
VERTEX
  5
A38
  8
0
  6
CONTINUOUS
 62
     0
 10
69.080386066727684
 20
66.640557597936663
 30
0.0
  0
VERTEX
  5
A39
  8
0
  6
CONTINUOUS
 62
     0
 10
69.14362806111815
 20
67.454469110828967
 30
0.0
  0
VERTEX
  5
A3A
  8
0
  6
CONTINUOUS
 62
     0
 10
69.267877057454726
 20
68.290719670909624
 30
0.0
  0
VERTEX
  5
A3B
  8
0
  6
CONTINUOUS
 62
     0
 10
69.353734234665424
 20
68.729443295043097
 30
0.0
  0
SEQEND
  5
A3C
  8
0
  6
CONTINUOUS
 62
     0
  0
POLYLINE
  5
679
  8
0
  6
CONTINUOUS
 62
     0
 66
     1
 10
0.0
 20
0.0
 30
0.0
  0
VERTEX
  5
A3D
  8
0
  6
CONTINUOUS
 62
     0
 10
69.353734234665424
 20
63.729443295043133
 30
0.0
  0
VERTEX
  5
A3E
  8
0
  6
CONTINUOUS
 62
     0
 10
69.267877057454726
 20
64.168166919177139
 30
0.0
  0
VERTEX
  5
A3F
  8
0
  6
CONTINUOUS
 62
     0
 10
69.14362806111815
 20
65.004417479258279
 30
0.0
  0
VERTEX
  5
A40
  8
0
  6
CONTINUOUS
 62
     0
 10
69.080386066727684
 20
65.818328992150157
 30
0.0
  0
VERTEX
  5
A41
  8
0
  6
CONTINUOUS
 62
     0
 10
69.072202278690384
 20
66.229443295043097
 30
0.0
  0
SEQEND
  5
A42
  8
0
  6
CONTINUOUS
 62
     0
  0
LINE
  5
67A
  8
0
  6
CONTINUOUS
 62
     0
 10
69.353734234665424
 20
63.729443295043133
 30
0.0
 11
71.790670322715428
 21
63.729443295043133
 31
0.0
  0
POLYLINE
  5
67B
  8
0
  6
CONTINUOUS
 62
     0
 66
     1
 10
0.0
 20
0.0
 30
0.0
  0
VERTEX
  5
A43
  8
0
  6
CONTINUOUS
 62
     0
 10
71.790670322715428
 20
63.729443295043133
 30
0.0
  0
VERTEX
  5
A44
  8
0
  6
CONTINUOUS
 62
     0
 10
71.87652749992607
 20
63.729443295043133
 30
0.0
  0
VERTEX
  5
A45
  8
0
  6
CONTINUOUS
 62
     0
 10
72.000776496262702
 20
63.729443295043133
 30
0.0
  0
VERTEX
  5
A46
  8
0
  6
CONTINUOUS
 62
     0
 10
72.064018490653169
 20
63.729443295043133
 30
0.0
  0
VERTEX
  5
A47
  8
0
  6
CONTINUOUS
 62
     0
 10
72.072202278690398
 20
63.729443295043133
 30
0.0
  0
SEQEND
  5
A48
  8
0
  6
CONTINUOUS
 62
     0
  0
POLYLINE
  5
67C
  8
0
  6
CONTINUOUS
 62
     0
 66
     1
 10
0.0
 20
0.0
 30
0.0
  0
VERTEX
  5
A49
  8
0
  6
CONTINUOUS
 62
     0
 10
69.072202278690384
 20
63.729443295043133
 30
0.0
  0
VERTEX
  5
A4A
  8
0
  6
CONTINUOUS
 62
     0
 10
69.080386066727684
 20
63.729443295043133
 30
0.0
  0
VERTEX
  5
A4B
  8
0
  6
CONTINUOUS
 62
     0
 10
69.14362806111815
 20
63.729443295043133
 30
0.0
  0
VERTEX
  5
A4C
  8
0
  6
CONTINUOUS
 62
     0
 10
69.267877057454726
 20
63.729443295043133
 30
0.0
  0
VERTEX
  5
A4D
  8
0
  6
CONTINUOUS
 62
     0
 10
69.353734234665424
 20
63.729443295043133
 30
0.0
  0
SEQEND
  5
A4E
  8
0
  6
CONTINUOUS
 62
     0
  0
POLYLINE
  5
67D
  8
0
  6
CONTINUOUS
 62
     0
 66
     1
 10
0.0
 20
0.0
 30
0.0
  0
VERTEX
  5
A4F
  8
0
  6
CONTINUOUS
 62
     0
 10
72.072202278690398
 20
66.229443295043097
 30
0.0
  0
VERTEX
  5
A50
  8
0
  6
CONTINUOUS
 62
     0
 10
72.064018490653169
 20
66.640557597936663
 30
0.0
  0
VERTEX
  5
A51
  8
0
  6
CONTINUOUS
 62
     0
 10
72.000776496262702
 20
67.454469110828967
 30
0.0
  0
VERTEX
  5
A52
  8
0
  6
CONTINUOUS
 62
     0
 10
71.87652749992607
 20
68.290719670909624
 30
0.0
  0
VERTEX
  5
A53
  8
0
  6
CONTINUOUS
 62
     0
 10
71.790670322715428
 20
68.729443295043097
 30
0.0
  0
SEQEND
  5
A54
  8
0
  6
CONTINUOUS
 62
     0
  0
POLYLINE
  5
67E
  8
0
  6
CONTINUOUS
 62
     0
 66
     1
 10
0.0
 20
0.0
 30
0.0
  0
VERTEX
  5
A55
  8
0
  6
CONTINUOUS
 62
     0
 10
71.790670322715428
 20
63.729443295043133
 30
0.0
  0
VERTEX
  5
A56
  8
0
  6
CONTINUOUS
 62
     0
 10
71.87652749992607
 20
64.168166919177139
 30
0.0
  0
VERTEX
  5
A57
  8
0
  6
CONTINUOUS
 62
     0
 10
72.000776496262702
 20
65.004417479258279
 30
0.0
  0
VERTEX
  5
A58
  8
0
  6
CONTINUOUS
 62
     0
 10
72.064018490653112
 20
65.818328992150157
 30
0.0
  0
VERTEX
  5
A59
  8
0
  6
CONTINUOUS
 62
     0
 10
72.072202278690398
 20
66.229443295043097
 30
0.0
  0
SEQEND
  5
A5A
  8
0
  6
CONTINUOUS
 62
     0
  0
POLYLINE
  5
67F
  8
0
  6
CONTINUOUS
 62
     0
 66
     1
 10
0.0
 20
0.0
 30
0.0
  0
VERTEX
  5
A5B
  8
0
  6
CONTINUOUS
 62
     0
 10
69.072202278690384
 20
66.229443295043097
 30
0.0
  0
VERTEX
  5
A5C
  8
0
  6
CONTINUOUS
 62
     0
 10
69.080386066727684
 20
65.818328992149532
 30
0.0
  0
VERTEX
  5
A5D
  8
0
  6
CONTINUOUS
 62
     0
 10
69.14362806111815
 20
65.004417479257228
 30
0.0
  0
VERTEX
  5
A5E
  8
0
  6
CONTINUOUS
 62
     0
 10
69.267877057454726
 20
64.168166919176571
 30
0.0
  0
VERTEX
  5
A5F
  8
0
  6
CONTINUOUS
 62
     0
 10
69.353734234665424
 20
63.729443295043133
 30
0.0
  0
SEQEND
  5
A60
  8
0
  6
CONTINUOUS
 62
     0
  0
POLYLINE
  5
680
  8
0
  6
CONTINUOUS
 62
     0
 66
     1
 10
0.0
 20
0.0
 30
0.0
  0
VERTEX
  5
A61
  8
0
  6
CONTINUOUS
 62
     0
 10
69.353734234665424
 20
68.729443295043097
 30
0.0
  0
VERTEX
  5
A62
  8
0
  6
CONTINUOUS
 62
     0
 10
69.267877057454726
 20
68.290719670909084
 30
0.0
  0
VERTEX
  5
A63
  8
0
  6
CONTINUOUS
 62
     0
 10
69.14362806111815
 20
67.454469110827915
 30
0.0
  0
VERTEX
  5
A64
  8
0
  6
CONTINUOUS
 62
     0
 10
69.080386066727684
 20
66.640557597936038
 30
0.0
  0
VERTEX
  5
A65
  8
0
  6
CONTINUOUS
 62
     0
 10
69.072202278690384
 20
66.229443295043097
 30
0.0
  0
SEQEND
  5
A66
  8
0
  6
CONTINUOUS
 62
     0
  0
LINE
  5
681
  8
0
  6
CONTINUOUS
 62
     0
 10
72.072202278690398
 20
73.729443295043097
 30
0.0
 11
72.072202278690398
 21
63.729443295043133
 31
0.0
  0
LINE
  5
682
  8
0
  6
CONTINUOUS
 62
     0
 10
69.072202278690384
 20
73.729443295043097
 30
0.0
 11
69.072202278690384
 21
63.729443295043133
 31
0.0
  0
LINE
  5
683
  8
0
  6
CONTINUOUS
 62
     0
 10
81.214936688782259
 20
68.729443295043097
 30
0.0
 11
76.572202278690384
 21
68.729443295043097
 31
0.0
  0
POLYLINE
  5
684
  8
0
  6
CONTINUOUS
 62
     0
 66
     1
 10
0.0
 20
0.0
 30
0.0
  0
VERTEX
  5
A67
  8
0
  6
CONTINUOUS
 62
     0
 10
81.572202278690384
 20
70.729443295043083
 30
0.0
  0
VERTEX
  5
A68
  8
0
  6
CONTINUOUS
 62
     0
 10
81.571911752426459
 20
70.67449397827815
 30
0.0
  0
VERTEX
  5
A69
  8
0
  6
CONTINUOUS
 62
     0
 10
81.569605718424683
 20
70.565128306034126
 30
0.0
  0
VERTEX
  5
A6A
  8
0
  6
CONTINUOUS
 62
     0
 10
81.565036045264165
 20
70.456333004340365
 30
0.0
  0
VERTEX
  5
A6B
  8
0
  6
CONTINUOUS
 62
     0
 10
81.561914210281444
 20
70.402098075178003
 30
0.0
  0
VERTEX
  5
A6C
  8
0
  6
CONTINUOUS
 62
     0
 10
81.558239803392567
 20
70.347945013520103
 30
0.0
  0
VERTEX
  5
A6D
  8
0
  6
CONTINUOUS
 62
     0
 10
81.549246961656095
 20
70.239806406879353
 30
0.0
  0
VERTEX
  5
A6E
  8
0
  6
CONTINUOUS
 62
     0
 10
81.538080734027361
 20
70.131763511621813
 30
0.0
  0
VERTEX
  5
A6F
  8
0
  6
CONTINUOUS
 62
     0
 10
81.524757868125576
 20
70.023666088684877
 30
0.0
  0
VERTEX
  5
A70
  8
0
  6
CONTINUOUS
 62
     0
 10
81.509288880488171
 20
69.915366561407154
 30
0.0
  0
VERTEX
  5
A71
  8
0
  6
CONTINUOUS
 62
     0
 10
81.491678242666026
 20
69.80671928397436
 30
0.0
  0
VERTEX
  5
A72
  8
0
  6
CONTINUOUS
 62
     0
 10
81.482069584773086
 20
69.752220079812332
 30
0.0
  0
VERTEX
  5
A73
  8
0
  6
CONTINUOUS
 62
     0
 10
81.471924521441636
 20
69.69757984143294
 30
0.0
  0
VERTEX
  5
A74
  8
0
  6
CONTINUOUS
 62
     0
 10
81.450020475774082
 20
69.587804373736134
 30
0.0
  0
VERTEX
  5
A75
  8
0
  6
CONTINUOUS
 62
     0
 10
81.425953112450784
 20
69.477248916815995
 30
0.0
  0
VERTEX
  5
A76
  8
0
  6
CONTINUOUS
 62
     0
 10
81.399703701851607
 20
69.365768754072917
 30
0.0
  0
VERTEX
  5
A77
  8
0
  6
CONTINUOUS
 62
     0
 10
81.371247754696597
 20
69.253217771954056
 30
0.0
  0
VERTEX
  5
A78
  8
0
  6
CONTINUOUS
 62
     0
 10
81.340554960139244
 20
69.139447813463619
 30
0.0
  0
VERTEX
  5
A79
  8
0
  6
CONTINUOUS
 62
     0
 10
81.324358657134681
 20
69.082058699424721
 30
0.0
  0
VERTEX
  5
A7A
  8
0
  6
CONTINUOUS
 62
     0
 10
81.307589085074383
 20
69.024308023514607
 30
0.0
  0
VERTEX
  5
A7B
  8
0
  6
CONTINUOUS
 62
     0
 10
81.272307834043048
 20
68.907644180001284
 30
0.0
  0
VERTEX
  5
A7C
  8
0
  6
CONTINUOUS
 62
     0
 10
81.234662668623187
 20
68.789298004338974
 30
0.0
  0
VERTEX
  5
A7D
  8
0
  6
CONTINUOUS
 62
     0
 10
81.214936688782259
 20
68.729443295043097
 30
0.0
  0
SEQEND
  5
A7E
  8
0
  6
CONTINUOUS
 62
     0
  0
POLYLINE
  5
685
  8
0
  6
CONTINUOUS
 62
     0
 66
     1
 10
0.0
 20
0.0
 30
0.0
  0
VERTEX
  5
A7F
  8
0
  6
CONTINUOUS
 62
     0
 10
81.214936688782259
 20
72.729443295043083
 30
0.0
  0
VERTEX
  5
A80
  8
0
  6
CONTINUOUS
 62
     0
 10
81.234662668623187
 20
72.669588585746993
 30
0.0
  0
VERTEX
  5
A81
  8
0
  6
CONTINUOUS
 62
     0
 10
81.272307834043048
 20
72.551242410084285
 30
0.0
  0
VERTEX
  5
A82
  8
0
  6
CONTINUOUS
 62
     0
 10
81.307589085074326
 20
72.434578566570622
 30
0.0
  0
VERTEX
  5
A83
  8
0
  6
CONTINUOUS
 62
     0
 10
81.324358657134681
 20
72.376827890660337
 30
0.0
  0
VERTEX
  5
A84
  8
0
  6
CONTINUOUS
 62
     0
 10
81.340554960139187
 20
72.319438776621269
 30
0.0
  0
VERTEX
  5
A85
  8
0
  6
CONTINUOUS
 62
     0
 10
81.371247754696597
 20
72.205668818130562
 30
0.0
  0
VERTEX
  5
A86
  8
0
  6
CONTINUOUS
 62
     0
 10
81.39970370185155
 20
72.093117836011487
 30
0.0
  0
VERTEX
  5
A87
  8
0
  6
CONTINUOUS
 62
     0
 10
81.425953112450713
 20
71.981637673268239
 30
0.0
  0
VERTEX
  5
A88
  8
0
  6
CONTINUOUS
 62
     0
 10
81.450020475774082
 20
71.871082216347958
 30
0.0
  0
VERTEX
  5
A89
  8
0
  6
CONTINUOUS
 62
     0
 10
81.471924521441579
 20
71.761306748651066
 30
0.0
  0
VERTEX
  5
A8A
  8
0
  6
CONTINUOUS
 62
     0
 10
81.482069584773086
 20
71.706666510271646
 30
0.0
  0
VERTEX
  5
A8B
  8
0
  6
CONTINUOUS
 62
     0
 10
81.491678242666026
 20
71.652167306109604
 30
0.0
  0
VERTEX
  5
A8C
  8
0
  6
CONTINUOUS
 62
     0
 10
81.509288880488171
 20
71.54352002867688
 30
0.0
  0
VERTEX
  5
A8D
  8
0
  6
CONTINUOUS
 62
     0
 10
81.524757868125576
 20
71.435220501399243
 30
0.0
  0
VERTEX
  5
A8E
  8
0
  6
CONTINUOUS
 62
     0
 10
81.538080734027304
 20
71.327123078462421
 30
0.0
  0
VERTEX
  5
A8F
  8
0
  6
CONTINUOUS
 62
     0
 10
81.549246961656095
 20
71.219080183205079
 30
0.0
  0
VERTEX
  5
A90
  8
0
  6
CONTINUOUS
 62
     0
 10
81.558239803392567
 20
71.110941576564585
 30
0.0
  0
VERTEX
  5
A91
  8
0
  6
CONTINUOUS
 62
     0
 10
81.561914210281444
 20
71.056788514906856
 30
0.0
  0
VERTEX
  5
A92
  8
0
  6
CONTINUOUS
 62
     0
 10
81.565036045264165
 20
71.002553585744664
 30
0.0
  0
VERTEX
  5
A93
  8
0
  6
CONTINUOUS
 62
     0
 10
81.569605718424683
 20
70.893758284051302
 30
0.0
  0
VERTEX
  5
A94
  8
0
  6
CONTINUOUS
 62
     0
 10
81.571911752426459
 20
70.784392611807789
 30
0.0
  0
VERTEX
  5
A95
  8
0
  6
CONTINUOUS
 62
     0
 10
81.572202278690384
 20
70.729443295043083
 30
0.0
  0
SEQEND
  5
A96
  8
0
  6
CONTINUOUS
 62
     0
  0
LINE
  5
686
  8
0
  6
CONTINUOUS
 62
     0
 10
81.214936688782259
 20
72.729443295043083
 30
0.0
 11
76.572202278690384
 21
72.729443295043083
 31
0.0
  0
POLYLINE
  5
687
  8
0
  6
CONTINUOUS
 62
     0
 66
     1
 10
0.0
 20
0.0
 30
0.0
  0
VERTEX
  5
A97
  8
0
  6
CONTINUOUS
 62
     0
 10
81.572202278690384
 20
70.729443295043083
 30
0.0
  0
VERTEX
  5
A98
  8
0
  6
CONTINUOUS
 62
     0
 10
81.571911752426459
 20
70.784392611808045
 30
0.0
  0
VERTEX
  5
A99
  8
0
  6
CONTINUOUS
 62
     0
 10
81.569605718424683
 20
70.893758284052041
 30
0.0
  0
VERTEX
  5
A9A
  8
0
  6
CONTINUOUS
 62
     0
 10
81.565036045264165
 20
71.002553585745829
 30
0.0
  0
VERTEX
  5
A9B
  8
0
  6
CONTINUOUS
 62
     0
 10
81.561914210281444
 20
71.056788514908192
 30
0.0
  0
VERTEX
  5
A9C
  8
0
  6
CONTINUOUS
 62
     0
 10
81.558239803392567
 20
71.110941576566091
 30
0.0
  0
VERTEX
  5
A9D
  8
0
  6
CONTINUOUS
 62
     0
 10
81.549246961656095
 20
71.219080183206842
 30
0.0
  0
VERTEX
  5
A9E
  8
0
  6
CONTINUOUS
 62
     0
 10
81.538080734027361
 20
71.327123078464382
 30
0.0
  0
VERTEX
  5
A9F
  8
0
  6
CONTINUOUS
 62
     0
 10
81.524757868125576
 20
71.435220501401304
 30
0.0
  0
VERTEX
  5
AA0
  8
0
  6
CONTINUOUS
 62
     0
 10
81.509288880488171
 20
71.54352002867904
 30
0.0
  0
VERTEX
  5
AA1
  8
0
  6
CONTINUOUS
 62
     0
 10
81.491678242666026
 20
71.652167306111835
 30
0.0
  0
VERTEX
  5
AA2
  8
0
  6
CONTINUOUS
 62
     0
 10
81.482069584773086
 20
71.706666510273863
 30
0.0
  0
VERTEX
  5
AA3
  8
0
  6
CONTINUOUS
 62
     0
 10
81.471924521441636
 20
71.761306748653254
 30
0.0
  0
VERTEX
  5
AA4
  8
0
  6
CONTINUOUS
 62
     0
 10
81.450020475774082
 20
71.871082216350061
 30
0.0
  0
VERTEX
  5
AA5
  8
0
  6
CONTINUOUS
 62
     0
 10
81.425953112450784
 20
71.9816376732702
 30
0.0
  0
VERTEX
  5
AA6
  8
0
  6
CONTINUOUS
 62
     0
 10
81.399703701851607
 20
72.093117836013278
 30
0.0
  0
VERTEX
  5
AA7
  8
0
  6
CONTINUOUS
 62
     0
 10
81.371247754696597
 20
72.205668818132125
 30
0.0
  0
VERTEX
  5
AA8
  8
0
  6
CONTINUOUS
 62
     0
 10
81.340554960139244
 20
72.319438776622576
 30
0.0
  0
VERTEX
  5
AA9
  8
0
  6
CONTINUOUS
 62
     0
 10
81.324358657134681
 20
72.376827890661474
 30
0.0
  0
VERTEX
  5
AAA
  8
0
  6
CONTINUOUS
 62
     0
 10
81.307589085074383
 20
72.434578566571574
 30
0.0
  0
VERTEX
  5
AAB
  8
0
  6
CONTINUOUS
 62
     0
 10
81.272307834043048
 20
72.55124241008491
 30
0.0
  0
VERTEX
  5
AAC
  8
0
  6
CONTINUOUS
 62
     0
 10
81.234662668623187
 20
72.669588585747221
 30
0.0
  0
VERTEX
  5
AAD
  8
0
  6
CONTINUOUS
 62
     0
 10
81.214936688782259
 20
72.729443295043083
 30
0.0
  0
SEQEND
  5
AAE
  8
0
  6
CONTINUOUS
 62
     0
  0
POLYLINE
  5
688
  8
0
  6
CONTINUOUS
 62
     0
 66
     1
 10
0.0
 20
0.0
 30
0.0
  0
VERTEX
  5
AAF
  8
0
  6
CONTINUOUS
 62
     0
 10
81.214936688782259
 20
68.729443295043097
 30
0.0
  0
VERTEX
  5
AB0
  8
0
  6
CONTINUOUS
 62
     0
 10
81.234662668623187
 20
68.789298004339201
 30
0.0
  0
VERTEX
  5
AB1
  8
0
  6
CONTINUOUS
 62
     0
 10
81.272307834043048
 20
68.90764418000191
 30
0.0
  0
VERTEX
  5
AB2
  8
0
  6
CONTINUOUS
 62
     0
 10
81.307589085074326
 20
69.024308023515573
 30
0.0
  0
VERTEX
  5
AB3
  8
0
  6
CONTINUOUS
 62
     0
 10
81.324358657134681
 20
69.082058699425858
 30
0.0
  0
VERTEX
  5
AB4
  8
0
  6
CONTINUOUS
 62
     0
 10
81.340554960139187
 20
69.139447813464898
 30
0.0
  0
VERTEX
  5
AB5
  8
0
  6
CONTINUOUS
 62
     0
 10
81.371247754696597
 20
69.253217771955633
 30
0.0
  0
VERTEX
  5
AB6
  8
0
  6
CONTINUOUS
 62
     0
 10
81.39970370185155
 20
69.365768754074708
 30
0.0
  0
VERTEX
  5
AB7
  8
0
  6
CONTINUOUS
 62
     0
 10
81.425953112450713
 20
69.477248916817956
 30
0.0
  0
VERTEX
  5
AB8
  8
0
  6
CONTINUOUS
 62
     0
 10
81.450020475774082
 20
69.587804373738237
 30
0.0
  0
VERTEX
  5
AB9
  8
0
  6
CONTINUOUS
 62
     0
 10
81.471924521441579
 20
69.697579841435115
 30
0.0
  0
VERTEX
  5
ABA
  8
0
  6
CONTINUOUS
 62
     0
 10
81.482069584773086
 20
69.752220079814549
 30
0.0
  0
VERTEX
  5
ABB
  8
0
  6
CONTINUOUS
 62
     0
 10
81.491678242666026
 20
69.806719283976577
 30
0.0
  0
VERTEX
  5
ABC
  8
0
  6
CONTINUOUS
 62
     0
 10
81.509288880488171
 20
69.915366561409314
 30
0.0
  0
VERTEX
  5
ABD
  8
0
  6
CONTINUOUS
 62
     0
 10
81.524757868125576
 20
70.023666088686952
 30
0.0
  0
VERTEX
  5
ABE
  8
0
  6
CONTINUOUS
 62
     0
 10
81.538080734027304
 20
70.131763511623774
 30
0.0
  0
VERTEX
  5
ABF
  8
0
  6
CONTINUOUS
 62
     0
 10
81.549246961656095
 20
70.239806406881115
 30
0.0
  0
VERTEX
  5
AC0
  8
0
  6
CONTINUOUS
 62
     0
 10
81.558239803392567
 20
70.347945013521581
 30
0.0
  0
VERTEX
  5
AC1
  8
0
  6
CONTINUOUS
 62
     0
 10
81.561914210281444
 20
70.402098075179339
 30
0.0
  0
VERTEX
  5
AC2
  8
0
  6
CONTINUOUS
 62
     0
 10
81.565036045264165
 20
70.456333004341531
 30
0.0
  0
VERTEX
  5
AC3
  8
0
  6
CONTINUOUS
 62
     0
 10
81.569605718424683
 20
70.565128306034893
 30
0.0
  0
VERTEX
  5
AC4
  8
0
  6
CONTINUOUS
 62
     0
 10
81.571911752426459
 20
70.674493978278406
 30
0.0
  0
VERTEX
  5
AC5
  8
0
  6
CONTINUOUS
 62
     0
 10
81.572202278690384
 20
70.729443295043083
 30
0.0
  0
SEQEND
  5
AC6
  8
0
  6
CONTINUOUS
 62
     0
  0
POLYLINE
  5
689
  8
0
  6
CONTINUOUS
 62
     0
 66
     1
 10
0.0
 20
0.0
 30
0.0
  0
VERTEX
  5
AC7
  8
0
  6
CONTINUOUS
 62
     0
 10
81.572202278690384
 20
72.729443295043083
 30
0.0
  0
VERTEX
  5
AC8
  8
0
  6
CONTINUOUS
 62
     0
 10
81.571911752426459
 20
72.729443295043083
 30
0.0
  0
VERTEX
  5
AC9
  8
0
  6
CONTINUOUS
 62
     0
 10
81.569605718424683
 20
72.729443295043083
 30
0.0
  0
VERTEX
  5
ACA
  8
0
  6
CONTINUOUS
 62
     0
 10
81.565036045264165
 20
72.729443295043083
 30
0.0
  0
VERTEX
  5
ACB
  8
0
  6
CONTINUOUS
 62
     0
 10
81.561914210281444
 20
72.729443295043083
 30
0.0
  0
VERTEX
  5
ACC
  8
0
  6
CONTINUOUS
 62
     0
 10
81.558239803392567
 20
72.729443295043083
 30
0.0
  0
VERTEX
  5
ACD
  8
0
  6
CONTINUOUS
 62
     0
 10
81.549246961656095
 20
72.729443295043083
 30
0.0
  0
VERTEX
  5
ACE
  8
0
  6
CONTINUOUS
 62
     0
 10
81.538080734027361
 20
72.729443295043083
 30
0.0
  0
VERTEX
  5
ACF
  8
0
  6
CONTINUOUS
 62
     0
 10
81.524757868125576
 20
72.729443295043083
 30
0.0
  0
VERTEX
  5
AD0
  8
0
  6
CONTINUOUS
 62
     0
 10
81.509288880488171
 20
72.729443295043083
 30
0.0
  0
VERTEX
  5
AD1
  8
0
  6
CONTINUOUS
 62
     0
 10
81.491678242666026
 20
72.729443295043083
 30
0.0
  0
VERTEX
  5
AD2
  8
0
  6
CONTINUOUS
 62
     0
 10
81.482069584773086
 20
72.729443295043083
 30
0.0
  0
VERTEX
  5
AD3
  8
0
  6
CONTINUOUS
 62
     0
 10
81.471924521441636
 20
72.729443295043083
 30
0.0
  0
VERTEX
  5
AD4
  8
0
  6
CONTINUOUS
 62
     0
 10
81.450020475774082
 20
72.729443295043083
 30
0.0
  0
VERTEX
  5
AD5
  8
0
  6
CONTINUOUS
 62
     0
 10
81.425953112450784
 20
72.729443295043083
 30
0.0
  0
VERTEX
  5
AD6
  8
0
  6
CONTINUOUS
 62
     0
 10
81.399703701851607
 20
72.729443295043083
 30
0.0
  0
VERTEX
  5
AD7
  8
0
  6
CONTINUOUS
 62
     0
 10
81.371247754696597
 20
72.729443295043083
 30
0.0
  0
VERTEX
  5
AD8
  8
0
  6
CONTINUOUS
 62
     0
 10
81.340554960139244
 20
72.729443295043083
 30
0.0
  0
VERTEX
  5
AD9
  8
0
  6
CONTINUOUS
 62
     0
 10
81.324358657134681
 20
72.729443295043083
 30
0.0
  0
VERTEX
  5
ADA
  8
0
  6
CONTINUOUS
 62
     0
 10
81.307589085074383
 20
72.729443295043083
 30
0.0
  0
VERTEX
  5
ADB
  8
0
  6
CONTINUOUS
 62
     0
 10
81.272307834043048
 20
72.729443295043083
 30
0.0
  0
VERTEX
  5
ADC
  8
0
  6
CONTINUOUS
 62
     0
 10
81.234662668623187
 20
72.729443295043083
 30
0.0
  0
VERTEX
  5
ADD
  8
0
  6
CONTINUOUS
 62
     0
 10
81.214936688782259
 20
72.729443295043083
 30
0.0
  0
SEQEND
  5
ADE
  8
0
  6
CONTINUOUS
 62
     0
  0
POLYLINE
  5
68A
  8
0
  6
CONTINUOUS
 62
     0
 66
     1
 10
0.0
 20
0.0
 30
0.0
  0
VERTEX
  5
ADF
  8
0
  6
CONTINUOUS
 62
     0
 10
81.572202278690384
 20
66.729443295043097
 30
0.0
  0
VERTEX
  5
AE0
  8
0
  6
CONTINUOUS
 62
     0
 10
81.571911752426459
 20
66.784392611808045
 30
0.0
  0
VERTEX
  5
AE1
  8
0
  6
CONTINUOUS
 62
     0
 10
81.569605718424683
 20
66.893758284052069
 30
0.0
  0
VERTEX
  5
AE2
  8
0
  6
CONTINUOUS
 62
     0
 10
81.565036045264165
 20
67.002553585745829
 30
0.0
  0
VERTEX
  5
AE3
  8
0
  6
CONTINUOUS
 62
     0
 10
81.561914210281444
 20
67.056788514908192
 30
0.0
  0
VERTEX
  5
AE4
  8
0
  6
CONTINUOUS
 62
     0
 10
81.558239803392567
 20
67.110941576566091
 30
0.0
  0
VERTEX
  5
AE5
  8
0
  6
CONTINUOUS
 62
     0
 10
81.549246961656095
 20
67.219080183206842
 30
0.0
  0
VERTEX
  5
AE6
  8
0
  6
CONTINUOUS
 62
     0
 10
81.538080734027361
 20
67.327123078464382
 30
0.0
  0
VERTEX
  5
AE7
  8
0
  6
CONTINUOUS
 62
     0
 10
81.524757868125576
 20
67.435220501401318
 30
0.0
  0
VERTEX
  5
AE8
  8
0
  6
CONTINUOUS
 62
     0
 10
81.509288880488171
 20
67.54352002867904
 30
0.0
  0
VERTEX
  5
AE9
  8
0
  6
CONTINUOUS
 62
     0
 10
81.491678242666026
 20
67.652167306111835
 30
0.0
  0
VERTEX
  5
AEA
  8
0
  6
CONTINUOUS
 62
     0
 10
81.482069584773086
 20
67.706666510273863
 30
0.0
  0
VERTEX
  5
AEB
  8
0
  6
CONTINUOUS
 62
     0
 10
81.471924521441636
 20
67.761306748653254
 30
0.0
  0
VERTEX
  5
AEC
  8
0
  6
CONTINUOUS
 62
     0
 10
81.450020475774082
 20
67.871082216350061
 30
0.0
  0
VERTEX
  5
AED
  8
0
  6
CONTINUOUS
 62
     0
 10
81.425953112450784
 20
67.9816376732702
 30
0.0
  0
VERTEX
  5
AEE
  8
0
  6
CONTINUOUS
 62
     0
 10
81.399703701851607
 20
68.093117836013263
 30
0.0
  0
VERTEX
  5
AEF
  8
0
  6
CONTINUOUS
 62
     0
 10
81.371247754696597
 20
68.205668818132125
 30
0.0
  0
VERTEX
  5
AF0
  8
0
  6
CONTINUOUS
 62
     0
 10
81.340554960139244
 20
68.319438776622576
 30
0.0
  0
VERTEX
  5
AF1
  8
0
  6
CONTINUOUS
 62
     0
 10
81.324358657134681
 20
68.376827890661474
 30
0.0
  0
VERTEX
  5
AF2
  8
0
  6
CONTINUOUS
 62
     0
 10
81.307589085074383
 20
68.434578566571588
 30
0.0
  0
VERTEX
  5
AF3
  8
0
  6
CONTINUOUS
 62
     0
 10
81.272307834043048
 20
68.55124241008491
 30
0.0
  0
VERTEX
  5
AF4
  8
0
  6
CONTINUOUS
 62
     0
 10
81.234662668623187
 20
68.669588585747221
 30
0.0
  0
VERTEX
  5
AF5
  8
0
  6
CONTINUOUS
 62
     0
 10
81.214936688782259
 20
68.729443295043097
 30
0.0
  0
SEQEND
  5
AF6
  8
0
  6
CONTINUOUS
 62
     0
  0
POLYLINE
  5
68B
  8
0
  6
CONTINUOUS
 62
     0
 66
     1
 10
0.0
 20
0.0
 30
0.0
  0
VERTEX
  5
AF7
  8
0
  6
CONTINUOUS
 62
     0
 10
81.214936688782259
 20
64.729443295043126
 30
0.0
  0
VERTEX
  5
AF8
  8
0
  6
CONTINUOUS
 62
     0
 10
81.234662668623187
 20
64.789298004339201
 30
0.0
  0
VERTEX
  5
AF9
  8
0
  6
CONTINUOUS
 62
     0
 10
81.272307834043048
 20
64.90764418000191
 30
0.0
  0
VERTEX
  5
AFA
  8
0
  6
CONTINUOUS
 62
     0
 10
81.307589085074326
 20
65.024308023515573
 30
0.0
  0
VERTEX
  5
AFB
  8
0
  6
CONTINUOUS
 62
     0
 10
81.324358657134681
 20
65.082058699425843
 30
0.0
  0
VERTEX
  5
AFC
  8
0
  6
CONTINUOUS
 62
     0
 10
81.340554960139187
 20
65.139447813464926
 30
0.0
  0
VERTEX
  5
AFD
  8
0
  6
CONTINUOUS
 62
     0
 10
81.371247754696597
 20
65.253217771955633
 30
0.0
  0
VERTEX
  5
AFE
  8
0
  6
CONTINUOUS
 62
     0
 10
81.39970370185155
 20
65.365768754074708
 30
0.0
  0
VERTEX
  5
AFF
  8
0
  6
CONTINUOUS
 62
     0
 10
81.425953112450713
 20
65.477248916817956
 30
0.0
  0
VERTEX
  5
B00
  8
0
  6
CONTINUOUS
 62
     0
 10
81.450020475774082
 20
65.587804373738237
 30
0.0
  0
VERTEX
  5
B01
  8
0
  6
CONTINUOUS
 62
     0
 10
81.471924521441579
 20
65.697579841435129
 30
0.0
  0
VERTEX
  5
B02
  8
0
  6
CONTINUOUS
 62
     0
 10
81.482069584773086
 20
65.752220079814549
 30
0.0
  0
VERTEX
  5
B03
  8
0
  6
CONTINUOUS
 62
     0
 10
81.491678242666026
 20
65.806719283976577
 30
0.0
  0
VERTEX
  5
B04
  8
0
  6
CONTINUOUS
 62
     0
 10
81.509288880488171
 20
65.915366561409314
 30
0.0
  0
VERTEX
  5
B05
  8
0
  6
CONTINUOUS
 62
     0
 10
81.524757868125576
 20
66.023666088686952
 30
0.0
  0
VERTEX
  5
B06
  8
0
  6
CONTINUOUS
 62
     0
 10
81.538080734027304
 20
66.131763511623774
 30
0.0
  0
VERTEX
  5
B07
  8
0
  6
CONTINUOUS
 62
     0
 10
81.549246961656095
 20
66.239806406881115
 30
0.0
  0
VERTEX
  5
B08
  8
0
  6
CONTINUOUS
 62
     0
 10
81.558239803392567
 20
66.347945013521596
 30
0.0
  0
VERTEX
  5
B09
  8
0
  6
CONTINUOUS
 62
     0
 10
81.561914210281444
 20
66.402098075179325
 30
0.0
  0
VERTEX
  5
B0A
  8
0
  6
CONTINUOUS
 62
     0
 10
81.565036045264165
 20
66.456333004341531
 30
0.0
  0
VERTEX
  5
B0B
  8
0
  6
CONTINUOUS
 62
     0
 10
81.569605718424683
 20
66.565128306034893
 30
0.0
  0
VERTEX
  5
B0C
  8
0
  6
CONTINUOUS
 62
     0
 10
81.571911752426459
 20
66.674493978278406
 30
0.0
  0
VERTEX
  5
B0D
  8
0
  6
CONTINUOUS
 62
     0
 10
81.572202278690384
 20
66.729443295043097
 30
0.0
  0
SEQEND
  5
B0E
  8
0
  6
CONTINUOUS
 62
     0
  0
POLYLINE
  5
68C
  8
0
  6
CONTINUOUS
 62
     0
 66
     1
 10
0.0
 20
0.0
 30
0.0
  0
VERTEX
  5
B0F
  8
0
  6
CONTINUOUS
 62
     0
 10
81.214936688782259
 20
64.729443295043126
 30
0.0
  0
VERTEX
  5
B10
  8
0
  6
CONTINUOUS
 62
     0
 10
81.234662668623187
 20
64.729443295043126
 30
0.0
  0
VERTEX
  5
B11
  8
0
  6
CONTINUOUS
 62
     0
 10
81.272307834043048
 20
64.729443295043126
 30
0.0
  0
VERTEX
  5
B12
  8
0
  6
CONTINUOUS
 62
     0
 10
81.307589085074326
 20
64.729443295043126
 30
0.0
  0
VERTEX
  5
B13
  8
0
  6
CONTINUOUS
 62
     0
 10
81.324358657134681
 20
64.729443295043126
 30
0.0
  0
VERTEX
  5
B14
  8
0
  6
CONTINUOUS
 62
     0
 10
81.340554960139187
 20
64.729443295043126
 30
0.0
  0
VERTEX
  5
B15
  8
0
  6
CONTINUOUS
 62
     0
 10
81.371247754696597
 20
64.729443295043126
 30
0.0
  0
VERTEX
  5
B16
  8
0
  6
CONTINUOUS
 62
     0
 10
81.39970370185155
 20
64.729443295043126
 30
0.0
  0
VERTEX
  5
B17
  8
0
  6
CONTINUOUS
 62
     0
 10
81.425953112450713
 20
64.729443295043126
 30
0.0
  0
VERTEX
  5
B18
  8
0
  6
CONTINUOUS
 62
     0
 10
81.450020475774082
 20
64.729443295043126
 30
0.0
  0
VERTEX
  5
B19
  8
0
  6
CONTINUOUS
 62
     0
 10
81.471924521441579
 20
64.729443295043126
 30
0.0
  0
VERTEX
  5
B1A
  8
0
  6
CONTINUOUS
 62
     0
 10
81.482069584773086
 20
64.729443295043126
 30
0.0
  0
VERTEX
  5
B1B
  8
0
  6
CONTINUOUS
 62
     0
 10
81.491678242666026
 20
64.729443295043126
 30
0.0
  0
VERTEX
  5
B1C
  8
0
  6
CONTINUOUS
 62
     0
 10
81.509288880488171
 20
64.729443295043126
 30
0.0
  0
VERTEX
  5
B1D
  8
0
  6
CONTINUOUS
 62
     0
 10
81.524757868125576
 20
64.729443295043126
 30
0.0
  0
VERTEX
  5
B1E
  8
0
  6
CONTINUOUS
 62
     0
 10
81.538080734027304
 20
64.729443295043126
 30
0.0
  0
VERTEX
  5
B1F
  8
0
  6
CONTINUOUS
 62
     0
 10
81.549246961656095
 20
64.729443295043126
 30
0.0
  0
VERTEX
  5
B20
  8
0
  6
CONTINUOUS
 62
     0
 10
81.558239803392567
 20
64.729443295043126
 30
0.0
  0
VERTEX
  5
B21
  8
0
  6
CONTINUOUS
 62
     0
 10
81.561914210281444
 20
64.729443295043126
 30
0.0
  0
VERTEX
  5
B22
  8
0
  6
CONTINUOUS
 62
     0
 10
81.565036045264165
 20
64.729443295043126
 30
0.0
  0
VERTEX
  5
B23
  8
0
  6
CONTINUOUS
 62
     0
 10
81.569605718424683
 20
64.729443295043126
 30
0.0
  0
VERTEX
  5
B24
  8
0
  6
CONTINUOUS
 62
     0
 10
81.571911752426459
 20
64.729443295043126
 30
0.0
  0
VERTEX
  5
B25
  8
0
  6
CONTINUOUS
 62
     0
 10
81.572202278690384
 20
64.729443295043126
 30
0.0
  0
SEQEND
  5
B26
  8
0
  6
CONTINUOUS
 62
     0
  0
LINE
  5
68D
  8
0
  6
CONTINUOUS
 62
     0
 10
81.214936688782259
 20
64.729443295043126
 30
0.0
 11
76.572202278690384
 21
64.729443295043126
 31
0.0
  0
LINE
  5
68E
  8
0
  6
CONTINUOUS
 62
     0
 10
76.572202278690384
 20
64.729443295043126
 30
0.0
 11
76.572202278690384
 21
72.729443295043083
 31
0.0
  0
POLYLINE
  5
68F
  8
0
  6
CONTINUOUS
 62
     0
 66
     1
 10
0.0
 20
0.0
 30
0.0
  0
VERTEX
  5
B27
  8
0
  6
CONTINUOUS
 62
     0
 10
81.572202278690384
 20
66.729443295043097
 30
0.0
  0
VERTEX
  5
B28
  8
0
  6
CONTINUOUS
 62
     0
 10
81.571911752426459
 20
66.67449397827815
 30
0.0
  0
VERTEX
  5
B29
  8
0
  6
CONTINUOUS
 62
     0
 10
81.569605718424683
 20
66.565128306034154
 30
0.0
  0
VERTEX
  5
B2A
  8
0
  6
CONTINUOUS
 62
     0
 10
81.565036045264165
 20
66.456333004340365
 30
0.0
  0
VERTEX
  5
B2B
  8
0
  6
CONTINUOUS
 62
     0
 10
81.561914210281444
 20
66.402098075178003
 30
0.0
  0
VERTEX
  5
B2C
  8
0
  6
CONTINUOUS
 62
     0
 10
81.558239803392567
 20
66.347945013520103
 30
0.0
  0
VERTEX
  5
B2D
  8
0
  6
CONTINUOUS
 62
     0
 10
81.549246961656095
 20
66.239806406879353
 30
0.0
  0
VERTEX
  5
B2E
  8
0
  6
CONTINUOUS
 62
     0
 10
81.538080734027361
 20
66.131763511621813
 30
0.0
  0
VERTEX
  5
B2F
  8
0
  6
CONTINUOUS
 62
     0
 10
81.524757868125576
 20
66.023666088684877
 30
0.0
  0
VERTEX
  5
B30
  8
0
  6
CONTINUOUS
 62
     0
 10
81.509288880488171
 20
65.915366561407154
 30
0.0
  0
VERTEX
  5
B31
  8
0
  6
CONTINUOUS
 62
     0
 10
81.491678242666026
 20
65.806719283974346
 30
0.0
  0
VERTEX
  5
B32
  8
0
  6
CONTINUOUS
 62
     0
 10
81.482069584773086
 20
65.752220079812332
 30
0.0
  0
VERTEX
  5
B33
  8
0
  6
CONTINUOUS
 62
     0
 10
81.471924521441636
 20
65.69757984143294
 30
0.0
  0
VERTEX
  5
B34
  8
0
  6
CONTINUOUS
 62
     0
 10
81.450020475774082
 20
65.587804373736134
 30
0.0
  0
VERTEX
  5
B35
  8
0
  6
CONTINUOUS
 62
     0
 10
81.425953112450784
 20
65.477248916815995
 30
0.0
  0
VERTEX
  5
B36
  8
0
  6
CONTINUOUS
 62
     0
 10
81.399703701851607
 20
65.365768754072917
 30
0.0
  0
VERTEX
  5
B37
  8
0
  6
CONTINUOUS
 62
     0
 10
81.371247754696597
 20
65.25321777195407
 30
0.0
  0
VERTEX
  5
B38
  8
0
  6
CONTINUOUS
 62
     0
 10
81.340554960139244
 20
65.139447813463619
 30
0.0
  0
VERTEX
  5
B39
  8
0
  6
CONTINUOUS
 62
     0
 10
81.324358657134681
 20
65.082058699424721
 30
0.0
  0
VERTEX
  5
B3A
  8
0
  6
CONTINUOUS
 62
     0
 10
81.307589085074383
 20
65.024308023514607
 30
0.0
  0
VERTEX
  5
B3B
  8
0
  6
CONTINUOUS
 62
     0
 10
81.272307834043048
 20
64.907644180001284
 30
0.0
  0
VERTEX
  5
B3C
  8
0
  6
CONTINUOUS
 62
     0
 10
81.234662668623187
 20
64.789298004338974
 30
0.0
  0
VERTEX
  5
B3D
  8
0
  6
CONTINUOUS
 62
     0
 10
81.214936688782259
 20
64.729443295043126
 30
0.0
  0
SEQEND
  5
B3E
  8
0
  6
CONTINUOUS
 62
     0
  0
POLYLINE
  5
690
  8
0
  6
CONTINUOUS
 62
     0
 66
     1
 10
0.0
 20
0.0
 30
0.0
  0
VERTEX
  5
B3F
  8
0
  6
CONTINUOUS
 62
     0
 10
81.214936688782259
 20
68.729443295043097
 30
0.0
  0
VERTEX
  5
B40
  8
0
  6
CONTINUOUS
 62
     0
 10
81.234662668623187
 20
68.669588585746993
 30
0.0
  0
VERTEX
  5
B41
  8
0
  6
CONTINUOUS
 62
     0
 10
81.272307834043048
 20
68.551242410084285
 30
0.0
  0
VERTEX
  5
B42
  8
0
  6
CONTINUOUS
 62
     0
 10
81.307589085074326
 20
68.434578566570622
 30
0.0
  0
VERTEX
  5
B43
  8
0
  6
CONTINUOUS
 62
     0
 10
81.324358657134681
 20
68.376827890660337
 30
0.0
  0
VERTEX
  5
B44
  8
0
  6
CONTINUOUS
 62
     0
 10
81.340554960139187
 20
68.319438776621297
 30
0.0
  0
VERTEX
  5
B45
  8
0
  6
CONTINUOUS
 62
     0
 10
81.371247754696597
 20
68.205668818130562
 30
0.0
  0
VERTEX
  5
B46
  8
0
  6
CONTINUOUS
 62
     0
 10
81.39970370185155
 20
68.093117836011487
 30
0.0
  0
VERTEX
  5
B47
  8
0
  6
CONTINUOUS
 62
     0
 10
81.425953112450713
 20
67.981637673268239
 30
0.0
  0
VERTEX
  5
B48
  8
0
  6
CONTINUOUS
 62
     0
 10
81.450020475774082
 20
67.871082216347943
 30
0.0
  0
VERTEX
  5
B49
  8
0
  6
CONTINUOUS
 62
     0
 10
81.471924521441579
 20
67.761306748651066
 30
0.0
  0
VERTEX
  5
B4A
  8
0
  6
CONTINUOUS
 62
     0
 10
81.482069584773086
 20
67.706666510271646
 30
0.0
  0
VERTEX
  5
B4B
  8
0
  6
CONTINUOUS
 62
     0
 10
81.491678242666026
 20
67.652167306109618
 30
0.0
  0
VERTEX
  5
B4C
  8
0
  6
CONTINUOUS
 62
     0
 10
81.509288880488171
 20
67.54352002867688
 30
0.0
  0
VERTEX
  5
B4D
  8
0
  6
CONTINUOUS
 62
     0
 10
81.524757868125576
 20
67.435220501399243
 30
0.0
  0
VERTEX
  5
B4E
  8
0
  6
CONTINUOUS
 62
     0
 10
81.538080734027304
 20
67.327123078462421
 30
0.0
  0
VERTEX
  5
B4F
  8
0
  6
CONTINUOUS
 62
     0
 10
81.549246961656095
 20
67.219080183205079
 30
0.0
  0
VERTEX
  5
B50
  8
0
  6
CONTINUOUS
 62
     0
 10
81.558239803392567
 20
67.110941576564613
 30
0.0
  0
VERTEX
  5
B51
  8
0
  6
CONTINUOUS
 62
     0
 10
81.561914210281444
 20
67.056788514906884
 30
0.0
  0
VERTEX
  5
B52
  8
0
  6
CONTINUOUS
 62
     0
 10
81.565036045264165
 20
67.002553585744664
 30
0.0
  0
VERTEX
  5
B53
  8
0
  6
CONTINUOUS
 62
     0
 10
81.569605718424683
 20
66.893758284051302
 30
0.0
  0
VERTEX
  5
B54
  8
0
  6
CONTINUOUS
 62
     0
 10
81.571911752426459
 20
66.784392611807789
 30
0.0
  0
VERTEX
  5
B55
  8
0
  6
CONTINUOUS
 62
     0
 10
81.572202278690384
 20
66.729443295043097
 30
0.0
  0
SEQEND
  5
B56
  8
0
  6
CONTINUOUS
 62
     0
  0
LINE
  5
691
  8
0
  6
CONTINUOUS
 62
     0
 10
81.572202278690384
 20
72.729443295043083
 30
0.0
 11
81.572202278690384
 21
64.729443295043126
 31
0.0
  0
LINE
  5
692
  8
0
  6
CONTINUOUS
 62
     0
 10
64.572202278690398
 20
71.11594329504311
 30
0.0
 11
64.572202278690398
 21
66.342943295043085
 31
0.0
  0
LINE
  5
693
  8
0
  6
CONTINUOUS
 62
     0
 10
65.185702278690442
 20
71.729443295043097
 30
0.0
 11
65.185702278690442
 21
65.729443295043083
 31
0.0
  0
LINE
  5
695
  8
0
  6
CONTINUOUS
 62
     0
 10
61.872202278690402
 20
70.229443295043083
 30
0.0
 11
61.872202278690402
 21
67.229443295043097
 31
0.0
  0
LINE
  5
696
  8
0
  6
CONTINUOUS
 62
     0
 10
81.784334313046386
 20
72.729443295043083
 30
0.0
 11
81.784334313046386
 21
64.729443295043126
 31
0.0
  0
LINE
  5
697
  8
0
  6
CONTINUOUS
 62
     0
 10
87.372202278690409
 20
72.729443295043083
 30
0.0
 11
87.372202278690409
 21
64.729443295043126
 31
0.0
  0
LINE
  5
698
  8
0
  6
CONTINUOUS
 62
     0
 10
91.501348040103963
 20
75.729443295043083
 30
0.0
 11
91.501348040103963
 21
61.729443295043119
 31
0.0
  0
LINE
  5
699
  8
0
  6
CONTINUOUS
 62
     0
 10
91.772202278690386
 20
75.729443295043083
 30
0.0
 11
91.772202278690386
 21
61.729443295043119
 31
0.0
  0
LINE
  5
69A
  8
0
  6
CONTINUOUS
 62
     0
 10
92.572202278690384
 20
74.929443295043086
 30
0.0
 11
92.572202278690384
 21
62.52944329504313
 31
0.0
  0
LINE
  5
69B
  8
0
  6
CONTINUOUS
 62
     0
 10
76.572202278690384
 20
71.729443295043097
 30
0.0
 11
72.072202278690398
 21
71.729443295043097
 31
0.0
  0
LINE
  5
69C
  8
0
  6
CONTINUOUS
 62
     0
 10
72.072202278690398
 20
65.729443295043083
 30
0.0
 11
76.572202278690384
 21
65.729443295043083
 31
0.0
  0
LINE
  5
69D
  8
0
  6
CONTINUOUS
 62
     0
 10
65.185702278690442
 20
71.729443295043097
 30
0.0
 11
64.572202278690398
 21
71.11594329504311
 31
0.0
  0
LINE
  5
69E
  8
0
  6
CONTINUOUS
 62
     0
 10
64.572202278690398
 20
66.342943295043085
 30
0.0
 11
65.185702278690442
 21
65.729443295043083
 31
0.0
  0
LINE
  5
69F
  8
0
  6
CONTINUOUS
 62
     0
 10
69.072202278690384
 20
71.729443295043097
 30
0.0
 11
65.185702278690442
 21
71.729443295043097
 31
0.0
  0
LINE
  5
6A0
  8
0
  6
CONTINUOUS
 62
     0
 10
65.185702278690442
 20
65.729443295043083
 30
0.0
 11
69.072202278690384
 21
65.729443295043083
 31
0.0
  0
LINE
  5
6A1
  8
0
  6
CONTINUOUS
 62
     0
 10
61.872202278690402
 20
70.229443295043083
 30
0.0
 11
61.31272741698006
 21
69.906430333029803
 31
0.0
  0
LINE
  5
6A2
  8
0
  6
CONTINUOUS
 62
     0
 10
61.31272741698006
 20
67.552456257056392
 30
0.0
 11
61.872202278690402
 21
67.229443295043097
 31
0.0
  0
LINE
  5
6A3
  8
0
  6
CONTINUOUS
 62
     0
 10
64.572202278690398
 20
70.229443295043083
 30
0.0
 11
61.872202278690402
 21
70.229443295043083
 31
0.0
  0
LINE
  5
6A4
  8
0
  6
CONTINUOUS
 62
     0
 10
61.872202278690402
 20
67.229443295043097
 30
0.0
 11
64.572202278690398
 21
67.229443295043097
 31
0.0
  0
LINE
  5
6A5
  8
0
  6
CONTINUOUS
 62
     0
 10
81.784334313046386
 20
72.729443295043083
 30
0.0
 11
81.572202278690384
 21
72.517311260687137
 31
0.0
  0
LINE
  5
6A6
  8
0
  6
CONTINUOUS
 62
     0
 10
81.573225533759825
 20
64.940552074329702
 30
0.0
 11
81.784334313046386
 21
64.729443295043126
 31
0.0
  0
LINE
  5
6A7
  8
0
  6
CONTINUOUS
 62
     0
 10
87.372202278690409
 20
72.729443295043083
 30
0.0
 11
81.784334313046386
 21
72.729443295043083
 31
0.0
  0
LINE
  5
6A8
  8
0
  6
CONTINUOUS
 62
     0
 10
81.784334313046386
 20
64.729443295043126
 30
0.0
 11
87.372202278690409
 21
64.729443295043126
 31
0.0
  0
LINE
  5
6A9
  8
0
  6
CONTINUOUS
 62
     0
 10
91.501348040103963
 20
75.729443295043083
 30
0.0
 11
87.372202278690409
 21
72.729443295043083
 31
0.0
  0
LINE
  5
6AA
  8
0
  6
CONTINUOUS
 62
     0
 10
87.372202278690409
 20
64.729443295043126
 30
0.0
 11
91.501348040103963
 21
61.729443295043119
 31
0.0
  0
LINE
  5
6AB
  8
0
  6
CONTINUOUS
 62
     0
 10
91.772202278690386
 20
75.729443295043083
 30
0.0
 11
91.501348040103963
 21
75.729443295043083
 31
0.0
  0
LINE
  5
6AC
  8
0
  6
CONTINUOUS
 62
     0
 10
91.501348040103963
 20
61.729443295043119
 30
0.0
 11
91.772202278690386
 21
61.729443295043119
 31
0.0
  0
ARC
  5
6AD
  8
0
  6
CONTINUOUS
 62
     0
 10
91.772202278690386
 20
62.52944329504313
 30
0.0
 40
0.7999999999999999
 50
270.0
 51
0.0
  0
ARC
  5
6AE
  8
0
  6
CONTINUOUS
 62
     0
 10
91.772202278690386
 20
74.929443295043114
 30
0.0
 40
0.7999999999999991
 50
0.0
 51
89.999999999999986
  0
ARC
  5
6AF
  8
2
 10
100.7722022786903
 20
68.729443295043112
 30
0.0
 40
9.9999999999999645
 50
145.0847937525559
 51
214.9152062474441
  0
CIRCLE
  5
6D9
  8
0
  6
CONTINUOUS
 62
     0
 10
23.654933691701839
 20
28.582972010503472
 30
0.0
 40
5.000000000000016
  0
LINE
  5
6DA
  8
1
 10
13.65493369170184
 20
28.582972010503461
 30
0.0
 11
33.654933691701842
 21
28.582972010503461
 31
0.0
  0
LINE
  5
6DB
  8
1
 10
23.654933691701839
 20
38.582972010503468
 30
0.0
 11
23.654933691701839
 21
18.582972010503472
 31
0.0
  0
POLYLINE
  5
6DD
  8
0
  6
CONTINUOUS
 62
     0
 66
     1
 10
0.0
 20
0.0
 30
0.0
  0
VERTEX
  5
B57
  8
0
  6
CONTINUOUS
 62
     0
 10
28.654933691701871
 20
25.69622066455533
 30
0.0
  0
VERTEX
  5
B58
  8
0
  6
CONTINUOUS
 62
     0
 10
28.65493369170186
 20
26.20281506954257
 30
0.0
  0
VERTEX
  5
B59
  8
0
  6
CONTINUOUS
 62
     0
 10
28.654933691701871
 20
27.168434041488251
 30
0.0
  0
VERTEX
  5
B5A
  8
0
  6
CONTINUOUS
 62
     0
 10
28.65493369170186
 20
28.108258103617569
 30
0.0
  0
VERTEX
  5
B5B
  8
0
  6
CONTINUOUS
 62
     0
 10
28.65493369170186
 20
28.582972010503461
 30
0.0
  0
SEQEND
  5
B5C
  8
0
  6
CONTINUOUS
 62
     0
  0
POLYLINE
  5
6DE
  8
0
  6
CONTINUOUS
 62
     0
 66
     1
 10
0.0
 20
0.0
 30
0.0
  0
VERTEX
  5
B5D
  8
0
  6
CONTINUOUS
 62
     0
 10
28.65493369170186
 20
28.582972010503461
 30
0.0
  0
VERTEX
  5
B5E
  8
0
  6
CONTINUOUS
 62
     0
 10
28.654933691701881
 20
29.05768591739006
 30
0.0
  0
VERTEX
  5
B5F
  8
0
  6
CONTINUOUS
 62
     0
 10
28.654933691701839
 20
29.99750997951989
 30
0.0
  0
VERTEX
  5
B60
  8
0
  6
CONTINUOUS
 62
     0
 10
28.654933691701839
 20
30.963128951464981
 30
0.0
  0
VERTEX
  5
B61
  8
0
  6
CONTINUOUS
 62
     0
 10
28.654933691701871
 20
31.469723356451588
 30
0.0
  0
SEQEND
  5
B62
  8
0
  6
CONTINUOUS
 62
     0
  0
POLYLINE
  5
6DF
  8
0
  6
CONTINUOUS
 62
     0
 66
     1
 10
0.0
 20
0.0
 30
0.0
  0
VERTEX
  5
B63
  8
0
  6
CONTINUOUS
 62
     0
 10
23.654933691701839
 20
34.356474702399737
 30
0.0
  0
VERTEX
  5
B64
  8
0
  6
CONTINUOUS
 62
     0
 10
23.216210067567872
 20
34.103177499906081
 30
0.0
  0
VERTEX
  5
B65
  8
0
  6
CONTINUOUS
 62
     0
 10
22.379959507486699
 20
33.620368013933252
 30
0.0
  0
VERTEX
  5
B66
  8
0
  6
CONTINUOUS
 62
     0
 10
21.566047994594818
 20
33.1504559828686
 30
0.0
  0
VERTEX
  5
B67
  8
0
  6
CONTINUOUS
 62
     0
 10
21.154933691701832
 20
32.913099029425673
 30
0.0
  0
SEQEND
  5
B68
  8
0
  6
CONTINUOUS
 62
     0
  0
POLYLINE
  5
6E0
  8
0
  6
CONTINUOUS
 62
     0
 66
     1
 10
0.0
 20
0.0
 30
0.0
  0
VERTEX
  5
B69
  8
0
  6
CONTINUOUS
 62
     0
 10
21.154933691701832
 20
32.913099029425673
 30
0.0
  0
VERTEX
  5
B6A
  8
0
  6
CONTINUOUS
 62
     0
 10
20.74381938880828
 20
32.675742075982363
 30
0.0
  0
VERTEX
  5
B6B
  8
0
  6
CONTINUOUS
 62
     0
 10
19.92990787591599
 20
32.205830044917427
 30
0.0
  0
VERTEX
  5
B6C
  8
0
  6
CONTINUOUS
 62
     0
 10
19.09365731583533
 20
31.72302055894491
 30
0.0
  0
VERTEX
  5
B6D
  8
0
  6
CONTINUOUS
 62
     0
 10
18.654933691701871
 20
31.469723356451581
 30
0.0
  0
SEQEND
  5
B6E
  8
0
  6
CONTINUOUS
 62
     0
  0
POLYLINE
  5
6E1
  8
0
  6
CONTINUOUS
 62
     0
 66
     1
 10
0.0
 20
0.0
 30
0.0
  0
VERTEX
  5
B6F
  8
0
  6
CONTINUOUS
 62
     0
 10
28.654933691701871
 20
31.469723356451588
 30
0.0
  0
VERTEX
  5
B70
  8
0
  6
CONTINUOUS
 62
     0
 10
28.21621006756784
 20
31.723020558945219
 30
0.0
  0
VERTEX
  5
B71
  8
0
  6
CONTINUOUS
 62
     0
 10
27.379959507486671
 20
32.205830044918059
 30
0.0
  0
VERTEX
  5
B72
  8
0
  6
CONTINUOUS
 62
     0
 10
26.566047994594779
 20
32.675742075982718
 30
0.0
  0
VERTEX
  5
B73
  8
0
  6
CONTINUOUS
 62
     0
 10
26.154933691701849
 20
32.913099029425673
 30
0.0
  0
SEQEND
  5
B74
  8
0
  6
CONTINUOUS
 62
     0
  0
POLYLINE
  5
6E2
  8
0
  6
CONTINUOUS
 62
     0
 66
     1
 10
0.0
 20
0.0
 30
0.0
  0
VERTEX
  5
B75
  8
0
  6
CONTINUOUS
 62
     0
 10
26.154933691701849
 20
32.913099029425673
 30
0.0
  0
VERTEX
  5
B76
  8
0
  6
CONTINUOUS
 62
     0
 10
25.743819388808269
 20
33.150455982868984
 30
0.0
  0
VERTEX
  5
B77
  8
0
  6
CONTINUOUS
 62
     0
 10
24.929907875916001
 20
33.62036801393387
 30
0.0
  0
VERTEX
  5
B78
  8
0
  6
CONTINUOUS
 62
     0
 10
24.09365731583533
 20
34.103177499906423
 30
0.0
  0
VERTEX
  5
B79
  8
0
  6
CONTINUOUS
 62
     0
 10
23.654933691701839
 20
34.356474702399737
 30
0.0
  0
SEQEND
  5
B7A
  8
0
  6
CONTINUOUS
 62
     0
  0
POLYLINE
  5
6E3
  8
0
  6
CONTINUOUS
 62
     0
 66
     1
 10
0.0
 20
0.0
 30
0.0
  0
VERTEX
  5
B7B
  8
0
  6
CONTINUOUS
 62
     0
 10
18.654933691701832
 20
28.582972010503479
 30
0.0
  0
VERTEX
  5
B7C
  8
0
  6
CONTINUOUS
 62
     0
 10
18.654933691701849
 20
28.108258103616858
 30
0.0
  0
VERTEX
  5
B7D
  8
0
  6
CONTINUOUS
 62
     0
 10
18.654933691701832
 20
27.168434041487028
 30
0.0
  0
VERTEX
  5
B7E
  8
0
  6
CONTINUOUS
 62
     0
 10
18.654933691701839
 20
26.202815069541941
 30
0.0
  0
VERTEX
  5
B7F
  8
0
  6
CONTINUOUS
 62
     0
 10
18.654933691701832
 20
25.696220664555351
 30
0.0
  0
SEQEND
  5
B80
  8
0
  6
CONTINUOUS
 62
     0
  0
POLYLINE
  5
6E4
  8
0
  6
CONTINUOUS
 62
     0
 66
     1
 10
0.0
 20
0.0
 30
0.0
  0
VERTEX
  5
B81
  8
0
  6
CONTINUOUS
 62
     0
 10
18.654933691701871
 20
31.469723356451581
 30
0.0
  0
VERTEX
  5
B82
  8
0
  6
CONTINUOUS
 62
     0
 10
18.654933691701832
 20
30.96312895146437
 30
0.0
  0
VERTEX
  5
B83
  8
0
  6
CONTINUOUS
 62
     0
 10
18.654933691701832
 20
29.9975099795187
 30
0.0
  0
VERTEX
  5
B84
  8
0
  6
CONTINUOUS
 62
     0
 10
18.654933691701832
 20
29.057685917389371
 30
0.0
  0
VERTEX
  5
B85
  8
0
  6
CONTINUOUS
 62
     0
 10
18.654933691701832
 20
28.582972010503479
 30
0.0
  0
SEQEND
  5
B86
  8
0
  6
CONTINUOUS
 62
     0
  0
POLYLINE
  5
6E5
  8
0
  6
CONTINUOUS
 62
     0
 66
     1
 10
0.0
 20
0.0
 30
0.0
  0
VERTEX
  5
B87
  8
0
  6
CONTINUOUS
 62
     0
 10
21.154933691701839
 20
24.252844991581281
 30
0.0
  0
VERTEX
  5
B88
  8
0
  6
CONTINUOUS
 62
     0
 10
21.566047994595412
 20
24.015488038137971
 30
0.0
  0
VERTEX
  5
B89
  8
0
  6
CONTINUOUS
 62
     0
 10
22.379959507487751
 20
23.545576007073048
 30
0.0
  0
VERTEX
  5
B8A
  8
0
  6
CONTINUOUS
 62
     0
 10
23.216210067568419
 20
23.062766521100489
 30
0.0
  0
VERTEX
  5
B8B
  8
0
  6
CONTINUOUS
 62
     0
 10
23.65493369170186
 20
22.80946931860721
 30
0.0
  0
SEQEND
  5
B8C
  8
0
  6
CONTINUOUS
 62
     0
  0
POLYLINE
  5
6E6
  8
0
  6
CONTINUOUS
 62
     0
 66
     1
 10
0.0
 20
0.0
 30
0.0
  0
VERTEX
  5
B8D
  8
0
  6
CONTINUOUS
 62
     0
 10
18.654933691701832
 20
25.696220664555351
 30
0.0
  0
VERTEX
  5
B8E
  8
0
  6
CONTINUOUS
 62
     0
 10
19.093657315835848
 20
25.442923462061721
 30
0.0
  0
VERTEX
  5
B8F
  8
0
  6
CONTINUOUS
 62
     0
 10
19.929907875917021
 20
24.960113976088891
 30
0.0
  0
VERTEX
  5
B90
  8
0
  6
CONTINUOUS
 62
     0
 10
20.743819388808909
 20
24.490201945024221
 30
0.0
  0
VERTEX
  5
B91
  8
0
  6
CONTINUOUS
 62
     0
 10
21.154933691701839
 20
24.252844991581281
 30
0.0
  0
SEQEND
  5
B92
  8
0
  6
CONTINUOUS
 62
     0
  0
POLYLINE
  5
6E7
  8
0
  6
CONTINUOUS
 62
     0
 66
     1
 10
0.0
 20
0.0
 30
0.0
  0
VERTEX
  5
B93
  8
0
  6
CONTINUOUS
 62
     0
 10
26.15493369170186
 20
24.25284499158127
 30
0.0
  0
VERTEX
  5
B94
  8
0
  6
CONTINUOUS
 62
     0
 10
26.566047994595412
 20
24.49020194502458
 30
0.0
  0
VERTEX
  5
B95
  8
0
  6
CONTINUOUS
 62
     0
 10
27.379959507487751
 20
24.96011397608947
 30
0.0
  0
VERTEX
  5
B96
  8
0
  6
CONTINUOUS
 62
     0
 10
28.216210067568412
 20
25.442923462062009
 30
0.0
  0
VERTEX
  5
B97
  8
0
  6
CONTINUOUS
 62
     0
 10
28.654933691701871
 20
25.69622066455533
 30
0.0
  0
SEQEND
  5
B98
  8
0
  6
CONTINUOUS
 62
     0
  0
POLYLINE
  5
6E8
  8
0
  6
CONTINUOUS
 62
     0
 66
     1
 10
0.0
 20
0.0
 30
0.0
  0
VERTEX
  5
B99
  8
0
  6
CONTINUOUS
 62
     0
 10
23.65493369170186
 20
22.80946931860721
 30
0.0
  0
VERTEX
  5
B9A
  8
0
  6
CONTINUOUS
 62
     0
 10
24.09365731583587
 20
23.06276652110083
 30
0.0
  0
VERTEX
  5
B9B
  8
0
  6
CONTINUOUS
 62
     0
 10
24.929907875917038
 20
23.545576007073659
 30
0.0
  0
VERTEX
  5
B9C
  8
0
  6
CONTINUOUS
 62
     0
 10
25.74381938880892
 20
24.015488038138312
 30
0.0
  0
VERTEX
  5
B9D
  8
0
  6
CONTINUOUS
 62
     0
 10
26.15493369170186
 20
24.25284499158127
 30
0.0
  0
SEQEND
  5
B9E
  8
0
  6
CONTINUOUS
 62
     0
  0
CIRCLE
  5
6E9
  8
0
  6
CONTINUOUS
 62
     0
 10
23.654933691701839
 20
28.582972010503472
 30
0.0
 40
3.0
  0
POLYLINE
  5
6EA
  8
2
 66
     1
 10
0.0
 20
0.0
 30
0.0
  0
VERTEX
  5
B9F
  8
2
 10
21.65493369170186
 20
32.047073625641218
 30
0.0
  0
VERTEX
  5
BA0
  8
2
 10
21.59998437493692
 20
32.015348622815182
 30
0.0
  0
VERTEX
  5
BA1
  8
2
 10
21.490618702692899
 20
31.952206322504988
 30
0.0
  0
VERTEX
  5
BA2
  8
2
 10
21.3818234009991
 20
31.889393325785559
 30
0.0
  0
VERTEX
  5
BA3
  8
2
 10
21.32758847183678
 20
31.858080774834171
 30
0.0
  0
VERTEX
  5
BA4
  8
2
 10
21.27343541017887
 20
31.82681549010853
 30
0.0
  0
VERTEX
  5
BA5
  8
2
 10
21.165296803538119
 20
31.764381636454701
 30
0.0
  0
VERTEX
  5
BA6
  8
2
 10
21.057253908280579
 20
31.702003041793741
 30
0.0
  0
VERTEX
  5
BA7
  8
2
 10
20.949156485343639
 20
31.6395929655624
 30
0.0
  0
VERTEX
  5
BA8
  8
2
 10
20.840856958065888
 20
31.577066204335509
 30
0.0
  0
VERTEX
  5
BA9
  8
2
 10
20.732209680633119
 20
31.514338669462958
 30
0.0
  0
VERTEX
  5
BAA
  8
2
 10
20.677710476471091
 20
31.482873539269381
 30
0.0
  0
VERTEX
  5
BAB
  8
2
 10
20.623070238091689
 20
31.451326982932471
 30
0.0
  0
VERTEX
  5
BAC
  8
2
 10
20.513294770394889
 20
31.38794808710729
 30
0.0
  0
VERTEX
  5
BAD
  8
2
 10
20.402739313474729
 20
31.324118864294078
 30
0.0
  0
VERTEX
  5
BAE
  8
2
 10
20.291259150731641
 20
31.25975576232506
 30
0.0
  0
VERTEX
  5
BAF
  8
2
 10
20.17870816861284
 20
31.194774422501169
 30
0.0
  0
VERTEX
  5
BB0
  8
2
 10
20.064938210122371
 20
31.129089306341019
 30
0.0
  0
VERTEX
  5
BB1
  8
2
 10
20.007549096083501
 20
31.095955685902101
 30
0.0
  0
VERTEX
  5
BB2
  8
2
 10
19.949798420173359
 20
31.062613317619519
 30
0.0
  0
VERTEX
  5
BB3
  8
2
 10
19.833134576660029
 20
30.99525741616241
 30
0.0
  0
VERTEX
  5
BB4
  8
2
 10
19.714788400997751
 20
30.9269302197862
 30
0.0
  0
VERTEX
  5
BB5
  8
2
 10
19.654933691701871
 20
30.892373087261959
 30
0.0
  0
SEQEND
  5
BB6
  8
2
  0
POLYLINE
  5
6EB
  8
2
 66
     1
 10
0.0
 20
0.0
 30
0.0
  0
VERTEX
  5
BB7
  8
2
 10
23.65493369170186
 20
33.201774164020463
 30
0.0
  0
VERTEX
  5
BB8
  8
2
 10
23.59507898240577
 20
33.167217031496087
 30
0.0
  0
VERTEX
  5
BB9
  8
2
 10
23.47673280674303
 20
33.098889835119678
 30
0.0
  0
VERTEX
  5
BBA
  8
2
 10
23.360068963229391
 20
33.031533933662359
 30
0.0
  0
VERTEX
  5
BBB
  8
2
 10
23.302318287319121
 20
32.998191565379663
 30
0.0
  0
VERTEX
  5
BBC
  8
2
 10
23.24492917328006
 20
32.965057944940639
 30
0.0
  0
VERTEX
  5
BBD
  8
2
 10
23.13115921478931
 20
32.899372828780372
 30
0.0
  0
VERTEX
  5
BBE
  8
2
 10
23.01860823267025
 20
32.834391488956364
 30
0.0
  0
VERTEX
  5
BBF
  8
2
 10
22.90712806992698
 20
32.770028386987249
 30
0.0
  0
VERTEX
  5
BC0
  8
2
 10
22.796572613006699
 20
32.706199164173938
 30
0.0
  0
VERTEX
  5
BC1
  8
2
 10
22.68679714530986
 20
32.6428202683487
 30
0.0
  0
VERTEX
  5
BC2
  8
2
 10
22.632156906930391
 20
32.61127371201178
 30
0.0
  0
VERTEX
  5
BC3
  8
2
 10
22.57765770276837
 20
32.579808581818213
 30
0.0
  0
VERTEX
  5
BC4
  8
2
 10
22.469010425335622
 20
32.517081046945712
 30
0.0
  0
VERTEX
  5
BC5
  8
2
 10
22.360710898058009
 20
32.454554285718842
 30
0.0
  0
VERTEX
  5
BC6
  8
2
 10
22.25261347512118
 20
32.392144209487547
 30
0.0
  0
VERTEX
  5
BC7
  8
2
 10
22.144570579863831
 20
32.329765614826712
 30
0.0
  0
VERTEX
  5
BC8
  8
2
 10
22.036431973223358
 20
32.267331761173033
 30
0.0
  0
VERTEX
  5
BC9
  8
2
 10
21.98227891156564
 20
32.23606647644749
 30
0.0
  0
VERTEX
  5
BCA
  8
2
 10
21.928043982403452
 20
32.204753925496213
 30
0.0
  0
VERTEX
  5
BCB
  8
2
 10
21.819248680710079
 20
32.141940928776989
 30
0.0
  0
VERTEX
  5
BCC
  8
2
 10
21.70988300846653
 20
32.078798628467119
 30
0.0
  0
VERTEX
  5
BCD
  8
2
 10
21.65493369170186
 20
32.047073625641218
 30
0.0
  0
SEQEND
  5
BCE
  8
2
  0
POLYLINE
  5
6EC
  8
2
 66
     1
 10
0.0
 20
0.0
 30
0.0
  0
VERTEX
  5
BCF
  8
2
 10
27.654933691701881
 20
28.58297201050345
 30
0.0
  0
VERTEX
  5
BD0
  8
2
 10
27.654933691701832
 20
28.646422016155519
 30
0.0
  0
VERTEX
  5
BD1
  8
2
 10
27.654933691701832
 20
28.772706616775881
 30
0.0
  0
VERTEX
  5
BD2
  8
2
 10
27.654933691701849
 20
28.898332610214819
 30
0.0
  0
VERTEX
  5
BD3
  8
2
 10
27.654933691701888
 20
28.960957712117551
 30
0.0
  0
VERTEX
  5
BD4
  8
2
 10
27.654933691701832
 20
29.023488281568831
 30
0.0
  0
VERTEX
  5
BD5
  8
2
 10
27.654933691701832
 20
29.148355988876489
 30
0.0
  0
VERTEX
  5
BD6
  8
2
 10
27.654933691701881
 20
29.2731131781984
 30
0.0
  0
VERTEX
  5
BD7
  8
2
 10
27.654933691701832
 20
29.397933330661122
 30
0.0
  0
VERTEX
  5
BD8
  8
2
 10
27.654933691701849
 20
29.522986853114912
 30
0.0
  0
VERTEX
  5
BD9
  8
2
 10
27.654933691701871
 20
29.648441922859991
 30
0.0
  0
VERTEX
  5
BDA
  8
2
 10
27.654933691701871
 20
29.711372183247121
 30
0.0
  0
VERTEX
  5
BDB
  8
2
 10
27.654933691701871
 20
29.774465295920979
 30
0.0
  0
VERTEX
  5
BDC
  8
2
 10
27.654933691701871
 20
29.90122308757131
 30
0.0
  0
VERTEX
  5
BDD
  8
2
 10
27.654933691701849
 20
30.028881533197769
 30
0.0
  0
VERTEX
  5
BDE
  8
2
 10
27.654933691701832
 20
30.15760773713582
 30
0.0
  0
VERTEX
  5
BDF
  8
2
 10
27.654933691701832
 20
30.28757041678357
 30
0.0
  0
VERTEX
  5
BE0
  8
2
 10
27.654933691701871
 20
30.41894064910386
 30
0.0
  0
VERTEX
  5
BE1
  8
2
 10
27.654933691701832
 20
30.485207889981702
 30
0.0
  0
VERTEX
  5
BE2
  8
2
 10
27.654933691701871
 20
30.551892626546849
 30
0.0
  0
VERTEX
  5
BE3
  8
2
 10
27.654933691701871
 20
30.686604429461092
 30
0.0
  0
VERTEX
  5
BE4
  8
2
 10
27.654933691701832
 20
30.823258822213489
 30
0.0
  0
VERTEX
  5
BE5
  8
2
 10
27.654933691701832
 20
30.892373087261969
 30
0.0
  0
SEQEND
  5
BE6
  8
2
  0
POLYLINE
  5
6ED
  8
2
 66
     1
 10
0.0
 20
0.0
 30
0.0
  0
VERTEX
  5
BE7
  8
2
 10
27.654933691701871
 20
26.273570933744949
 30
0.0
  0
VERTEX
  5
BE8
  8
2
 10
27.654933691701832
 20
26.342685198793721
 30
0.0
  0
VERTEX
  5
BE9
  8
2
 10
27.65493369170186
 20
26.479339591546559
 30
0.0
  0
VERTEX
  5
BEA
  8
2
 10
27.654933691701832
 20
26.614051394461189
 30
0.0
  0
VERTEX
  5
BEB
  8
2
 10
27.654933691701849
 20
26.680736131026549
 30
0.0
  0
VERTEX
  5
BEC
  8
2
 10
27.654933691701839
 20
26.747003371904551
 30
0.0
  0
VERTEX
  5
BED
  8
2
 10
27.654933691701871
 20
26.878373604225182
 30
0.0
  0
VERTEX
  5
BEE
  8
2
 10
27.654933691701881
 20
27.00833628387317
 30
0.0
  0
VERTEX
  5
BEF
  8
2
 10
27.654933691701849
 20
27.13706248781142
 30
0.0
  0
VERTEX
  5
BF0
  8
2
 10
27.65493369170186
 20
27.264720933438031
 30
0.0
  0
VERTEX
  5
BF1
  8
2
 10
27.654933691701849
 20
27.391478725088469
 30
0.0
  0
VERTEX
  5
BF2
  8
2
 10
27.65493369170186
 20
27.454571837762352
 30
0.0
  0
VERTEX
  5
BF3
  8
2
 10
27.65493369170186
 20
27.517502098149489
 30
0.0
  0
VERTEX
  5
BF4
  8
2
 10
27.654933691701849
 20
27.642957167894512
 30
0.0
  0
VERTEX
  5
BF5
  8
2
 10
27.654933691701832
 20
27.76801069034823
 30
0.0
  0
VERTEX
  5
BF6
  8
2
 10
27.654933691701871
 20
27.892830842810771
 30
0.0
  0
VERTEX
  5
BF7
  8
2
 10
27.654933691701871
 20
28.017588032132469
 30
0.0
  0
VERTEX
  5
BF8
  8
2
 10
27.654933691701871
 20
28.1424557394398
 30
0.0
  0
VERTEX
  5
BF9
  8
2
 10
27.654933691701849
 20
28.204986308890909
 30
0.0
  0
VERTEX
  5
BFA
  8
2
 10
27.654933691701849
 20
28.26761141079345
 30
0.0
  0
VERTEX
  5
BFB
  8
2
 10
27.654933691701849
 20
28.393237404231911
 30
0.0
  0
VERTEX
  5
BFC
  8
2
 10
27.654933691701849
 20
28.519522004851702
 30
0.0
  0
VERTEX
  5
BFD
  8
2
 10
27.654933691701881
 20
28.58297201050345
 30
0.0
  0
SEQEND
  5
BFE
  8
2
  0
POLYLINE
  5
6EE
  8
2
 66
     1
 10
0.0
 20
0.0
 30
0.0
  0
VERTEX
  5
BFF
  8
2
 10
25.654933691701839
 20
32.047073625641218
 30
0.0
  0
VERTEX
  5
C00
  8
2
 10
25.599984374936909
 20
32.07879862846724
 30
0.0
  0
VERTEX
  5
C01
  8
2
 10
25.49061870269291
 20
32.141940928777423
 30
0.0
  0
VERTEX
  5
C02
  8
2
 10
25.381823400999149
 20
32.204753925496867
 30
0.0
  0
VERTEX
  5
C03
  8
2
 10
25.327588471836769
 20
32.236066476448258
 30
0.0
  0
VERTEX
  5
C04
  8
2
 10
25.27343541017887
 20
32.267331761173892
 30
0.0
  0
VERTEX
  5
C05
  8
2
 10
25.165296803538109
 20
32.329765614827721
 30
0.0
  0
VERTEX
  5
C06
  8
2
 10
25.057253908280568
 20
32.392144209488691
 30
0.0
  0
VERTEX
  5
C07
  8
2
 10
24.949156485343629
 20
32.454554285720043
 30
0.0
  0
VERTEX
  5
C08
  8
2
 10
24.840856958065899
 20
32.517081046946942
 30
0.0
  0
VERTEX
  5
C09
  8
2
 10
24.732209680633151
 20
32.579808581819471
 30
0.0
  0
VERTEX
  5
C0A
  8
2
 10
24.67771047647112
 20
32.61127371201303
 30
0.0
  0
VERTEX
  5
C0B
  8
2
 10
24.62307023809171
 20
32.642820268349972
 30
0.0
  0
VERTEX
  5
C0C
  8
2
 10
24.513294770394911
 20
32.706199164175132
 30
0.0
  0
VERTEX
  5
C0D
  8
2
 10
24.40273931347474
 20
32.770028386988372
 30
0.0
  0
VERTEX
  5
C0E
  8
2
 10
24.29125915073168
 20
32.83439148895738
 30
0.0
  0
VERTEX
  5
C0F
  8
2
 10
24.17870816861284
 20
32.899372828781253
 30
0.0
  0
VERTEX
  5
C10
  8
2
 10
24.064938210122389
 20
32.965057944941407
 30
0.0
  0
VERTEX
  5
C11
  8
2
 10
24.00754909608348
 20
32.998191565380331
 30
0.0
  0
VERTEX
  5
C12
  8
2
 10
23.949798420173391
 20
33.031533933662899
 30
0.0
  0
VERTEX
  5
C13
  8
2
 10
23.833134576660051
 20
33.098889835120019
 30
0.0
  0
VERTEX
  5
C14
  8
2
 10
23.71478840099773
 20
33.167217031496222
 30
0.0
  0
VERTEX
  5
C15
  8
2
 10
23.65493369170186
 20
33.201774164020463
 30
0.0
  0
SEQEND
  5
C16
  8
2
  0
POLYLINE
  5
6EF
  8
2
 66
     1
 10
0.0
 20
0.0
 30
0.0
  0
VERTEX
  5
C17
  8
2
 10
27.654933691701832
 20
30.892373087261969
 30
0.0
  0
VERTEX
  5
C18
  8
2
 10
27.595078982405759
 20
30.926930219786328
 30
0.0
  0
VERTEX
  5
C19
  8
2
 10
27.476732806743041
 20
30.995257416162762
 30
0.0
  0
VERTEX
  5
C1A
  8
2
 10
27.36006896322937
 20
31.06261331762008
 30
0.0
  0
VERTEX
  5
C1B
  8
2
 10
27.302318287319132
 20
31.095955685902741
 30
0.0
  0
VERTEX
  5
C1C
  8
2
 10
27.24492917328007
 20
31.12908930634174
 30
0.0
  0
VERTEX
  5
C1D
  8
2
 10
27.131159214789331
 20
31.194774422502061
 30
0.0
  0
VERTEX
  5
C1E
  8
2
 10
27.018608232670228
 20
31.25975576232608
 30
0.0
  0
VERTEX
  5
C1F
  8
2
 10
26.90712806992698
 20
31.324118864295201
 30
0.0
  0
VERTEX
  5
C20
  8
2
 10
26.79657261300671
 20
31.387948087108501
 30
0.0
  0
VERTEX
  5
C21
  8
2
 10
26.686797145309811
 20
31.451326982933718
 30
0.0
  0
VERTEX
  5
C22
  8
2
 10
26.632156906930408
 20
31.48287353927066
 30
0.0
  0
VERTEX
  5
C23
  8
2
 10
26.577657702768381
 20
31.51433866946423
 30
0.0
  0
VERTEX
  5
C24
  8
2
 10
26.469010425335629
 20
31.577066204336749
 30
0.0
  0
VERTEX
  5
C25
  8
2
 10
26.360710898057992
 20
31.639592965563601
 30
0.0
  0
VERTEX
  5
C26
  8
2
 10
26.252613475121201
 20
31.70200304179485
 30
0.0
  0
VERTEX
  5
C27
  8
2
 10
26.144570579863849
 20
31.76438163645571
 30
0.0
  0
VERTEX
  5
C28
  8
2
 10
26.036431973223351
 20
31.8268154901094
 30
0.0
  0
VERTEX
  5
C29
  8
2
 10
25.982278911565651
 20
31.858080774834921
 30
0.0
  0
VERTEX
  5
C2A
  8
2
 10
25.928043982403452
 20
31.889393325786191
 30
0.0
  0
VERTEX
  5
C2B
  8
2
 10
25.819248680710089
 20
31.952206322505418
 30
0.0
  0
VERTEX
  5
C2C
  8
2
 10
25.709883008466541
 20
32.015348622815338
 30
0.0
  0
VERTEX
  5
C2D
  8
2
 10
25.654933691701839
 20
32.047073625641218
 30
0.0
  0
SEQEND
  5
C2E
  8
2
  0
POLYLINE
  5
6F0
  8
2
 66
     1
 10
0.0
 20
0.0
 30
0.0
  0
VERTEX
  5
C2F
  8
2
 10
25.654933691701881
 20
25.1188703953657
 30
0.0
  0
VERTEX
  5
C30
  8
2
 10
25.709883008466822
 20
25.150595398191729
 30
0.0
  0
VERTEX
  5
C31
  8
2
 10
25.819248680710832
 20
25.21373769850193
 30
0.0
  0
VERTEX
  5
C32
  8
2
 10
25.928043982404589
 20
25.276550695221388
 30
0.0
  0
VERTEX
  5
C33
  8
2
 10
25.982278911566961
 20
25.307863246172751
 30
0.0
  0
VERTEX
  5
C34
  8
2
 10
26.036431973224818
 20
25.33912853089841
 30
0.0
  0
VERTEX
  5
C35
  8
2
 10
26.144570579865618
 20
25.401562384552211
 30
0.0
  0
VERTEX
  5
C36
  8
2
 10
26.252613475123159
 20
25.46394097921317
 30
0.0
  0
VERTEX
  5
C37
  8
2
 10
26.360710898060091
 20
25.526351055444518
 30
0.0
  0
VERTEX
  5
C38
  8
2
 10
26.469010425337789
 20
25.588877816671431
 30
0.0
  0
VERTEX
  5
C39
  8
2
 10
26.57765770277058
 20
25.651605351543989
 30
0.0
  0
VERTEX
  5
C3A
  8
2
 10
26.6321569069326
 20
25.683070481737548
 30
0.0
  0
VERTEX
  5
C3B
  8
2
 10
26.686797145311999
 20
25.714617038074479
 30
0.0
  0
VERTEX
  5
C3C
  8
2
 10
26.796572613008799
 20
25.77799593389965
 30
0.0
  0
VERTEX
  5
C3D
  8
2
 10
26.907128069928952
 20
25.841825156712861
 30
0.0
  0
VERTEX
  5
C3E
  8
2
 10
27.018608232672051
 20
25.906188258681869
 30
0.0
  0
VERTEX
  5
C3F
  8
2
 10
27.131159214790891
 20
25.97116959850575
 30
0.0
  0
VERTEX
  5
C40
  8
2
 10
27.244929173281321
 20
26.036854714665921
 30
0.0
  0
VERTEX
  5
C41
  8
2
 10
27.302318287320251
 20
26.06998833510481
 30
0.0
  0
VERTEX
  5
C42
  8
2
 10
27.360068963230329
 20
26.103330703387421
 30
0.0
  0
VERTEX
  5
C43
  8
2
 10
27.476732806743659
 20
26.17068660484453
 30
0.0
  0
VERTEX
  5
C44
  8
2
 10
27.595078982405941
 20
26.239013801220739
 30
0.0
  0
VERTEX
  5
C45
  8
2
 10
27.654933691701871
 20
26.273570933744949
 30
0.0
  0
SEQEND
  5
C46
  8
2
  0
POLYLINE
  5
6F1
  8
2
 66
     1
 10
0.0
 20
0.0
 30
0.0
  0
VERTEX
  5
C47
  8
2
 10
23.654933691701839
 20
23.964169856986469
 30
0.0
  0
VERTEX
  5
C48
  8
2
 10
23.714788400997989
 20
23.998726989510839
 30
0.0
  0
VERTEX
  5
C49
  8
2
 10
23.833134576660662
 20
24.067054185887262
 30
0.0
  0
VERTEX
  5
C4A
  8
2
 10
23.94979842017435
 20
24.134410087344548
 30
0.0
  0
VERTEX
  5
C4B
  8
2
 10
24.00754909608461
 20
24.16775245562722
 30
0.0
  0
VERTEX
  5
C4C
  8
2
 10
24.064938210123682
 20
24.200886076066269
 30
0.0
  0
VERTEX
  5
C4D
  8
2
 10
24.178708168614381
 20
24.266571192226571
 30
0.0
  0
VERTEX
  5
C4E
  8
2
 10
24.291259150733492
 20
24.331552532050551
 30
0.0
  0
VERTEX
  5
C4F
  8
2
 10
24.402739313476719
 20
24.395915634019691
 30
0.0
  0
VERTEX
  5
C50
  8
2
 10
24.513294770396989
 20
24.459744856833002
 30
0.0
  0
VERTEX
  5
C51
  8
2
 10
24.623070238093881
 20
24.523123752658211
 30
0.0
  0
VERTEX
  5
C52
  8
2
 10
24.677710476473301
 20
24.55467030899516
 30
0.0
  0
VERTEX
  5
C53
  8
2
 10
24.732209680635322
 20
24.58613543918872
 30
0.0
  0
VERTEX
  5
C54
  8
2
 10
24.84085695806808
 20
24.648862974061231
 30
0.0
  0
VERTEX
  5
C55
  8
2
 10
24.949156485345728
 20
24.71138973528808
 30
0.0
  0
VERTEX
  5
C56
  8
2
 10
25.057253908282512
 20
24.773799811519371
 30
0.0
  0
VERTEX
  5
C57
  8
2
 10
25.165296803539849
 20
24.83617840618022
 30
0.0
  0
VERTEX
  5
C58
  8
2
 10
25.27343541018038
 20
24.898612259833889
 30
0.0
  0
VERTEX
  5
C59
  8
2
 10
25.327588471838101
 20
24.929877544559432
 30
0.0
  0
VERTEX
  5
C5A
  8
2
 10
25.38182340100029
 20
24.961190095510698
 30
0.0
  0
VERTEX
  5
C5B
  8
2
 10
25.490618702693649
 20
25.02400309222994
 30
0.0
  0
VERTEX
  5
C5C
  8
2
 10
25.599984374937161
 20
25.087145392539831
 30
0.0
  0
VERTEX
  5
C5D
  8
2
 10
25.654933691701881
 20
25.1188703953657
 30
0.0
  0
SEQEND
  5
C5E
  8
2
  0
POLYLINE
  5
6F2
  8
2
 66
     1
 10
0.0
 20
0.0
 30
0.0
  0
VERTEX
  5
C5F
  8
2
 10
21.654933691701839
 20
25.118870395365722
 30
0.0
  0
VERTEX
  5
C60
  8
2
 10
21.709883008466779
 20
25.0871453925397
 30
0.0
  0
VERTEX
  5
C61
  8
2
 10
21.819248680710832
 20
25.024003092229488
 30
0.0
  0
VERTEX
  5
C62
  8
2
 10
21.928043982404581
 20
24.961190095510041
 30
0.0
  0
VERTEX
  5
C63
  8
2
 10
21.982278911566969
 20
24.92987754455865
 30
0.0
  0
VERTEX
  5
C64
  8
2
 10
22.036431973224829
 20
24.89861225983304
 30
0.0
  0
VERTEX
  5
C65
  8
2
 10
22.144570579865579
 20
24.836178406179219
 30
0.0
  0
VERTEX
  5
C66
  8
2
 10
22.25261347512313
 20
24.773799811518249
 30
0.0
  0
VERTEX
  5
C67
  8
2
 10
22.360710898060098
 20
24.711389735286868
 30
0.0
  0
VERTEX
  5
C68
  8
2
 10
22.469010425337778
 20
24.648862974059998
 30
0.0
  0
VERTEX
  5
C69
  8
2
 10
22.57765770277059
 20
24.586135439187441
 30
0.0
  0
VERTEX
  5
C6A
  8
2
 10
22.632156906932622
 20
24.554670308993881
 30
0.0
  0
VERTEX
  5
C6B
  8
2
 10
22.686797145312031
 20
24.52312375265695
 30
0.0
  0
VERTEX
  5
C6C
  8
2
 10
22.796572613008831
 20
24.459744856831779
 30
0.0
  0
VERTEX
  5
C6D
  8
2
 10
22.907128069928941
 20
24.395915634018571
 30
0.0
  0
VERTEX
  5
C6E
  8
2
 10
23.018608232672051
 20
24.331552532049528
 30
0.0
  0
VERTEX
  5
C6F
  8
2
 10
23.131159214790848
 20
24.26657119222568
 30
0.0
  0
VERTEX
  5
C70
  8
2
 10
23.244929173281349
 20
24.200886076065501
 30
0.0
  0
VERTEX
  5
C71
  8
2
 10
23.302318287320261
 20
24.16775245562658
 30
0.0
  0
VERTEX
  5
C72
  8
2
 10
23.360068963230361
 20
24.134410087344008
 30
0.0
  0
VERTEX
  5
C73
  8
2
 10
23.47673280674368
 20
24.067054185886889
 30
0.0
  0
VERTEX
  5
C74
  8
2
 10
23.595078982405958
 20
23.998726989510711
 30
0.0
  0
VERTEX
  5
C75
  8
2
 10
23.654933691701839
 20
23.964169856986469
 30
0.0
  0
SEQEND
  5
C76
  8
2
  0
POLYLINE
  5
6F3
  8
2
 66
     1
 10
0.0
 20
0.0
 30
0.0
  0
VERTEX
  5
C77
  8
2
 10
19.654933691701849
 20
26.27357093374496
 30
0.0
  0
VERTEX
  5
C78
  8
2
 10
19.714788400997978
 20
26.23901380122058
 30
0.0
  0
VERTEX
  5
C79
  8
2
 10
19.83313457666069
 20
26.17068660484415
 30
0.0
  0
VERTEX
  5
C7A
  8
2
 10
19.949798420174321
 20
26.10333070338686
 30
0.0
  0
VERTEX
  5
C7B
  8
2
 10
20.00754909608461
 20
26.069988335104171
 30
0.0
  0
VERTEX
  5
C7C
  8
2
 10
20.06493821012366
 20
26.036854714665171
 30
0.0
  0
VERTEX
  5
C7D
  8
2
 10
20.17870816861441
 20
25.971169598504851
 30
0.0
  0
VERTEX
  5
C7E
  8
2
 10
20.29125915073346
 20
25.90618825868086
 30
0.0
  0
VERTEX
  5
C7F
  8
2
 10
20.402739313476712
 20
25.841825156711732
 30
0.0
  0
VERTEX
  5
C80
  8
2
 10
20.513294770396971
 20
25.777995933898438
 30
0.0
  0
VERTEX
  5
C81
  8
2
 10
20.623070238093881
 20
25.714617038073211
 30
0.0
  0
VERTEX
  5
C82
  8
2
 10
20.67771047647328
 20
25.68307048173628
 30
0.0
  0
VERTEX
  5
C83
  8
2
 10
20.732209680635361
 20
25.651605351542688
 30
0.0
  0
VERTEX
  5
C84
  8
2
 10
20.84085695806812
 20
25.588877816670159
 30
0.0
  0
VERTEX
  5
C85
  8
2
 10
20.9491564853457
 20
25.526351055443349
 30
0.0
  0
VERTEX
  5
C86
  8
2
 10
21.057253908282529
 20
25.463940979212062
 30
0.0
  0
VERTEX
  5
C87
  8
2
 10
21.165296803539881
 20
25.401562384551202
 30
0.0
  0
VERTEX
  5
C88
  8
2
 10
21.27343541018034
 20
25.33912853089754
 30
0.0
  0
VERTEX
  5
C89
  8
2
 10
21.327588471838101
 20
25.307863246171991
 30
0.0
  0
VERTEX
  5
C8A
  8
2
 10
21.381823401000279
 20
25.27655069522072
 30
0.0
  0
VERTEX
  5
C8B
  8
2
 10
21.490618702693649
 20
25.21373769850149
 30
0.0
  0
VERTEX
  5
C8C
  8
2
 10
21.5999843749372
 20
25.15059539819157
 30
0.0
  0
VERTEX
  5
C8D
  8
2
 10
21.654933691701839
 20
25.118870395365722
 30
0.0
  0
SEQEND
  5
C8E
  8
2
  0
POLYLINE
  5
6F4
  8
2
 66
     1
 10
0.0
 20
0.0
 30
0.0
  0
VERTEX
  5
C8F
  8
2
 10
19.65493369170186
 20
28.582972010503461
 30
0.0
  0
VERTEX
  5
C90
  8
2
 10
19.654933691701849
 20
28.51952200485141
 30
0.0
  0
VERTEX
  5
C91
  8
2
 10
19.654933691701849
 20
28.393237404231058
 30
0.0
  0
VERTEX
  5
C92
  8
2
 10
19.654933691701839
 20
28.267611410792121
 30
0.0
  0
VERTEX
  5
C93
  8
2
 10
19.654933691701849
 20
28.204986308889371
 30
0.0
  0
VERTEX
  5
C94
  8
2
 10
19.654933691701849
 20
28.142455739438109
 30
0.0
  0
VERTEX
  5
C95
  8
2
 10
19.654933691701849
 20
28.017588032130451
 30
0.0
  0
VERTEX
  5
C96
  8
2
 10
19.654933691701849
 20
27.892830842808522
 30
0.0
  0
VERTEX
  5
C97
  8
2
 10
19.654933691701849
 20
27.768010690345829
 30
0.0
  0
VERTEX
  5
C98
  8
2
 10
19.654933691701881
 20
27.642957167892
 30
0.0
  0
VERTEX
  5
C99
  8
2
 10
19.654933691701871
 20
27.517502098146931
 30
0.0
  0
VERTEX
  5
C9A
  8
2
 10
19.654933691701871
 20
27.45457183775979
 30
0.0
  0
VERTEX
  5
C9B
  8
2
 10
19.654933691701871
 20
27.391478725085928
 30
0.0
  0
VERTEX
  5
C9C
  8
2
 10
19.654933691701871
 20
27.264720933435601
 30
0.0
  0
VERTEX
  5
C9D
  8
2
 10
19.654933691701832
 20
27.137062487809171
 30
0.0
  0
VERTEX
  5
C9E
  8
2
 10
19.654933691701849
 20
27.00833628387112
 30
0.0
  0
VERTEX
  5
C9F
  8
2
 10
19.654933691701849
 20
26.878373604223381
 30
0.0
  0
VERTEX
  5
CA0
  8
2
 10
19.654933691701881
 20
26.747003371903052
 30
0.0
  0
VERTEX
  5
CA1
  8
2
 10
19.654933691701839
 20
26.68073613102521
 30
0.0
  0
VERTEX
  5
CA2
  8
2
 10
19.654933691701871
 20
26.614051394460059
 30
0.0
  0
VERTEX
  5
CA3
  8
2
 10
19.654933691701821
 20
26.479339591545859
 30
0.0
  0
VERTEX
  5
CA4
  8
2
 10
19.654933691701871
 20
26.342685198793468
 30
0.0
  0
VERTEX
  5
CA5
  8
2
 10
19.654933691701849
 20
26.27357093374496
 30
0.0
  0
SEQEND
  5
CA6
  8
2
  0
POLYLINE
  5
6F5
  8
2
 66
     1
 10
0.0
 20
0.0
 30
0.0
  0
VERTEX
  5
CA7
  8
2
 10
19.654933691701871
 20
30.892373087261959
 30
0.0
  0
VERTEX
  5
CA8
  8
2
 10
19.654933691701849
 20
30.82325882221323
 30
0.0
  0
VERTEX
  5
CA9
  8
2
 10
19.654933691701821
 20
30.686604429460392
 30
0.0
  0
VERTEX
  5
CAA
  8
2
 10
19.65493369170186
 20
30.55189262654574
 30
0.0
  0
VERTEX
  5
CAB
  8
2
 10
19.654933691701839
 20
30.485207889980391
 30
0.0
  0
VERTEX
  5
CAC
  8
2
 10
19.654933691701849
 20
30.418940649102399
 30
0.0
  0
VERTEX
  5
CAD
  8
2
 10
19.654933691701881
 20
30.28757041678174
 30
0.0
  0
VERTEX
  5
CAE
  8
2
 10
19.65493369170186
 20
30.157607737133741
 30
0.0
  0
VERTEX
  5
CAF
  8
2
 10
19.654933691701839
 20
30.02888153319552
 30
0.0
  0
VERTEX
  5
CB0
  8
2
 10
19.654933691701832
 20
29.901223087568908
 30
0.0
  0
VERTEX
  5
CB1
  8
2
 10
19.654933691701832
 20
29.774465295918478
 30
0.0
  0
VERTEX
  5
CB2
  8
2
 10
19.654933691701821
 20
29.711372183244588
 30
0.0
  0
VERTEX
  5
CB3
  8
2
 10
19.654933691701881
 20
29.64844192285743
 30
0.0
  0
VERTEX
  5
CB4
  8
2
 10
19.654933691701839
 20
29.522986853112432
 30
0.0
  0
VERTEX
  5
CB5
  8
2
 10
19.65493369170186
 20
29.397933330658709
 30
0.0
  0
VERTEX
  5
CB6
  8
2
 10
19.654933691701821
 20
29.27311317819618
 30
0.0
  0
VERTEX
  5
CB7
  8
2
 10
19.654933691701871
 20
29.148355988874439
 30
0.0
  0
VERTEX
  5
CB8
  8
2
 10
19.65493369170186
 20
29.023488281567111
 30
0.0
  0
VERTEX
  5
CB9
  8
2
 10
19.654933691701849
 20
28.960957712116048
 30
0.0
  0
VERTEX
  5
CBA
  8
2
 10
19.654933691701839
 20
28.89833261021349
 30
0.0
  0
VERTEX
  5
CBB
  8
2
 10
19.654933691701839
 20
28.772706616775029
 30
0.0
  0
VERTEX
  5
CBC
  8
2
 10
19.654933691701832
 20
28.646422016155238
 30
0.0
  0
VERTEX
  5
CBD
  8
2
 10
19.65493369170186
 20
28.582972010503461
 30
0.0
  0
SEQEND
  5
CBE
  8
2
  0
CIRCLE
  5
6F7
  8
0
  6
CONTINUOUS
 62
     0
 10
23.654933691701839
 20
28.582972010503472
 30
0.0
 40
1.5
  0
CIRCLE
  5
6F8
  8
0
  6
CONTINUOUS
 62
     0
 10
23.654933691701839
 20
28.582972010503472
 30
0.0
 40
1.0381197846482939
  0
CIRCLE
  5
6FA
  8
0
  6
CONTINUOUS
 62
     0
 10
23.654933691701839
 20
28.582972010503472
 30
0.0
 40
7.0
  0
LINE
  5
75D
  8
1
 10
95.572202278690384
 20
28.582972010503461
 30
0.0
 11
57.654933691701842
 21
28.582972010503461
 31
0.0
  0
LINE
  5
75E
  8
0
  6
CONTINUOUS
 62
     0
 10
74.572202278690398
 20
31.58297201050345
 30
0.0
 11
74.572202278690398
 21
30.96947201050347
 31
0.0
  0
LINE
  5
75F
  8
3
 10
64.572202278690398
 20
30.96947201050347
 30
0.0
 11
69.072202278690384
 21
30.96947201050347
 31
0.0
  0
LINE
  5
760
  8
0
  6
CONTINUOUS
 62
     0
 10
74.572202278690398
 20
25.582972010503461
 30
0.0
 11
74.572202278690398
 21
31.58297201050345
 31
0.0
  0
LINE
  5
761
  8
0
  6
CONTINUOUS
 62
     0
 10
74.572202278690398
 20
25.582972010503461
 30
0.0
 11
74.572202278690398
 21
26.196472010503442
 31
0.0
  0
LINE
  5
762
  8
3
 10
64.572202278690398
 20
26.196472010503442
 30
0.0
 11
69.072202278690384
 21
26.196472010503442
 31
0.0
  0
POLYLINE
  5
763
  8
0
  6
CONTINUOUS
 62
     0
 66
     1
 10
0.0
 20
0.0
 30
0.0
  0
VERTEX
  5
CBF
  8
0
  6
CONTINUOUS
 62
     0
 10
71.790670322715371
 20
22.809469318607171
 30
0.0
  0
VERTEX
  5
CC0
  8
0
  6
CONTINUOUS
 62
     0
 10
71.87652749992607
 20
23.062766521100801
 30
0.0
  0
VERTEX
  5
CC1
  8
0
  6
CONTINUOUS
 62
     0
 10
72.000776496262702
 20
23.545576007073642
 30
0.0
  0
VERTEX
  5
CC2
  8
0
  6
CONTINUOUS
 62
     0
 10
72.064018490653112
 20
24.015488038138301
 30
0.0
  0
VERTEX
  5
CC3
  8
0
  6
CONTINUOUS
 62
     0
 10
72.072202278690398
 20
24.252844991581242
 30
0.0
  0
SEQEND
  5
CC4
  8
0
  6
CONTINUOUS
 62
     0
  0
LINE
  5
764
  8
0
  6
CONTINUOUS
 62
     0
 10
69.353734234665424
 20
22.809469318607171
 30
0.0
 11
71.790670322715371
 21
22.809469318607171
 31
0.0
  0
POLYLINE
  5
765
  8
0
  6
CONTINUOUS
 62
     0
 66
     1
 10
0.0
 20
0.0
 30
0.0
  0
VERTEX
  5
CC5
  8
0
  6
CONTINUOUS
 62
     0
 10
69.072202278690384
 20
24.252844991581242
 30
0.0
  0
VERTEX
  5
CC6
  8
0
  6
CONTINUOUS
 62
     0
 10
69.080386066727684
 20
24.01548803813796
 30
0.0
  0
VERTEX
  5
CC7
  8
0
  6
CONTINUOUS
 62
     0
 10
69.143628061118093
 20
23.54557600707307
 30
0.0
  0
VERTEX
  5
CC8
  8
0
  6
CONTINUOUS
 62
     0
 10
69.267877057454726
 20
23.06276652110051
 30
0.0
  0
VERTEX
  5
CC9
  8
0
  6
CONTINUOUS
 62
     0
 10
69.353734234665424
 20
22.809469318607171
 30
0.0
  0
SEQEND
  5
CCA
  8
0
  6
CONTINUOUS
 62
     0
  0
POLYLINE
  5
766
  8
0
  6
CONTINUOUS
 62
     0
 66
     1
 10
0.0
 20
0.0
 30
0.0
  0
VERTEX
  5
CCB
  8
0
  6
CONTINUOUS
 62
     0
 10
69.353734234665424
 20
25.69622066455532
 30
0.0
  0
VERTEX
  5
CCC
  8
0
  6
CONTINUOUS
 62
     0
 10
69.267877057454726
 20
25.442923462061689
 30
0.0
  0
VERTEX
  5
CCD
  8
0
  6
CONTINUOUS
 62
     0
 10
69.143628061118093
 20
24.960113976088849
 30
0.0
  0
VERTEX
  5
CCE
  8
0
  6
CONTINUOUS
 62
     0
 10
69.080386066727684
 20
24.490201945024189
 30
0.0
  0
VERTEX
  5
CCF
  8
0
  6
CONTINUOUS
 62
     0
 10
69.072202278690384
 20
24.252844991581242
 30
0.0
  0
SEQEND
  5
CD0
  8
0
  6
CONTINUOUS
 62
     0
  0
POLYLINE
  5
767
  8
0
  6
CONTINUOUS
 62
     0
 66
     1
 10
0.0
 20
0.0
 30
0.0
  0
VERTEX
  5
CD1
  8
0
  6
CONTINUOUS
 62
     0
 10
72.072202278690398
 20
24.252844991581242
 30
0.0
  0
VERTEX
  5
CD2
  8
0
  6
CONTINUOUS
 62
     0
 10
72.064018490653112
 20
24.49020194502458
 30
0.0
  0
VERTEX
  5
CD3
  8
0
  6
CONTINUOUS
 62
     0
 10
72.000776496262702
 20
24.960113976089481
 30
0.0
  0
VERTEX
  5
CD4
  8
0
  6
CONTINUOUS
 62
     0
 10
71.87652749992607
 20
25.44292346206203
 30
0.0
  0
VERTEX
  5
CD5
  8
0
  6
CONTINUOUS
 62
     0
 10
71.790670322715371
 20
25.69622066455532
 30
0.0
  0
SEQEND
  5
CD6
  8
0
  6
CONTINUOUS
 62
     0
  0
POLYLINE
  5
768
  8
0
  6
CONTINUOUS
 62
     0
 66
     1
 10
0.0
 20
0.0
 30
0.0
  0
VERTEX
  5
CD7
  8
0
  6
CONTINUOUS
 62
     0
 10
71.790670322715371
 20
31.469723356451588
 30
0.0
  0
VERTEX
  5
CD8
  8
0
  6
CONTINUOUS
 62
     0
 10
71.87652749992607
 20
31.723020558945219
 30
0.0
  0
VERTEX
  5
CD9
  8
0
  6
CONTINUOUS
 62
     0
 10
72.000776496262702
 20
32.205830044918059
 30
0.0
  0
VERTEX
  5
CDA
  8
0
  6
CONTINUOUS
 62
     0
 10
72.064018490653112
 20
32.675742075982718
 30
0.0
  0
VERTEX
  5
CDB
  8
0
  6
CONTINUOUS
 62
     0
 10
72.072202278690398
 20
32.913099029425673
 30
0.0
  0
SEQEND
  5
CDC
  8
0
  6
CONTINUOUS
 62
     0
  0
POLYLINE
  5
769
  8
0
  6
CONTINUOUS
 62
     0
 66
     1
 10
0.0
 20
0.0
 30
0.0
  0
VERTEX
  5
CDD
  8
0
  6
CONTINUOUS
 62
     0
 10
69.072202278690384
 20
32.913099029425673
 30
0.0
  0
VERTEX
  5
CDE
  8
0
  6
CONTINUOUS
 62
     0
 10
69.080386066727684
 20
32.675742075982328
 30
0.0
  0
VERTEX
  5
CDF
  8
0
  6
CONTINUOUS
 62
     0
 10
69.143628061118093
 20
32.205830044917427
 30
0.0
  0
VERTEX
  5
CE0
  8
0
  6
CONTINUOUS
 62
     0
 10
69.267877057454726
 20
31.723020558944881
 30
0.0
  0
VERTEX
  5
CE1
  8
0
  6
CONTINUOUS
 62
     0
 10
69.353734234665424
 20
31.469723356451588
 30
0.0
  0
SEQEND
  5
CE2
  8
0
  6
CONTINUOUS
 62
     0
  0
POLYLINE
  5
76A
  8
0
  6
CONTINUOUS
 62
     0
 66
     1
 10
0.0
 20
0.0
 30
0.0
  0
VERTEX
  5
CE3
  8
0
  6
CONTINUOUS
 62
     0
 10
69.353734234665424
 20
34.356474702399737
 30
0.0
  0
VERTEX
  5
CE4
  8
0
  6
CONTINUOUS
 62
     0
 10
69.267877057454726
 20
34.10317749990611
 30
0.0
  0
VERTEX
  5
CE5
  8
0
  6
CONTINUOUS
 62
     0
 10
69.143628061118093
 20
33.620368013933273
 30
0.0
  0
VERTEX
  5
CE6
  8
0
  6
CONTINUOUS
 62
     0
 10
69.080386066727684
 20
33.150455982868607
 30
0.0
  0
VERTEX
  5
CE7
  8
0
  6
CONTINUOUS
 62
     0
 10
69.072202278690384
 20
32.913099029425673
 30
0.0
  0
SEQEND
  5
CE8
  8
0
  6
CONTINUOUS
 62
     0
  0
LINE
  5
76B
  8
0
  6
CONTINUOUS
 62
     0
 10
69.353734234665424
 20
34.356474702399737
 30
0.0
 11
71.790670322715371
 21
34.356474702399737
 31
0.0
  0
POLYLINE
  5
76C
  8
0
  6
CONTINUOUS
 62
     0
 66
     1
 10
0.0
 20
0.0
 30
0.0
  0
VERTEX
  5
CE9
  8
0
  6
CONTINUOUS
 62
     0
 10
72.072202278690398
 20
32.913099029425673
 30
0.0
  0
VERTEX
  5
CEA
  8
0
  6
CONTINUOUS
 62
     0
 10
72.064018490653112
 20
33.150455982868948
 30
0.0
  0
VERTEX
  5
CEB
  8
0
  6
CONTINUOUS
 62
     0
 10
72.000776496262702
 20
33.620368013933842
 30
0.0
  0
VERTEX
  5
CEC
  8
0
  6
CONTINUOUS
 62
     0
 10
71.87652749992607
 20
34.103177499906387
 30
0.0
  0
VERTEX
  5
CED
  8
0
  6
CONTINUOUS
 62
     0
 10
71.790670322715371
 20
34.356474702399737
 30
0.0
  0
SEQEND
  5
CEE
  8
0
  6
CONTINUOUS
 62
     0
  0
POLYLINE
  5
76D
  8
0
  6
CONTINUOUS
 62
     0
 66
     1
 10
0.0
 20
0.0
 30
0.0
  0
VERTEX
  5
CEF
  8
0
  6
CONTINUOUS
 62
     0
 10
71.790670322715371
 20
25.69622066455532
 30
0.0
  0
VERTEX
  5
CF0
  8
0
  6
CONTINUOUS
 62
     0
 10
71.87652749992607
 20
26.20281506954257
 30
0.0
  0
VERTEX
  5
CF1
  8
0
  6
CONTINUOUS
 62
     0
 10
72.000776496262702
 20
27.16843404148824
 30
0.0
  0
VERTEX
  5
CF2
  8
0
  6
CONTINUOUS
 62
     0
 10
72.064018490653112
 20
28.108258103617569
 30
0.0
  0
VERTEX
  5
CF3
  8
0
  6
CONTINUOUS
 62
     0
 10
72.072202278690398
 20
28.582972010503461
 30
0.0
  0
SEQEND
  5
CF4
  8
0
  6
CONTINUOUS
 62
     0
  0
POLYLINE
  5
76E
  8
0
  6
CONTINUOUS
 62
     0
 66
     1
 10
0.0
 20
0.0
 30
0.0
  0
VERTEX
  5
CF5
  8
0
  6
CONTINUOUS
 62
     0
 10
69.072202278690384
 20
28.582972010503461
 30
0.0
  0
VERTEX
  5
CF6
  8
0
  6
CONTINUOUS
 62
     0
 10
69.080386066727684
 20
28.10825810361683
 30
0.0
  0
VERTEX
  5
CF7
  8
0
  6
CONTINUOUS
 62
     0
 10
69.143628061118093
 20
27.16843404148705
 30
0.0
  0
VERTEX
  5
CF8
  8
0
  6
CONTINUOUS
 62
     0
 10
69.267877057454726
 20
26.202815069541941
 30
0.0
  0
VERTEX
  5
CF9
  8
0
  6
CONTINUOUS
 62
     0
 10
69.353734234665424
 20
25.69622066455532
 30
0.0
  0
SEQEND
  5
CFA
  8
0
  6
CONTINUOUS
 62
     0
  0
POLYLINE
  5
76F
  8
0
  6
CONTINUOUS
 62
     0
 66
     1
 10
0.0
 20
0.0
 30
0.0
  0
VERTEX
  5
CFB
  8
0
  6
CONTINUOUS
 62
     0
 10
69.353734234665424
 20
31.469723356451588
 30
0.0
  0
VERTEX
  5
CFC
  8
0
  6
CONTINUOUS
 62
     0
 10
69.267877057454726
 20
30.963128951464341
 30
0.0
  0
VERTEX
  5
CFD
  8
0
  6
CONTINUOUS
 62
     0
 10
69.143628061118093
 20
29.997509979518671
 30
0.0
  0
VERTEX
  5
CFE
  8
0
  6
CONTINUOUS
 62
     0
 10
69.080386066727684
 20
29.057685917389328
 30
0.0
  0
VERTEX
  5
CFF
  8
0
  6
CONTINUOUS
 62
     0
 10
69.072202278690384
 20
28.582972010503461
 30
0.0
  0
SEQEND
  5
D00
  8
0
  6
CONTINUOUS
 62
     0
  0
POLYLINE
  5
770
  8
0
  6
CONTINUOUS
 62
     0
 66
     1
 10
0.0
 20
0.0
 30
0.0
  0
VERTEX
  5
D01
  8
0
  6
CONTINUOUS
 62
     0
 10
72.072202278690398
 20
28.582972010503461
 30
0.0
  0
VERTEX
  5
D02
  8
0
  6
CONTINUOUS
 62
     0
 10
72.064018490653112
 20
29.057685917390081
 30
0.0
  0
VERTEX
  5
D03
  8
0
  6
CONTINUOUS
 62
     0
 10
72.000776496262702
 20
29.997509979519862
 30
0.0
  0
VERTEX
  5
D04
  8
0
  6
CONTINUOUS
 62
     0
 10
71.87652749992607
 20
30.96312895146497
 30
0.0
  0
VERTEX
  5
D05
  8
0
  6
CONTINUOUS
 62
     0
 10
71.790670322715371
 20
31.469723356451588
 30
0.0
  0
SEQEND
  5
D06
  8
0
  6
CONTINUOUS
 62
     0
  0
POLYLINE
  5
771
  8
0
  6
CONTINUOUS
 62
     0
 66
     1
 10
0.0
 20
0.0
 30
0.0
  0
VERTEX
  5
D07
  8
0
  6
CONTINUOUS
 62
     0
 10
72.072202278690398
 20
32.913099029425673
 30
0.0
  0
VERTEX
  5
D08
  8
0
  6
CONTINUOUS
 62
     0
 10
72.064018490653112
 20
32.675742075982328
 30
0.0
  0
VERTEX
  5
D09
  8
0
  6
CONTINUOUS
 62
     0
 10
72.000776496262702
 20
32.205830044917427
 30
0.0
  0
VERTEX
  5
D0A
  8
0
  6
CONTINUOUS
 62
     0
 10
71.87652749992607
 20
31.723020558944881
 30
0.0
  0
VERTEX
  5
D0B
  8
0
  6
CONTINUOUS
 62
     0
 10
71.790670322715371
 20
31.469723356451588
 30
0.0
  0
SEQEND
  5
D0C
  8
0
  6
CONTINUOUS
 62
     0
  0
POLYLINE
  5
772
  8
0
  6
CONTINUOUS
 62
     0
 66
     1
 10
0.0
 20
0.0
 30
0.0
  0
VERTEX
  5
D0D
  8
0
  6
CONTINUOUS
 62
     0
 10
71.790670322715371
 20
34.356474702399737
 30
0.0
  0
VERTEX
  5
D0E
  8
0
  6
CONTINUOUS
 62
     0
 10
71.87652749992607
 20
34.10317749990611
 30
0.0
  0
VERTEX
  5
D0F
  8
0
  6
CONTINUOUS
 62
     0
 10
72.000776496262702
 20
33.620368013933273
 30
0.0
  0
VERTEX
  5
D10
  8
0
  6
CONTINUOUS
 62
     0
 10
72.064018490653112
 20
33.150455982868607
 30
0.0
  0
VERTEX
  5
D11
  8
0
  6
CONTINUOUS
 62
     0
 10
72.072202278690398
 20
32.913099029425673
 30
0.0
  0
SEQEND
  5
D12
  8
0
  6
CONTINUOUS
 62
     0
  0
POLYLINE
  5
773
  8
0
  6
CONTINUOUS
 62
     0
 66
     1
 10
0.0
 20
0.0
 30
0.0
  0
VERTEX
  5
D13
  8
0
  6
CONTINUOUS
 62
     0
 10
69.072202278690384
 20
32.913099029425673
 30
0.0
  0
VERTEX
  5
D14
  8
0
  6
CONTINUOUS
 62
     0
 10
69.080386066727684
 20
33.150455982868948
 30
0.0
  0
VERTEX
  5
D15
  8
0
  6
CONTINUOUS
 62
     0
 10
69.143628061118093
 20
33.620368013933842
 30
0.0
  0
VERTEX
  5
D16
  8
0
  6
CONTINUOUS
 62
     0
 10
69.267877057454726
 20
34.103177499906387
 30
0.0
  0
VERTEX
  5
D17
  8
0
  6
CONTINUOUS
 62
     0
 10
69.353734234665424
 20
34.356474702399737
 30
0.0
  0
SEQEND
  5
D18
  8
0
  6
CONTINUOUS
 62
     0
  0
POLYLINE
  5
774
  8
0
  6
CONTINUOUS
 62
     0
 66
     1
 10
0.0
 20
0.0
 30
0.0
  0
VERTEX
  5
D19
  8
0
  6
CONTINUOUS
 62
     0
 10
69.353734234665424
 20
31.469723356451588
 30
0.0
  0
VERTEX
  5
D1A
  8
0
  6
CONTINUOUS
 62
     0
 10
69.267877057454726
 20
31.723020558945219
 30
0.0
  0
VERTEX
  5
D1B
  8
0
  6
CONTINUOUS
 62
     0
 10
69.143628061118093
 20
32.205830044918059
 30
0.0
  0
VERTEX
  5
D1C
  8
0
  6
CONTINUOUS
 62
     0
 10
69.080386066727684
 20
32.675742075982718
 30
0.0
  0
VERTEX
  5
D1D
  8
0
  6
CONTINUOUS
 62
     0
 10
69.072202278690384
 20
32.913099029425673
 30
0.0
  0
SEQEND
  5
D1E
  8
0
  6
CONTINUOUS
 62
     0
  0
LINE
  5
775
  8
0
  6
CONTINUOUS
 62
     0
 10
69.353734234665424
 20
31.469723356451588
 30
0.0
 11
71.790670322715371
 21
31.469723356451588
 31
0.0
  0
POLYLINE
  5
776
  8
0
  6
CONTINUOUS
 62
     0
 66
     1
 10
0.0
 20
0.0
 30
0.0
  0
VERTEX
  5
D1F
  8
0
  6
CONTINUOUS
 62
     0
 10
72.072202278690398
 20
28.582972010503461
 30
0.0
  0
VERTEX
  5
D20
  8
0
  6
CONTINUOUS
 62
     0
 10
72.064018490653112
 20
28.10825810361683
 30
0.0
  0
VERTEX
  5
D21
  8
0
  6
CONTINUOUS
 62
     0
 10
72.000776496262702
 20
27.16843404148705
 30
0.0
  0
VERTEX
  5
D22
  8
0
  6
CONTINUOUS
 62
     0
 10
71.87652749992607
 20
26.202815069541941
 30
0.0
  0
VERTEX
  5
D23
  8
0
  6
CONTINUOUS
 62
     0
 10
71.790670322715371
 20
25.69622066455532
 30
0.0
  0
SEQEND
  5
D24
  8
0
  6
CONTINUOUS
 62
     0
  0
POLYLINE
  5
777
  8
0
  6
CONTINUOUS
 62
     0
 66
     1
 10
0.0
 20
0.0
 30
0.0
  0
VERTEX
  5
D25
  8
0
  6
CONTINUOUS
 62
     0
 10
71.790670322715371
 20
31.469723356451588
 30
0.0
  0
VERTEX
  5
D26
  8
0
  6
CONTINUOUS
 62
     0
 10
71.87652749992607
 20
30.963128951464341
 30
0.0
  0
VERTEX
  5
D27
  8
0
  6
CONTINUOUS
 62
     0
 10
72.000776496262702
 20
29.997509979518671
 30
0.0
  0
VERTEX
  5
D28
  8
0
  6
CONTINUOUS
 62
     0
 10
72.064018490653112
 20
29.057685917389328
 30
0.0
  0
VERTEX
  5
D29
  8
0
  6
CONTINUOUS
 62
     0
 10
72.072202278690398
 20
28.582972010503461
 30
0.0
  0
SEQEND
  5
D2A
  8
0
  6
CONTINUOUS
 62
     0
  0
POLYLINE
  5
778
  8
0
  6
CONTINUOUS
 62
     0
 66
     1
 10
0.0
 20
0.0
 30
0.0
  0
VERTEX
  5
D2B
  8
0
  6
CONTINUOUS
 62
     0
 10
69.072202278690384
 20
28.582972010503461
 30
0.0
  0
VERTEX
  5
D2C
  8
0
  6
CONTINUOUS
 62
     0
 10
69.080386066727684
 20
29.057685917390081
 30
0.0
  0
VERTEX
  5
D2D
  8
0
  6
CONTINUOUS
 62
     0
 10
69.143628061118093
 20
29.997509979519862
 30
0.0
  0
VERTEX
  5
D2E
  8
0
  6
CONTINUOUS
 62
     0
 10
69.267877057454726
 20
30.96312895146497
 30
0.0
  0
VERTEX
  5
D2F
  8
0
  6
CONTINUOUS
 62
     0
 10
69.353734234665424
 20
31.469723356451588
 30
0.0
  0
SEQEND
  5
D30
  8
0
  6
CONTINUOUS
 62
     0
  0
POLYLINE
  5
779
  8
0
  6
CONTINUOUS
 62
     0
 66
     1
 10
0.0
 20
0.0
 30
0.0
  0
VERTEX
  5
D31
  8
0
  6
CONTINUOUS
 62
     0
 10
69.353734234665424
 20
25.69622066455532
 30
0.0
  0
VERTEX
  5
D32
  8
0
  6
CONTINUOUS
 62
     0
 10
69.267877057454726
 20
26.20281506954257
 30
0.0
  0
VERTEX
  5
D33
  8
0
  6
CONTINUOUS
 62
     0
 10
69.143628061118093
 20
27.16843404148824
 30
0.0
  0
VERTEX
  5
D34
  8
0
  6
CONTINUOUS
 62
     0
 10
69.080386066727684
 20
28.108258103617569
 30
0.0
  0
VERTEX
  5
D35
  8
0
  6
CONTINUOUS
 62
     0
 10
69.072202278690384
 20
28.582972010503461
 30
0.0
  0
SEQEND
  5
D36
  8
0
  6
CONTINUOUS
 62
     0
  0
LINE
  5
77A
  8
0
  6
CONTINUOUS
 62
     0
 10
69.353734234665424
 20
25.69622066455532
 30
0.0
 11
71.790670322715371
 21
25.69622066455532
 31
0.0
  0
POLYLINE
  5
77B
  8
0
  6
CONTINUOUS
 62
     0
 66
     1
 10
0.0
 20
0.0
 30
0.0
  0
VERTEX
  5
D37
  8
0
  6
CONTINUOUS
 62
     0
 10
72.072202278690398
 20
24.252844991581242
 30
0.0
  0
VERTEX
  5
D38
  8
0
  6
CONTINUOUS
 62
     0
 10
72.064018490653112
 20
24.01548803813796
 30
0.0
  0
VERTEX
  5
D39
  8
0
  6
CONTINUOUS
 62
     0
 10
72.000776496262702
 20
23.54557600707307
 30
0.0
  0
VERTEX
  5
D3A
  8
0
  6
CONTINUOUS
 62
     0
 10
71.87652749992607
 20
23.06276652110051
 30
0.0
  0
VERTEX
  5
D3B
  8
0
  6
CONTINUOUS
 62
     0
 10
71.790670322715371
 20
22.809469318607171
 30
0.0
  0
SEQEND
  5
D3C
  8
0
  6
CONTINUOUS
 62
     0
  0
POLYLINE
  5
77C
  8
0
  6
CONTINUOUS
 62
     0
 66
     1
 10
0.0
 20
0.0
 30
0.0
  0
VERTEX
  5
D3D
  8
0
  6
CONTINUOUS
 62
     0
 10
71.790670322715371
 20
25.69622066455532
 30
0.0
  0
VERTEX
  5
D3E
  8
0
  6
CONTINUOUS
 62
     0
 10
71.87652749992607
 20
25.442923462061689
 30
0.0
  0
VERTEX
  5
D3F
  8
0
  6
CONTINUOUS
 62
     0
 10
72.000776496262702
 20
24.960113976088849
 30
0.0
  0
VERTEX
  5
D40
  8
0
  6
CONTINUOUS
 62
     0
 10
72.064018490653112
 20
24.490201945024189
 30
0.0
  0
VERTEX
  5
D41
  8
0
  6
CONTINUOUS
 62
     0
 10
72.072202278690398
 20
24.252844991581242
 30
0.0
  0
SEQEND
  5
D42
  8
0
  6
CONTINUOUS
 62
     0
  0
POLYLINE
  5
77D
  8
0
  6
CONTINUOUS
 62
     0
 66
     1
 10
0.0
 20
0.0
 30
0.0
  0
VERTEX
  5
D43
  8
0
  6
CONTINUOUS
 62
     0
 10
69.072202278690384
 20
24.252844991581242
 30
0.0
  0
VERTEX
  5
D44
  8
0
  6
CONTINUOUS
 62
     0
 10
69.080386066727684
 20
24.49020194502458
 30
0.0
  0
VERTEX
  5
D45
  8
0
  6
CONTINUOUS
 62
     0
 10
69.143628061118093
 20
24.960113976089481
 30
0.0
  0
VERTEX
  5
D46
  8
0
  6
CONTINUOUS
 62
     0
 10
69.267877057454726
 20
25.44292346206203
 30
0.0
  0
VERTEX
  5
D47
  8
0
  6
CONTINUOUS
 62
     0
 10
69.353734234665424
 20
25.69622066455532
 30
0.0
  0
SEQEND
  5
D48
  8
0
  6
CONTINUOUS
 62
     0
  0
POLYLINE
  5
77E
  8
0
  6
CONTINUOUS
 62
     0
 66
     1
 10
0.0
 20
0.0
 30
0.0
  0
VERTEX
  5
D49
  8
0
  6
CONTINUOUS
 62
     0
 10
69.353734234665424
 20
22.809469318607171
 30
0.0
  0
VERTEX
  5
D4A
  8
0
  6
CONTINUOUS
 62
     0
 10
69.267877057454726
 20
23.062766521100801
 30
0.0
  0
VERTEX
  5
D4B
  8
0
  6
CONTINUOUS
 62
     0
 10
69.143628061118093
 20
23.545576007073642
 30
0.0
  0
VERTEX
  5
D4C
  8
0
  6
CONTINUOUS
 62
     0
 10
69.080386066727684
 20
24.015488038138301
 30
0.0
  0
VERTEX
  5
D4D
  8
0
  6
CONTINUOUS
 62
     0
 10
69.072202278690384
 20
24.252844991581242
 30
0.0
  0
SEQEND
  5
D4E
  8
0
  6
CONTINUOUS
 62
     0
  0
LINE
  5
77F
  8
0
  6
CONTINUOUS
 62
     0
 10
72.072202278690398
 20
33.582972010503461
 30
0.0
 11
72.072202278690398
 21
23.582972010503461
 31
0.0
  0
LINE
  5
780
  8
0
  6
CONTINUOUS
 62
     0
 10
69.072202278690384
 20
33.582972010503461
 30
0.0
 11
69.072202278690384
 21
23.582972010503461
 31
0.0
  0
LINE
  5
781
  8
0
  6
CONTINUOUS
 62
     0
 10
81.214936688782259
 20
33.201774164020442
 30
0.0
 11
76.572202278690384
 21
33.201774164020442
 31
0.0
  0
POLYLINE
  5
782
  8
0
  6
CONTINUOUS
 62
     0
 66
     1
 10
0.0
 20
0.0
 30
0.0
  0
VERTEX
  5
D4F
  8
0
  6
CONTINUOUS
 62
     0
 10
81.572202278690384
 20
32.04707362564119
 30
0.0
  0
VERTEX
  5
D50
  8
0
  6
CONTINUOUS
 62
     0
 10
81.571911752426459
 20
32.078798628467212
 30
0.0
  0
VERTEX
  5
D51
  8
0
  6
CONTINUOUS
 62
     0
 10
81.569605718424683
 20
32.141940928777451
 30
0.0
  0
VERTEX
  5
D52
  8
0
  6
CONTINUOUS
 62
     0
 10
81.565036045264165
 20
32.204753925496902
 30
0.0
  0
VERTEX
  5
D53
  8
0
  6
CONTINUOUS
 62
     0
 10
81.561914210281444
 20
32.236066476448293
 30
0.0
  0
VERTEX
  5
D54
  8
0
  6
CONTINUOUS
 62
     0
 10
81.558239803392567
 20
32.267331761173871
 30
0.0
  0
VERTEX
  5
D55
  8
0
  6
CONTINUOUS
 62
     0
 10
81.549246961656095
 20
32.329765614827693
 30
0.0
  0
VERTEX
  5
D56
  8
0
  6
CONTINUOUS
 62
     0
 10
81.538080734027304
 20
32.392144209488663
 30
0.0
  0
VERTEX
  5
D57
  8
0
  6
CONTINUOUS
 62
     0
 10
81.524757868125576
 20
32.454554285720057
 30
0.0
  0
VERTEX
  5
D58
  8
0
  6
CONTINUOUS
 62
     0
 10
81.509288880488171
 20
32.517081046946942
 30
0.0
  0
VERTEX
  5
D59
  8
0
  6
CONTINUOUS
 62
     0
 10
81.491678242666026
 20
32.579808581819471
 30
0.0
  0
VERTEX
  5
D5A
  8
0
  6
CONTINUOUS
 62
     0
 10
81.482069584773086
 20
32.61127371201303
 30
0.0
  0
VERTEX
  5
D5B
  8
0
  6
CONTINUOUS
 62
     0
 10
81.471924521441579
 20
32.642820268349972
 30
0.0
  0
VERTEX
  5
D5C
  8
0
  6
CONTINUOUS
 62
     0
 10
81.450020475774082
 20
32.706199164175132
 30
0.0
  0
VERTEX
  5
D5D
  8
0
  6
CONTINUOUS
 62
     0
 10
81.425953112450784
 20
32.770028386988372
 30
0.0
  0
VERTEX
  5
D5E
  8
0
  6
CONTINUOUS
 62
     0
 10
81.39970370185155
 20
32.834391488957408
 30
0.0
  0
VERTEX
  5
D5F
  8
0
  6
CONTINUOUS
 62
     0
 10
81.371247754696597
 20
32.899372828781232
 30
0.0
  0
VERTEX
  5
D60
  8
0
  6
CONTINUOUS
 62
     0
 10
81.340554960139244
 20
32.965057944941407
 30
0.0
  0
VERTEX
  5
D61
  8
0
  6
CONTINUOUS
 62
     0
 10
81.324358657134681
 20
32.998191565380353
 30
0.0
  0
VERTEX
  5
D62
  8
0
  6
CONTINUOUS
 62
     0
 10
81.307589085074383
 20
33.031533933662899
 30
0.0
  0
VERTEX
  5
D63
  8
0
  6
CONTINUOUS
 62
     0
 10
81.272307834043048
 20
33.098889835120019
 30
0.0
  0
VERTEX
  5
D64
  8
0
  6
CONTINUOUS
 62
     0
 10
81.234662668623187
 20
33.1672170314962
 30
0.0
  0
VERTEX
  5
D65
  8
0
  6
CONTINUOUS
 62
     0
 10
81.214936688782259
 20
33.201774164020442
 30
0.0
  0
SEQEND
  5
D66
  8
0
  6
CONTINUOUS
 62
     0
  0
POLYLINE
  5
783
  8
0
  6
CONTINUOUS
 62
     0
 66
     1
 10
0.0
 20
0.0
 30
0.0
  0
VERTEX
  5
D67
  8
0
  6
CONTINUOUS
 62
     0
 10
81.214936688782259
 20
30.892373087261952
 30
0.0
  0
VERTEX
  5
D68
  8
0
  6
CONTINUOUS
 62
     0
 10
81.234662668623187
 20
30.92693021978636
 30
0.0
  0
VERTEX
  5
D69
  8
0
  6
CONTINUOUS
 62
     0
 10
81.272307834042977
 20
30.995257416162762
 30
0.0
  0
VERTEX
  5
D6A
  8
0
  6
CONTINUOUS
 62
     0
 10
81.307589085074326
 20
31.062613317620048
 30
0.0
  0
VERTEX
  5
D6B
  8
0
  6
CONTINUOUS
 62
     0
 10
81.324358657134681
 20
31.095955685902769
 30
0.0
  0
VERTEX
  5
D6C
  8
0
  6
CONTINUOUS
 62
     0
 10
81.340554960139187
 20
31.129089306341768
 30
0.0
  0
VERTEX
  5
D6D
  8
0
  6
CONTINUOUS
 62
     0
 10
81.371247754696597
 20
31.194774422502061
 30
0.0
  0
VERTEX
  5
D6E
  8
0
  6
CONTINUOUS
 62
     0
 10
81.39970370185155
 20
31.259755762326051
 30
0.0
  0
VERTEX
  5
D6F
  8
0
  6
CONTINUOUS
 62
     0
 10
81.425953112450713
 20
31.324118864295201
 30
0.0
  0
VERTEX
  5
D70
  8
0
  6
CONTINUOUS
 62
     0
 10
81.450020475774025
 20
31.387948087108501
 30
0.0
  0
VERTEX
  5
D71
  8
0
  6
CONTINUOUS
 62
     0
 10
81.471924521441579
 20
31.451326982933718
 30
0.0
  0
VERTEX
  5
D72
  8
0
  6
CONTINUOUS
 62
     0
 10
81.482069584773086
 20
31.48287353927066
 30
0.0
  0
VERTEX
  5
D73
  8
0
  6
CONTINUOUS
 62
     0
 10
81.491678242666026
 20
31.51433866946423
 30
0.0
  0
VERTEX
  5
D74
  8
0
  6
CONTINUOUS
 62
     0
 10
81.509288880488171
 20
31.577066204336749
 30
0.0
  0
VERTEX
  5
D75
  8
0
  6
CONTINUOUS
 62
     0
 10
81.524757868125576
 20
31.639592965563558
 30
0.0
  0
VERTEX
  5
D76
  8
0
  6
CONTINUOUS
 62
     0
 10
81.538080734027304
 20
31.70200304179485
 30
0.0
  0
VERTEX
  5
D77
  8
0
  6
CONTINUOUS
 62
     0
 10
81.549246961656095
 20
31.76438163645571
 30
0.0
  0
VERTEX
  5
D78
  8
0
  6
CONTINUOUS
 62
     0
 10
81.558239803392567
 20
31.826815490109372
 30
0.0
  0
VERTEX
  5
D79
  8
0
  6
CONTINUOUS
 62
     0
 10
81.561914210281444
 20
31.858080774834949
 30
0.0
  0
VERTEX
  5
D7A
  8
0
  6
CONTINUOUS
 62
     0
 10
81.565036045264165
 20
31.889393325786219
 30
0.0
  0
VERTEX
  5
D7B
  8
0
  6
CONTINUOUS
 62
     0
 10
81.569605718424683
 20
31.95220632250545
 30
0.0
  0
VERTEX
  5
D7C
  8
0
  6
CONTINUOUS
 62
     0
 10
81.571911752426459
 20
32.015348622815338
 30
0.0
  0
VERTEX
  5
D7D
  8
0
  6
CONTINUOUS
 62
     0
 10
81.572202278690384
 20
32.04707362564119
 30
0.0
  0
SEQEND
  5
D7E
  8
0
  6
CONTINUOUS
 62
     0
  0
POLYLINE
  5
784
  8
0
  6
CONTINUOUS
 62
     0
 66
     1
 10
0.0
 20
0.0
 30
0.0
  0
VERTEX
  5
D7F
  8
0
  6
CONTINUOUS
 62
     0
 10
81.572202278690384
 20
25.118870395365722
 30
0.0
  0
VERTEX
  5
D80
  8
0
  6
CONTINUOUS
 62
     0
 10
81.571911752426459
 20
25.15059539819174
 30
0.0
  0
VERTEX
  5
D81
  8
0
  6
CONTINUOUS
 62
     0
 10
81.569605718424683
 20
25.213737698501919
 30
0.0
  0
VERTEX
  5
D82
  8
0
  6
CONTINUOUS
 62
     0
 10
81.565036045264165
 20
25.276550695221381
 30
0.0
  0
VERTEX
  5
D83
  8
0
  6
CONTINUOUS
 62
     0
 10
81.561914210281444
 20
25.307863246172762
 30
0.0
  0
VERTEX
  5
D84
  8
0
  6
CONTINUOUS
 62
     0
 10
81.558239803392567
 20
25.3391285308984
 30
0.0
  0
VERTEX
  5
D85
  8
0
  6
CONTINUOUS
 62
     0
 10
81.549246961656095
 20
25.401562384552221
 30
0.0
  0
VERTEX
  5
D86
  8
0
  6
CONTINUOUS
 62
     0
 10
81.538080734027304
 20
25.463940979213191
 30
0.0
  0
VERTEX
  5
D87
  8
0
  6
CONTINUOUS
 62
     0
 10
81.524757868125576
 20
25.52635105544454
 30
0.0
  0
VERTEX
  5
D88
  8
0
  6
CONTINUOUS
 62
     0
 10
81.509288880488171
 20
25.58887781667142
 30
0.0
  0
VERTEX
  5
D89
  8
0
  6
CONTINUOUS
 62
     0
 10
81.491678242666026
 20
25.651605351543939
 30
0.0
  0
VERTEX
  5
D8A
  8
0
  6
CONTINUOUS
 62
     0
 10
81.482069584773086
 20
25.683070481737499
 30
0.0
  0
VERTEX
  5
D8B
  8
0
  6
CONTINUOUS
 62
     0
 10
81.471924521441579
 20
25.71461703807444
 30
0.0
  0
VERTEX
  5
D8C
  8
0
  6
CONTINUOUS
 62
     0
 10
81.450020475774082
 20
25.7779959338996
 30
0.0
  0
VERTEX
  5
D8D
  8
0
  6
CONTINUOUS
 62
     0
 10
81.425953112450784
 20
25.84182515671284
 30
0.0
  0
VERTEX
  5
D8E
  8
0
  6
CONTINUOUS
 62
     0
 10
81.39970370185155
 20
25.90618825868188
 30
0.0
  0
VERTEX
  5
D8F
  8
0
  6
CONTINUOUS
 62
     0
 10
81.371247754696597
 20
25.97116959850576
 30
0.0
  0
VERTEX
  5
D90
  8
0
  6
CONTINUOUS
 62
     0
 10
81.340554960139244
 20
26.036854714665878
 30
0.0
  0
VERTEX
  5
D91
  8
0
  6
CONTINUOUS
 62
     0
 10
81.324358657134681
 20
26.069988335104831
 30
0.0
  0
VERTEX
  5
D92
  8
0
  6
CONTINUOUS
 62
     0
 10
81.307589085074383
 20
26.103330703387371
 30
0.0
  0
VERTEX
  5
D93
  8
0
  6
CONTINUOUS
 62
     0
 10
81.272307834043048
 20
26.170686604844491
 30
0.0
  0
VERTEX
  5
D94
  8
0
  6
CONTINUOUS
 62
     0
 10
81.234662668623187
 20
26.239013801220722
 30
0.0
  0
VERTEX
  5
D95
  8
0
  6
CONTINUOUS
 62
     0
 10
81.214936688782259
 20
26.27357093374496
 30
0.0
  0
SEQEND
  5
D96
  8
0
  6
CONTINUOUS
 62
     0
  0
POLYLINE
  5
785
  8
0
  6
CONTINUOUS
 62
     0
 66
     1
 10
0.0
 20
0.0
 30
0.0
  0
VERTEX
  5
D97
  8
0
  6
CONTINUOUS
 62
     0
 10
81.214936688782259
 20
23.964169856986469
 30
0.0
  0
VERTEX
  5
D98
  8
0
  6
CONTINUOUS
 62
     0
 10
81.234662668623187
 20
23.998726989510828
 30
0.0
  0
VERTEX
  5
D99
  8
0
  6
CONTINUOUS
 62
     0
 10
81.272307834042977
 20
24.06705418588723
 30
0.0
  0
VERTEX
  5
D9A
  8
0
  6
CONTINUOUS
 62
     0
 10
81.307589085074326
 20
24.13441008734458
 30
0.0
  0
VERTEX
  5
D9B
  8
0
  6
CONTINUOUS
 62
     0
 10
81.324358657134681
 20
24.167752455627241
 30
0.0
  0
VERTEX
  5
D9C
  8
0
  6
CONTINUOUS
 62
     0
 10
81.340554960139187
 20
24.20088607606624
 30
0.0
  0
VERTEX
  5
D9D
  8
0
  6
CONTINUOUS
 62
     0
 10
81.371247754696597
 20
24.266571192226539
 30
0.0
  0
VERTEX
  5
D9E
  8
0
  6
CONTINUOUS
 62
     0
 10
81.39970370185155
 20
24.33155253205058
 30
0.0
  0
VERTEX
  5
D9F
  8
0
  6
CONTINUOUS
 62
     0
 10
81.425953112450713
 20
24.395915634019669
 30
0.0
  0
VERTEX
  5
DA0
  8
0
  6
CONTINUOUS
 62
     0
 10
81.450020475774025
 20
24.45974485683297
 30
0.0
  0
VERTEX
  5
DA1
  8
0
  6
CONTINUOUS
 62
     0
 10
81.471924521441579
 20
24.52312375265819
 30
0.0
  0
VERTEX
  5
DA2
  8
0
  6
CONTINUOUS
 62
     0
 10
81.482069584773086
 20
24.554670308995131
 30
0.0
  0
VERTEX
  5
DA3
  8
0
  6
CONTINUOUS
 62
     0
 10
81.491678242666026
 20
24.586135439188698
 30
0.0
  0
VERTEX
  5
DA4
  8
0
  6
CONTINUOUS
 62
     0
 10
81.509288880488171
 20
24.64886297406122
 30
0.0
  0
VERTEX
  5
DA5
  8
0
  6
CONTINUOUS
 62
     0
 10
81.524757868125576
 20
24.71138973528809
 30
0.0
  0
VERTEX
  5
DA6
  8
0
  6
CONTINUOUS
 62
     0
 10
81.538080734027304
 20
24.773799811519329
 30
0.0
  0
VERTEX
  5
DA7
  8
0
  6
CONTINUOUS
 62
     0
 10
81.549246961656095
 20
24.836178406180181
 30
0.0
  0
VERTEX
  5
DA8
  8
0
  6
CONTINUOUS
 62
     0
 10
81.558239803392567
 20
24.8986122598339
 30
0.0
  0
VERTEX
  5
DA9
  8
0
  6
CONTINUOUS
 62
     0
 10
81.561914210281444
 20
24.929877544559421
 30
0.0
  0
VERTEX
  5
DAA
  8
0
  6
CONTINUOUS
 62
     0
 10
81.565036045264165
 20
24.961190095510691
 30
0.0
  0
VERTEX
  5
DAB
  8
0
  6
CONTINUOUS
 62
     0
 10
81.569605718424683
 20
25.024003092229918
 30
0.0
  0
VERTEX
  5
DAC
  8
0
  6
CONTINUOUS
 62
     0
 10
81.571911752426459
 20
25.08714539253981
 30
0.0
  0
VERTEX
  5
DAD
  8
0
  6
CONTINUOUS
 62
     0
 10
81.572202278690384
 20
25.118870395365722
 30
0.0
  0
SEQEND
  5
DAE
  8
0
  6
CONTINUOUS
 62
     0
  0
LINE
  5
786
  8
0
  6
CONTINUOUS
 62
     0
 10
81.214936688782259
 20
23.964169856986469
 30
0.0
 11
76.572202278690384
 21
23.964169856986469
 31
0.0
  0
POLYLINE
  5
787
  8
0
  6
CONTINUOUS
 62
     0
 66
     1
 10
0.0
 20
0.0
 30
0.0
  0
VERTEX
  5
DAF
  8
0
  6
CONTINUOUS
 62
     0
 10
81.572202278690384
 20
28.582972010503461
 30
0.0
  0
VERTEX
  5
DB0
  8
0
  6
CONTINUOUS
 62
     0
 10
81.571911752426459
 20
28.646422016155501
 30
0.0
  0
VERTEX
  5
DB1
  8
0
  6
CONTINUOUS
 62
     0
 10
81.569605718424683
 20
28.77270661677591
 30
0.0
  0
VERTEX
  5
DB2
  8
0
  6
CONTINUOUS
 62
     0
 10
81.565036045264165
 20
28.898332610214819
 30
0.0
  0
VERTEX
  5
DB3
  8
0
  6
CONTINUOUS
 62
     0
 10
81.561914210281444
 20
28.96095771211753
 30
0.0
  0
VERTEX
  5
DB4
  8
0
  6
CONTINUOUS
 62
     0
 10
81.558239803392567
 20
29.023488281568799
 30
0.0
  0
VERTEX
  5
DB5
  8
0
  6
CONTINUOUS
 62
     0
 10
81.549246961656095
 20
29.14835598887646
 30
0.0
  0
VERTEX
  5
DB6
  8
0
  6
CONTINUOUS
 62
     0
 10
81.538080734027304
 20
29.2731131781984
 30
0.0
  0
VERTEX
  5
DB7
  8
0
  6
CONTINUOUS
 62
     0
 10
81.524757868125576
 20
29.39793333066109
 30
0.0
  0
VERTEX
  5
DB8
  8
0
  6
CONTINUOUS
 62
     0
 10
81.509288880488171
 20
29.522986853114901
 30
0.0
  0
VERTEX
  5
DB9
  8
0
  6
CONTINUOUS
 62
     0
 10
81.491678242666026
 20
29.648441922859998
 30
0.0
  0
VERTEX
  5
DBA
  8
0
  6
CONTINUOUS
 62
     0
 10
81.482069584773086
 20
29.711372183247128
 30
0.0
  0
VERTEX
  5
DBB
  8
0
  6
CONTINUOUS
 62
     0
 10
81.471924521441579
 20
29.774465295920951
 30
0.0
  0
VERTEX
  5
DBC
  8
0
  6
CONTINUOUS
 62
     0
 10
81.450020475774082
 20
29.901223087571339
 30
0.0
  0
VERTEX
  5
DBD
  8
0
  6
CONTINUOUS
 62
     0
 10
81.425953112450784
 20
30.028881533197762
 30
0.0
  0
VERTEX
  5
DBE
  8
0
  6
CONTINUOUS
 62
     0
 10
81.39970370185155
 20
30.157607737135841
 30
0.0
  0
VERTEX
  5
DBF
  8
0
  6
CONTINUOUS
 62
     0
 10
81.371247754696597
 20
30.28757041678352
 30
0.0
  0
VERTEX
  5
DC0
  8
0
  6
CONTINUOUS
 62
     0
 10
81.340554960139244
 20
30.418940649103831
 30
0.0
  0
VERTEX
  5
DC1
  8
0
  6
CONTINUOUS
 62
     0
 10
81.324358657134681
 20
30.48520788998167
 30
0.0
  0
VERTEX
  5
DC2
  8
0
  6
CONTINUOUS
 62
     0
 10
81.307589085074383
 20
30.551892626546881
 30
0.0
  0
VERTEX
  5
DC3
  8
0
  6
CONTINUOUS
 62
     0
 10
81.272307834043048
 20
30.68660442946106
 30
0.0
  0
VERTEX
  5
DC4
  8
0
  6
CONTINUOUS
 62
     0
 10
81.234662668623187
 20
30.823258822213461
 30
0.0
  0
VERTEX
  5
DC5
  8
0
  6
CONTINUOUS
 62
     0
 10
81.214936688782259
 20
30.892373087261952
 30
0.0
  0
SEQEND
  5
DC6
  8
0
  6
CONTINUOUS
 62
     0
  0
POLYLINE
  5
788
  8
0
  6
CONTINUOUS
 62
     0
 66
     1
 10
0.0
 20
0.0
 30
0.0
  0
VERTEX
  5
DC7
  8
0
  6
CONTINUOUS
 62
     0
 10
81.214936688782259
 20
26.27357093374496
 30
0.0
  0
VERTEX
  5
DC8
  8
0
  6
CONTINUOUS
 62
     0
 10
81.234662668623187
 20
26.342685198793681
 30
0.0
  0
VERTEX
  5
DC9
  8
0
  6
CONTINUOUS
 62
     0
 10
81.272307834042977
 20
26.479339591546541
 30
0.0
  0
VERTEX
  5
DCA
  8
0
  6
CONTINUOUS
 62
     0
 10
81.307589085074326
 20
26.614051394461171
 30
0.0
  0
VERTEX
  5
DCB
  8
0
  6
CONTINUOUS
 62
     0
 10
81.324358657134681
 20
26.680736131026549
 30
0.0
  0
VERTEX
  5
DCC
  8
0
  6
CONTINUOUS
 62
     0
 10
81.340554960139187
 20
26.747003371904562
 30
0.0
  0
VERTEX
  5
DCD
  8
0
  6
CONTINUOUS
 62
     0
 10
81.371247754696597
 20
26.87837360422515
 30
0.0
  0
VERTEX
  5
DCE
  8
0
  6
CONTINUOUS
 62
     0
 10
81.39970370185155
 20
27.008336283873181
 30
0.0
  0
VERTEX
  5
DCF
  8
0
  6
CONTINUOUS
 62
     0
 10
81.425953112450713
 20
27.13706248781142
 30
0.0
  0
VERTEX
  5
DD0
  8
0
  6
CONTINUOUS
 62
     0
 10
81.450020475774025
 20
27.26472093343801
 30
0.0
  0
VERTEX
  5
DD1
  8
0
  6
CONTINUOUS
 62
     0
 10
81.471924521441579
 20
27.391478725088461
 30
0.0
  0
VERTEX
  5
DD2
  8
0
  6
CONTINUOUS
 62
     0
 10
81.482069584773086
 20
27.45457183776233
 30
0.0
  0
VERTEX
  5
DD3
  8
0
  6
CONTINUOUS
 62
     0
 10
81.491678242666026
 20
27.517502098149471
 30
0.0
  0
VERTEX
  5
DD4
  8
0
  6
CONTINUOUS
 62
     0
 10
81.509288880488171
 20
27.642957167894512
 30
0.0
  0
VERTEX
  5
DD5
  8
0
  6
CONTINUOUS
 62
     0
 10
81.524757868125576
 20
27.768010690348209
 30
0.0
  0
VERTEX
  5
DD6
  8
0
  6
CONTINUOUS
 62
     0
 10
81.538080734027304
 20
27.892830842810721
 30
0.0
  0
VERTEX
  5
DD7
  8
0
  6
CONTINUOUS
 62
     0
 10
81.549246961656095
 20
28.017588032132441
 30
0.0
  0
VERTEX
  5
DD8
  8
0
  6
CONTINUOUS
 62
     0
 10
81.558239803392567
 20
28.142455739439811
 30
0.0
  0
VERTEX
  5
DD9
  8
0
  6
CONTINUOUS
 62
     0
 10
81.561914210281444
 20
28.204986308890909
 30
0.0
  0
VERTEX
  5
DDA
  8
0
  6
CONTINUOUS
 62
     0
 10
81.565036045264165
 20
28.26761141079345
 30
0.0
  0
VERTEX
  5
DDB
  8
0
  6
CONTINUOUS
 62
     0
 10
81.569605718424683
 20
28.393237404231911
 30
0.0
  0
VERTEX
  5
DDC
  8
0
  6
CONTINUOUS
 62
     0
 10
81.571911752426459
 20
28.519522004851702
 30
0.0
  0
VERTEX
  5
DDD
  8
0
  6
CONTINUOUS
 62
     0
 10
81.572202278690384
 20
28.582972010503461
 30
0.0
  0
SEQEND
  5
DDE
  8
0
  6
CONTINUOUS
 62
     0
  0
LINE
  5
789
  8
0
  6
CONTINUOUS
 62
     0
 10
76.572202278690384
 20
23.964169856986469
 30
0.0
 11
76.572202278690384
 21
33.201774164020442
 31
0.0
  0
POLYLINE
  5
78A
  8
0
  6
CONTINUOUS
 62
     0
 66
     1
 10
0.0
 20
0.0
 30
0.0
  0
VERTEX
  5
DDF
  8
0
  6
CONTINUOUS
 62
     0
 10
81.572202278690384
 20
25.118870395365722
 30
0.0
  0
VERTEX
  5
DE0
  8
0
  6
CONTINUOUS
 62
     0
 10
81.571911752426459
 20
25.0871453925397
 30
0.0
  0
VERTEX
  5
DE1
  8
0
  6
CONTINUOUS
 62
     0
 10
81.569605718424683
 20
25.02400309222946
 30
0.0
  0
VERTEX
  5
DE2
  8
0
  6
CONTINUOUS
 62
     0
 10
81.565036045264165
 20
24.961190095510009
 30
0.0
  0
VERTEX
  5
DE3
  8
0
  6
CONTINUOUS
 62
     0
 10
81.561914210281444
 20
24.929877544558622
 30
0.0
  0
VERTEX
  5
DE4
  8
0
  6
CONTINUOUS
 62
     0
 10
81.558239803392567
 20
24.89861225983304
 30
0.0
  0
VERTEX
  5
DE5
  8
0
  6
CONTINUOUS
 62
     0
 10
81.549246961656095
 20
24.836178406179219
 30
0.0
  0
VERTEX
  5
DE6
  8
0
  6
CONTINUOUS
 62
     0
 10
81.538080734027304
 20
24.773799811518249
 30
0.0
  0
VERTEX
  5
DE7
  8
0
  6
CONTINUOUS
 62
     0
 10
81.524757868125576
 20
24.711389735286851
 30
0.0
  0
VERTEX
  5
DE8
  8
0
  6
CONTINUOUS
 62
     0
 10
81.509288880488171
 20
24.64886297405997
 30
0.0
  0
VERTEX
  5
DE9
  8
0
  6
CONTINUOUS
 62
     0
 10
81.491678242666026
 20
24.586135439187441
 30
0.0
  0
VERTEX
  5
DEA
  8
0
  6
CONTINUOUS
 62
     0
 10
81.482069584773086
 20
24.554670308993881
 30
0.0
  0
VERTEX
  5
DEB
  8
0
  6
CONTINUOUS
 62
     0
 10
81.471924521441579
 20
24.52312375265695
 30
0.0
  0
VERTEX
  5
DEC
  8
0
  6
CONTINUOUS
 62
     0
 10
81.450020475774082
 20
24.459744856831779
 30
0.0
  0
VERTEX
  5
DED
  8
0
  6
CONTINUOUS
 62
     0
 10
81.425953112450784
 20
24.395915634018539
 30
0.0
  0
VERTEX
  5
DEE
  8
0
  6
CONTINUOUS
 62
     0
 10
81.39970370185155
 20
24.3315525320495
 30
0.0
  0
VERTEX
  5
DEF
  8
0
  6
CONTINUOUS
 62
     0
 10
81.371247754696597
 20
24.26657119222563
 30
0.0
  0
VERTEX
  5
DF0
  8
0
  6
CONTINUOUS
 62
     0
 10
81.340554960139244
 20
24.200886076065501
 30
0.0
  0
VERTEX
  5
DF1
  8
0
  6
CONTINUOUS
 62
     0
 10
81.324358657134681
 20
24.167752455626559
 30
0.0
  0
VERTEX
  5
DF2
  8
0
  6
CONTINUOUS
 62
     0
 10
81.307589085074383
 20
24.134410087344008
 30
0.0
  0
VERTEX
  5
DF3
  8
0
  6
CONTINUOUS
 62
     0
 10
81.272307834043048
 20
24.067054185886889
 30
0.0
  0
VERTEX
  5
DF4
  8
0
  6
CONTINUOUS
 62
     0
 10
81.234662668623187
 20
23.998726989510711
 30
0.0
  0
VERTEX
  5
DF5
  8
0
  6
CONTINUOUS
 62
     0
 10
81.214936688782259
 20
23.964169856986469
 30
0.0
  0
SEQEND
  5
DF6
  8
0
  6
CONTINUOUS
 62
     0
  0
POLYLINE
  5
78B
  8
0
  6
CONTINUOUS
 62
     0
 66
     1
 10
0.0
 20
0.0
 30
0.0
  0
VERTEX
  5
DF7
  8
0
  6
CONTINUOUS
 62
     0
 10
81.214936688782259
 20
26.27357093374496
 30
0.0
  0
VERTEX
  5
DF8
  8
0
  6
CONTINUOUS
 62
     0
 10
81.234662668623187
 20
26.239013801220551
 30
0.0
  0
VERTEX
  5
DF9
  8
0
  6
CONTINUOUS
 62
     0
 10
81.272307834042977
 20
26.17068660484415
 30
0.0
  0
VERTEX
  5
DFA
  8
0
  6
CONTINUOUS
 62
     0
 10
81.307589085074326
 20
26.10333070338686
 30
0.0
  0
VERTEX
  5
DFB
  8
0
  6
CONTINUOUS
 62
     0
 10
81.324358657134681
 20
26.069988335104139
 30
0.0
  0
VERTEX
  5
DFC
  8
0
  6
CONTINUOUS
 62
     0
 10
81.340554960139187
 20
26.036854714665139
 30
0.0
  0
VERTEX
  5
DFD
  8
0
  6
CONTINUOUS
 62
     0
 10
81.371247754696597
 20
25.971169598504851
 30
0.0
  0
VERTEX
  5
DFE
  8
0
  6
CONTINUOUS
 62
     0
 10
81.39970370185155
 20
25.90618825868086
 30
0.0
  0
VERTEX
  5
DFF
  8
0
  6
CONTINUOUS
 62
     0
 10
81.425953112450713
 20
25.84182515671171
 30
0.0
  0
VERTEX
  5
E00
  8
0
  6
CONTINUOUS
 62
     0
 10
81.450020475774025
 20
25.77799593389841
 30
0.0
  0
VERTEX
  5
E01
  8
0
  6
CONTINUOUS
 62
     0
 10
81.471924521441579
 20
25.71461703807319
 30
0.0
  0
VERTEX
  5
E02
  8
0
  6
CONTINUOUS
 62
     0
 10
81.482069584773086
 20
25.683070481736252
 30
0.0
  0
VERTEX
  5
E03
  8
0
  6
CONTINUOUS
 62
     0
 10
81.491678242666026
 20
25.651605351542688
 30
0.0
  0
VERTEX
  5
E04
  8
0
  6
CONTINUOUS
 62
     0
 10
81.509288880488171
 20
25.588877816670159
 30
0.0
  0
VERTEX
  5
E05
  8
0
  6
CONTINUOUS
 62
     0
 10
81.524757868125576
 20
25.526351055443349
 30
0.0
  0
VERTEX
  5
E06
  8
0
  6
CONTINUOUS
 62
     0
 10
81.538080734027304
 20
25.463940979212062
 30
0.0
  0
VERTEX
  5
E07
  8
0
  6
CONTINUOUS
 62
     0
 10
81.549246961656095
 20
25.401562384551202
 30
0.0
  0
VERTEX
  5
E08
  8
0
  6
CONTINUOUS
 62
     0
 10
81.558239803392567
 20
25.33912853089754
 30
0.0
  0
VERTEX
  5
E09
  8
0
  6
CONTINUOUS
 62
     0
 10
81.561914210281444
 20
25.307863246171959
 30
0.0
  0
VERTEX
  5
E0A
  8
0
  6
CONTINUOUS
 62
     0
 10
81.565036045264165
 20
25.276550695220688
 30
0.0
  0
VERTEX
  5
E0B
  8
0
  6
CONTINUOUS
 62
     0
 10
81.569605718424683
 20
25.213737698501461
 30
0.0
  0
VERTEX
  5
E0C
  8
0
  6
CONTINUOUS
 62
     0
 10
81.571911752426459
 20
25.15059539819157
 30
0.0
  0
VERTEX
  5
E0D
  8
0
  6
CONTINUOUS
 62
     0
 10
81.572202278690384
 20
25.118870395365722
 30
0.0
  0
SEQEND
  5
E0E
  8
0
  6
CONTINUOUS
 62
     0
  0
LINE
  5
78C
  8
0
  6
CONTINUOUS
 62
     0
 10
81.214936688782259
 20
26.27357093374496
 30
0.0
 11
76.572202278690384
 21
26.27357093374496
 31
0.0
  0
POLYLINE
  5
78D
  8
0
  6
CONTINUOUS
 62
     0
 66
     1
 10
0.0
 20
0.0
 30
0.0
  0
VERTEX
  5
E0F
  8
0
  6
CONTINUOUS
 62
     0
 10
81.572202278690384
 20
28.582972010503461
 30
0.0
  0
VERTEX
  5
E10
  8
0
  6
CONTINUOUS
 62
     0
 10
81.571911752426459
 20
28.51952200485141
 30
0.0
  0
VERTEX
  5
E11
  8
0
  6
CONTINUOUS
 62
     0
 10
81.569605718424683
 20
28.393237404231002
 30
0.0
  0
VERTEX
  5
E12
  8
0
  6
CONTINUOUS
 62
     0
 10
81.565036045264165
 20
28.267611410792089
 30
0.0
  0
VERTEX
  5
E13
  8
0
  6
CONTINUOUS
 62
     0
 10
81.561914210281444
 20
28.204986308889382
 30
0.0
  0
VERTEX
  5
E14
  8
0
  6
CONTINUOUS
 62
     0
 10
81.558239803392567
 20
28.142455739438109
 30
0.0
  0
VERTEX
  5
E15
  8
0
  6
CONTINUOUS
 62
     0
 10
81.549246961656095
 20
28.017588032130451
 30
0.0
  0
VERTEX
  5
E16
  8
0
  6
CONTINUOUS
 62
     0
 10
81.538080734027304
 20
27.892830842808511
 30
0.0
  0
VERTEX
  5
E17
  8
0
  6
CONTINUOUS
 62
     0
 10
81.524757868125576
 20
27.768010690345822
 30
0.0
  0
VERTEX
  5
E18
  8
0
  6
CONTINUOUS
 62
     0
 10
81.509288880488171
 20
27.642957167892011
 30
0.0
  0
VERTEX
  5
E19
  8
0
  6
CONTINUOUS
 62
     0
 10
81.491678242666026
 20
27.51750209814691
 30
0.0
  0
VERTEX
  5
E1A
  8
0
  6
CONTINUOUS
 62
     0
 10
81.482069584773086
 20
27.454571837759779
 30
0.0
  0
VERTEX
  5
E1B
  8
0
  6
CONTINUOUS
 62
     0
 10
81.471924521441579
 20
27.39147872508596
 30
0.0
  0
VERTEX
  5
E1C
  8
0
  6
CONTINUOUS
 62
     0
 10
81.450020475774082
 20
27.264720933435569
 30
0.0
  0
VERTEX
  5
E1D
  8
0
  6
CONTINUOUS
 62
     0
 10
81.425953112450784
 20
27.13706248780915
 30
0.0
  0
VERTEX
  5
E1E
  8
0
  6
CONTINUOUS
 62
     0
 10
81.39970370185155
 20
27.008336283871071
 30
0.0
  0
VERTEX
  5
E1F
  8
0
  6
CONTINUOUS
 62
     0
 10
81.371247754696597
 20
26.878373604223391
 30
0.0
  0
VERTEX
  5
E20
  8
0
  6
CONTINUOUS
 62
     0
 10
81.340554960139244
 20
26.74700337190308
 30
0.0
  0
VERTEX
  5
E21
  8
0
  6
CONTINUOUS
 62
     0
 10
81.324358657134681
 20
26.680736131025242
 30
0.0
  0
VERTEX
  5
E22
  8
0
  6
CONTINUOUS
 62
     0
 10
81.307589085074383
 20
26.614051394460031
 30
0.0
  0
VERTEX
  5
E23
  8
0
  6
CONTINUOUS
 62
     0
 10
81.272307834043048
 20
26.479339591545848
 30
0.0
  0
VERTEX
  5
E24
  8
0
  6
CONTINUOUS
 62
     0
 10
81.234662668623187
 20
26.34268519879345
 30
0.0
  0
VERTEX
  5
E25
  8
0
  6
CONTINUOUS
 62
     0
 10
81.214936688782259
 20
26.27357093374496
 30
0.0
  0
SEQEND
  5
E26
  8
0
  6
CONTINUOUS
 62
     0
  0
POLYLINE
  5
78E
  8
0
  6
CONTINUOUS
 62
     0
 66
     1
 10
0.0
 20
0.0
 30
0.0
  0
VERTEX
  5
E27
  8
0
  6
CONTINUOUS
 62
     0
 10
81.214936688782259
 20
30.892373087261952
 30
0.0
  0
VERTEX
  5
E28
  8
0
  6
CONTINUOUS
 62
     0
 10
81.234662668623187
 20
30.82325882221323
 30
0.0
  0
VERTEX
  5
E29
  8
0
  6
CONTINUOUS
 62
     0
 10
81.272307834042977
 20
30.686604429460381
 30
0.0
  0
VERTEX
  5
E2A
  8
0
  6
CONTINUOUS
 62
     0
 10
81.307589085074326
 20
30.55189262654574
 30
0.0
  0
VERTEX
  5
E2B
  8
0
  6
CONTINUOUS
 62
     0
 10
81.324358657134681
 20
30.485207889980359
 30
0.0
  0
VERTEX
  5
E2C
  8
0
  6
CONTINUOUS
 62
     0
 10
81.340554960139187
 20
30.41894064910235
 30
0.0
  0
VERTEX
  5
E2D
  8
0
  6
CONTINUOUS
 62
     0
 10
81.371247754696597
 20
30.287570416781762
 30
0.0
  0
VERTEX
  5
E2E
  8
0
  6
CONTINUOUS
 62
     0
 10
81.39970370185155
 20
30.157607737133731
 30
0.0
  0
VERTEX
  5
E2F
  8
0
  6
CONTINUOUS
 62
     0
 10
81.425953112450713
 20
30.028881533195491
 30
0.0
  0
VERTEX
  5
E30
  8
0
  6
CONTINUOUS
 62
     0
 10
81.450020475774025
 20
29.901223087568901
 30
0.0
  0
VERTEX
  5
E31
  8
0
  6
CONTINUOUS
 62
     0
 10
81.471924521441579
 20
29.774465295918439
 30
0.0
  0
VERTEX
  5
E32
  8
0
  6
CONTINUOUS
 62
     0
 10
81.482069584773086
 20
29.711372183244581
 30
0.0
  0
VERTEX
  5
E33
  8
0
  6
CONTINUOUS
 62
     0
 10
81.491678242666026
 20
29.64844192285744
 30
0.0
  0
VERTEX
  5
E34
  8
0
  6
CONTINUOUS
 62
     0
 10
81.509288880488171
 20
29.5229868531124
 30
0.0
  0
VERTEX
  5
E35
  8
0
  6
CONTINUOUS
 62
     0
 10
81.524757868125576
 20
29.397933330658699
 30
0.0
  0
VERTEX
  5
E36
  8
0
  6
CONTINUOUS
 62
     0
 10
81.538080734027304
 20
29.27311317819613
 30
0.0
  0
VERTEX
  5
E37
  8
0
  6
CONTINUOUS
 62
     0
 10
81.549246961656095
 20
29.148355988874471
 30
0.0
  0
VERTEX
  5
E38
  8
0
  6
CONTINUOUS
 62
     0
 10
81.558239803392567
 20
29.023488281567101
 30
0.0
  0
VERTEX
  5
E39
  8
0
  6
CONTINUOUS
 62
     0
 10
81.561914210281444
 20
28.960957712115999
 30
0.0
  0
VERTEX
  5
E3A
  8
0
  6
CONTINUOUS
 62
     0
 10
81.565036045264165
 20
28.898332610213458
 30
0.0
  0
VERTEX
  5
E3B
  8
0
  6
CONTINUOUS
 62
     0
 10
81.569605718424683
 20
28.772706616775
 30
0.0
  0
VERTEX
  5
E3C
  8
0
  6
CONTINUOUS
 62
     0
 10
81.571911752426459
 20
28.646422016155221
 30
0.0
  0
VERTEX
  5
E3D
  8
0
  6
CONTINUOUS
 62
     0
 10
81.572202278690384
 20
28.582972010503461
 30
0.0
  0
SEQEND
  5
E3E
  8
0
  6
CONTINUOUS
 62
     0
  0
LINE
  5
78F
  8
0
  6
CONTINUOUS
 62
     0
 10
81.214936688782259
 20
30.892373087261952
 30
0.0
 11
76.572202278690384
 21
30.892373087261952
 31
0.0
  0
POLYLINE
  5
790
  8
0
  6
CONTINUOUS
 62
     0
 66
     1
 10
0.0
 20
0.0
 30
0.0
  0
VERTEX
  5
E3F
  8
0
  6
CONTINUOUS
 62
     0
 10
81.572202278690384
 20
32.04707362564119
 30
0.0
  0
VERTEX
  5
E40
  8
0
  6
CONTINUOUS
 62
     0
 10
81.571911752426459
 20
32.015348622815168
 30
0.0
  0
VERTEX
  5
E41
  8
0
  6
CONTINUOUS
 62
     0
 10
81.569605718424683
 20
31.952206322504988
 30
0.0
  0
VERTEX
  5
E42
  8
0
  6
CONTINUOUS
 62
     0
 10
81.565036045264165
 20
31.88939332578553
 30
0.0
  0
VERTEX
  5
E43
  8
0
  6
CONTINUOUS
 62
     0
 10
81.561914210281444
 20
31.85808077483415
 30
0.0
  0
VERTEX
  5
E44
  8
0
  6
CONTINUOUS
 62
     0
 10
81.558239803392567
 20
31.826815490108508
 30
0.0
  0
VERTEX
  5
E45
  8
0
  6
CONTINUOUS
 62
     0
 10
81.549246961656095
 20
31.76438163645469
 30
0.0
  0
VERTEX
  5
E46
  8
0
  6
CONTINUOUS
 62
     0
 10
81.538080734027304
 20
31.70200304179372
 30
0.0
  0
VERTEX
  5
E47
  8
0
  6
CONTINUOUS
 62
     0
 10
81.524757868125576
 20
31.639592965562372
 30
0.0
  0
VERTEX
  5
E48
  8
0
  6
CONTINUOUS
 62
     0
 10
81.509288880488171
 20
31.577066204335491
 30
0.0
  0
VERTEX
  5
E49
  8
0
  6
CONTINUOUS
 62
     0
 10
81.491678242666026
 20
31.514338669462969
 30
0.0
  0
VERTEX
  5
E4A
  8
0
  6
CONTINUOUS
 62
     0
 10
81.482069584773086
 20
31.482873539269409
 30
0.0
  0
VERTEX
  5
E4B
  8
0
  6
CONTINUOUS
 62
     0
 10
81.471924521441579
 20
31.451326982932471
 30
0.0
  0
VERTEX
  5
E4C
  8
0
  6
CONTINUOUS
 62
     0
 10
81.450020475774082
 20
31.387948087107311
 30
0.0
  0
VERTEX
  5
E4D
  8
0
  6
CONTINUOUS
 62
     0
 10
81.425953112450784
 20
31.324118864294071
 30
0.0
  0
VERTEX
  5
E4E
  8
0
  6
CONTINUOUS
 62
     0
 10
81.39970370185155
 20
31.259755762325032
 30
0.0
  0
VERTEX
  5
E4F
  8
0
  6
CONTINUOUS
 62
     0
 10
81.371247754696597
 20
31.194774422501151
 30
0.0
  0
VERTEX
  5
E50
  8
0
  6
CONTINUOUS
 62
     0
 10
81.340554960139244
 20
31.129089306341029
 30
0.0
  0
VERTEX
  5
E51
  8
0
  6
CONTINUOUS
 62
     0
 10
81.324358657134681
 20
31.09595568590208
 30
0.0
  0
VERTEX
  5
E52
  8
0
  6
CONTINUOUS
 62
     0
 10
81.307589085074383
 20
31.06261331761954
 30
0.0
  0
VERTEX
  5
E53
  8
0
  6
CONTINUOUS
 62
     0
 10
81.272307834043048
 20
30.995257416162421
 30
0.0
  0
VERTEX
  5
E54
  8
0
  6
CONTINUOUS
 62
     0
 10
81.234662668623187
 20
30.92693021978619
 30
0.0
  0
VERTEX
  5
E55
  8
0
  6
CONTINUOUS
 62
     0
 10
81.214936688782259
 20
30.892373087261952
 30
0.0
  0
SEQEND
  5
E56
  8
0
  6
CONTINUOUS
 62
     0
  0
POLYLINE
  5
791
  8
0
  6
CONTINUOUS
 62
     0
 66
     1
 10
0.0
 20
0.0
 30
0.0
  0
VERTEX
  5
E57
  8
0
  6
CONTINUOUS
 62
     0
 10
81.214936688782259
 20
33.201774164020442
 30
0.0
  0
VERTEX
  5
E58
  8
0
  6
CONTINUOUS
 62
     0
 10
81.234662668623187
 20
33.167217031496079
 30
0.0
  0
VERTEX
  5
E59
  8
0
  6
CONTINUOUS
 62
     0
 10
81.272307834042977
 20
33.098889835119678
 30
0.0
  0
VERTEX
  5
E5A
  8
0
  6
CONTINUOUS
 62
     0
 10
81.307589085074326
 20
33.031533933662331
 30
0.0
  0
VERTEX
  5
E5B
  8
0
  6
CONTINUOUS
 62
     0
 10
81.324358657134681
 20
32.99819156537967
 30
0.0
  0
VERTEX
  5
E5C
  8
0
  6
CONTINUOUS
 62
     0
 10
81.340554960139187
 20
32.965057944940668
 30
0.0
  0
VERTEX
  5
E5D
  8
0
  6
CONTINUOUS
 62
     0
 10
81.371247754696597
 20
32.899372828780372
 30
0.0
  0
VERTEX
  5
E5E
  8
0
  6
CONTINUOUS
 62
     0
 10
81.39970370185155
 20
32.834391488956328
 30
0.0
  0
VERTEX
  5
E5F
  8
0
  6
CONTINUOUS
 62
     0
 10
81.425953112450713
 20
32.770028386987242
 30
0.0
  0
VERTEX
  5
E60
  8
0
  6
CONTINUOUS
 62
     0
 10
81.450020475774025
 20
32.706199164173938
 30
0.0
  0
VERTEX
  5
E61
  8
0
  6
CONTINUOUS
 62
     0
 10
81.471924521441579
 20
32.642820268348721
 30
0.0
  0
VERTEX
  5
E62
  8
0
  6
CONTINUOUS
 62
     0
 10
81.482069584773086
 20
32.61127371201178
 30
0.0
  0
VERTEX
  5
E63
  8
0
  6
CONTINUOUS
 62
     0
 10
81.491678242666026
 20
32.579808581818213
 30
0.0
  0
VERTEX
  5
E64
  8
0
  6
CONTINUOUS
 62
     0
 10
81.509288880488171
 20
32.517081046945691
 30
0.0
  0
VERTEX
  5
E65
  8
0
  6
CONTINUOUS
 62
     0
 10
81.524757868125576
 20
32.454554285718821
 30
0.0
  0
VERTEX
  5
E66
  8
0
  6
CONTINUOUS
 62
     0
 10
81.538080734027304
 20
32.392144209487583
 30
0.0
  0
VERTEX
  5
E67
  8
0
  6
CONTINUOUS
 62
     0
 10
81.549246961656095
 20
32.329765614826727
 30
0.0
  0
VERTEX
  5
E68
  8
0
  6
CONTINUOUS
 62
     0
 10
81.558239803392567
 20
32.267331761173011
 30
0.0
  0
VERTEX
  5
E69
  8
0
  6
CONTINUOUS
 62
     0
 10
81.561914210281444
 20
32.23606647644749
 30
0.0
  0
VERTEX
  5
E6A
  8
0
  6
CONTINUOUS
 62
     0
 10
81.565036045264165
 20
32.20475392549622
 30
0.0
  0
VERTEX
  5
E6B
  8
0
  6
CONTINUOUS
 62
     0
 10
81.569605718424683
 20
32.141940928776989
 30
0.0
  0
VERTEX
  5
E6C
  8
0
  6
CONTINUOUS
 62
     0
 10
81.571911752426459
 20
32.078798628467098
 30
0.0
  0
VERTEX
  5
E6D
  8
0
  6
CONTINUOUS
 62
     0
 10
81.572202278690384
 20
32.04707362564119
 30
0.0
  0
SEQEND
  5
E6E
  8
0
  6
CONTINUOUS
 62
     0
  0
LINE
  5
792
  8
0
  6
CONTINUOUS
 62
     0
 10
81.572202278690384
 20
32.582972010503447
 30
0.0
 11
81.572202278690384
 21
24.582972010503461
 31
0.0
  0
LINE
  5
793
  8
0
  6
CONTINUOUS
 62
     0
 10
64.572202278690398
 20
30.96947201050347
 30
0.0
 11
64.572202278690398
 21
26.196472010503442
 31
0.0
  0
LINE
  5
794
  8
0
  6
CONTINUOUS
 62
     0
 10
65.185702278690385
 20
31.58297201050345
 30
0.0
 11
65.185702278690385
 21
25.582972010503461
 31
0.0
  0
LINE
  5
797
  8
0
  6
CONTINUOUS
 62
     0
 10
81.784334313046315
 20
32.582972010503447
 30
0.0
 11
81.784334313046315
 21
24.582972010503461
 31
0.0
  0
LINE
  5
798
  8
0
  6
CONTINUOUS
 62
     0
 10
87.372202278690409
 20
32.582972010503447
 30
0.0
 11
87.372202278690409
 21
24.582972010503461
 31
0.0
  0
LINE
  5
799
  8
0
  6
CONTINUOUS
 62
     0
 10
91.501348040103963
 20
35.582972010503461
 30
0.0
 11
91.501348040103963
 21
21.58297201050345
 31
0.0
  0
LINE
  5
79A
  8
0
  6
CONTINUOUS
 62
     0
 10
91.772202278690386
 20
35.582972010503461
 30
0.0
 11
91.772202278690386
 21
21.58297201050345
 31
0.0
  0
LINE
  5
79B
  8
0
  6
CONTINUOUS
 62
     0
 10
92.572202278690384
 20
34.782972010503443
 30
0.0
 11
92.572202278690384
 21
22.382972010503469
 31
0.0
  0
LINE
  5
79C
  8
0
  6
CONTINUOUS
 62
     0
 10
71.790670322715371
 20
22.809469318607171
 30
0.0
 11
72.072202278690398
 21
23.582972010503461
 31
0.0
  0
LINE
  5
79D
  8
0
  6
CONTINUOUS
 62
     0
 10
72.072202278690398
 20
33.582972010503461
 30
0.0
 11
71.790670322715371
 21
34.356474702399737
 31
0.0
  0
LINE
  5
79E
  8
0
  6
CONTINUOUS
 62
     0
 10
69.072202278690384
 20
23.582972010503461
 30
0.0
 11
69.353734234665424
 21
22.809469318607171
 31
0.0
  0
LINE
  5
79F
  8
0
  6
CONTINUOUS
 62
     0
 10
69.353734234665424
 20
34.356474702399737
 30
0.0
 11
69.072202278690384
 21
33.582972010503461
 31
0.0
  0
LINE
  5
7A0
  8
0
  6
CONTINUOUS
 62
     0
 10
76.572202278690384
 20
31.58297201050345
 30
0.0
 11
72.072202278690398
 21
31.58297201050345
 31
0.0
  0
LINE
  5
7A1
  8
0
  6
CONTINUOUS
 62
     0
 10
72.072202278690398
 20
25.582972010503461
 30
0.0
 11
76.572202278690384
 21
25.582972010503461
 31
0.0
  0
LINE
  5
7A2
  8
0
  6
CONTINUOUS
 62
     0
 10
81.572202278690384
 20
32.582972010503447
 30
0.0
 11
81.214936688782259
 21
33.201774164020442
 31
0.0
  0
LINE
  5
7A3
  8
0
  6
CONTINUOUS
 62
     0
 10
81.214936688782259
 20
23.964169856986469
 30
0.0
 11
81.572202278690384
 21
24.582972010503461
 31
0.0
  0
LINE
  5
7A4
  8
0
  6
CONTINUOUS
 62
     0
 10
65.185702278690385
 20
31.58297201050345
 30
0.0
 11
64.572202278690398
 21
30.96947201050347
 31
0.0
  0
LINE
  5
7A5
  8
0
  6
CONTINUOUS
 62
     0
 10
64.572202278690398
 20
26.196472010503442
 30
0.0
 11
65.185702278690385
 21
25.582972010503461
 31
0.0
  0
LINE
  5
7A6
  8
0
  6
CONTINUOUS
 62
     0
 10
69.072202278690384
 20
31.58297201050345
 30
0.0
 11
65.185702278690385
 21
31.58297201050345
 31
0.0
  0
LINE
  5
7A7
  8
0
  6
CONTINUOUS
 62
     0
 10
65.185702278690385
 20
25.582972010503461
 30
0.0
 11
69.072202278690384
 21
25.582972010503461
 31
0.0
  0
LINE
  5
7AC
  8
0
  6
CONTINUOUS
 62
     0
 10
81.784334313046315
 20
32.582972010503447
 30
0.0
 11
81.573201586467647
 21
32.371839283924722
 31
0.0
  0
LINE
  5
7AD
  8
0
  6
CONTINUOUS
 62
     0
 10
81.573201586467647
 20
24.79410473708219
 30
0.0
 11
81.784334313046315
 21
24.582972010503461
 31
0.0
  0
LINE
  5
7AE
  8
0
  6
CONTINUOUS
 62
     0
 10
87.372202278690409
 20
32.582972010503447
 30
0.0
 11
81.784334313046315
 21
32.582972010503447
 31
0.0
  0
LINE
  5
7AF
  8
0
  6
CONTINUOUS
 62
     0
 10
81.784334313046315
 20
24.582972010503461
 30
0.0
 11
87.372202278690409
 21
24.582972010503461
 31
0.0
  0
LINE
  5
7B0
  8
0
  6
CONTINUOUS
 62
     0
 10
91.501348040103963
 20
35.582972010503461
 30
0.0
 11
87.372202278690409
 21
32.582972010503447
 31
0.0
  0
LINE
  5
7B1
  8
0
  6
CONTINUOUS
 62
     0
 10
87.372202278690409
 20
24.582972010503461
 30
0.0
 11
91.501348040103963
 21
21.58297201050345
 31
0.0
  0
LINE
  5
7B2
  8
0
  6
CONTINUOUS
 62
     0
 10
91.772202278690386
 20
35.582972010503461
 30
0.0
 11
91.501348040103963
 21
35.582972010503461
 31
0.0
  0
LINE
  5
7B3
  8
0
  6
CONTINUOUS
 62
     0
 10
91.501348040103963
 20
21.58297201050345
 30
0.0
 11
91.772202278690386
 21
21.58297201050345
 31
0.0
  0
ARC
  5
7B4
  8
0
  6
CONTINUOUS
 62
     0
 10
91.772202278690386
 20
22.382972010503469
 30
0.0
 40
0.7999999999999999
 50
270.0
 51
0.0
  0
ARC
  5
7B5
  8
0
  6
CONTINUOUS
 62
     0
 10
91.772202278690386
 20
34.782972010503443
 30
0.0
 40
0.7999999999999991
 50
0.0
 51
89.999999999999986
  0
LINE
  5
7B6
  8
0
  6
CONTINUOUS
 62
     0
 10
92.572202278690384
 20
22.856981387755582
 30
0.0
 11
92.572202278690384
 21
34.308962633251333
 31
0.0
  0
ARC
  5
7B7
  8
2
 10
100.7722022786903
 20
28.58297201050344
 30
0.0
 40
9.9999999999999645
 50
145.0847937525559
 51
214.9152062474441
  0
LINE
  5
7B8
  8
3
 10
72.072202278690398
 20
30.96947201050347
 30
0.0
 11
74.572202278690398
 21
30.96947201050347
 31
0.0
  0
LINE
  5
7B9
  8
3
 10
72.072202278690398
 20
26.196472010503442
 30
0.0
 11
74.572202278690398
 21
26.196472010503442
 31
0.0
  0
LINE
  5
7BB
  8
3
 10
74.572202278690398
 20
30.96947201050347
 30
0.0
 11
75.634815449133882
 21
31.58297201050345
 31
0.0
  0
LINE
  5
7BC
  8
3
 10
74.572202278690398
 20
26.196472010503442
 30
0.0
 11
75.634815449133882
 21
25.582972010503461
 31
0.0
  0
CIRCLE
  5
7CA
  8
3
 10
23.654933691701839
 20
28.58297201050344
 30
0.0
 40
2.3864999999999981
  0
CIRCLE
  5
7D3
  8
0
 10
140.15493369170181
 20
28.582972010503461
 30
0.0
 40
7.0
  0
LINE
  5
7D4
  8
1
 10
130.15493369170181
 20
28.582972010503461
 30
0.0
 11
150.15493369170181
 21
28.582972010503461
 31
0.0
  0
LINE
  5
7D5
  8
1
 10
140.15493369170181
 20
38.582972010503461
 30
0.0
 11
140.15493369170181
 21
18.58297201050345
 31
0.0
  0
LINE
  5
7D6
  8
3
 10
72.072202278690398
 20
71.11594329504311
 30
0.0
 11
74.572202278690398
 21
71.11594329504311
 31
0.0
  0
LINE
  5
7D7
  8
3
 10
72.072202278690398
 20
66.342943295043085
 30
0.0
 11
74.572202278690398
 21
66.342943295043085
 31
0.0
  0
LINE
  5
7D8
  8
3
 10
74.572202278690398
 20
71.11594329504311
 30
0.0
 11
75.634815449133896
 21
71.729443295043083
 31
0.0
  0
LINE
  5
7D9
  8
3
 10
74.579755002049197
 20
66.340919548918436
 30
0.0
 11
75.638862941383181
 21
65.729443295043083
 31
0.0
  0
ARC
  5
849
  8
0
 10
64.072202278690384
 20
68.729443295043097
 30
0.0
 40
3.0
 50
156.90050479442371
 51
203.0994952055762
  0
LINE
  5
84A
  8
0
 10
61.31272741698006
 20
69.906430333029803
 30
0.0
 11
61.31272741698006
 21
67.552456257056392
 31
0.0
  0
LINE
  5
869
  8
0
 10
61.31272741698006
 20
29.75995904849016
 30
0.0
 11
61.31272741698006
 21
27.405984972516752
 31
0.0
  0
ARC
  5
86A
  8
0
 10
64.072202278690384
 20
28.582972010503461
 30
0.0
 40
3.0
 50
156.90050479442371
 51
203.0994952055762
  0
LINE
  5
86B
  8
0
  6
CONTINUOUS
 62
     0
 10
61.872202278690402
 20
27.082972010503461
 30
0.0
 11
64.572202278690398
 21
27.082972010503461
 31
0.0
  0
LINE
  5
86C
  8
0
  6
CONTINUOUS
 62
     0
 10
64.572202278690398
 20
30.08297201050345
 30
0.0
 11
61.872202278690402
 21
30.08297201050345
 31
0.0
  0
LINE
  5
86D
  8
0
  6
CONTINUOUS
 62
     0
 10
61.31272741698006
 20
27.405984972516752
 30
0.0
 11
61.872202278690402
 21
27.082972010503461
 31
0.0
  0
LINE
  5
86E
  8
0
  6
CONTINUOUS
 62
     0
 10
61.872202278690402
 20
30.08297201050345
 30
0.0
 11
61.31272741698006
 21
29.75995904849016
 31
0.0
  0
LINE
  5
86F
  8
0
  6
CONTINUOUS
 62
     0
 10
61.872202278690402
 20
30.08297201050345
 30
0.0
 11
61.872202278690402
 21
27.082972010503461
 31
0.0
  0
TEXT
  5
999
  8
0
 62
     3
 10
0.0
 20
0.0
 30
0.0
 40
5.0
  1
NDXN6AW-SUS
  7
STANDARD1
  0
ENDSEC
  0
EOF
