  0
SECTION
  2
HEADER
  9
$ACADVER
  1
AC1009
  9
$INSBASE
 10
0.0
 20
0.0
 30
0.0
  9
$EXTMIN
 10
0.0
 20
-1.4802182810368341
 30
0.0
  9
$EXTMAX
 10
297.58937251936447
 20
180.96422607125689
 30
0.0
  9
$LIMMIN
 10
0.0
 20
0.0
  9
$LIMMAX
 10
385.0
 20
270.0
  9
$ORTHOMODE
 70
     1
  9
$REGENMODE
 70
     1
  9
$FILLMODE
 70
     1
  9
$QTEXTMODE
 70
     0
  9
$MIRRTEXT
 70
     0
  9
$DRAGMODE
 70
     2
  9
$LTSCALE
 40
10.0
  9
$OSMODE
 70
  3071
  9
$ATTMODE
 70
     1
  9
$TEXTSIZE
 40
4.000000000000048
  9
$TRACEWID
 40
0.05
  9
$TEXTSTYLE
  7
STANDARD
  9
$CLAYER
  8
0
  9
$CELTYPE
  6
BYLAYER
  9
$CECOLOR
 62
   256
  9
$DIMSCALE
 40
1.0
  9
$DIMASZ
 40
3.0
  9
$DIMEXO
 40
2.0
  9
$DIMDLI
 40
0.38
  9
$DIMRND
 40
0.0
  9
$DIMDLE
 40
0.0
  9
$DIMEXE
 40
2.0
  9
$DIMTP
 40
0.0
  9
$DIMTM
 40
0.0
  9
$DIMTXT
 40
3.0
  9
$DIMCEN
 40
0.0
  9
$DIMTSZ
 40
0.0
  9
$DIMTOL
 70
     0
  9
$DIMLIM
 70
     0
  9
$DIMTIH
 70
     0
  9
$DIMTOH
 70
     0
  9
$DIMSE1
 70
     0
  9
$DIMSE2
 70
     0
  9
$DIMTAD
 70
     1
  9
$DIMZIN
 70
     0
  9
$DIMBLK
  1

  9
$DIMASO
 70
     0
  9
$DIMSHO
 70
     0
  9
$DIMPOST
  1

  9
$DIMAPOST
  1

  9
$DIMALT
 70
     0
  9
$DIMALTD
 70
     2
  9
$DIMALTF
 40
25.399999999999999
  9
$DIMLFAC
 40
1.0
  9
$DIMTOFL
 70
     1
  9
$DIMTVP
 40
1.6000000000000001
  9
$DIMTIX
 70
     1
  9
$DIMSOXD
 70
     0
  9
$DIMSAH
 70
     0
  9
$DIMBLK1
  1

  9
$DIMBLK2
  1

  9
$DIMSTYLE
  2
STANDARD
  9
$DIMCLRD
 70
     0
  9
$DIMCLRE
 70
     0
  9
$DIMCLRT
 70
     0
  9
$DIMTFAC
 40
1.0
  9
$DIMGAP
 40
1.0
  9
$LUNITS
 70
     2
  9
$LUPREC
 70
     4
  9
$SKETCHINC
 40
0.1
  9
$FILLETRAD
 40
0.0
  9
$AUNITS
 70
     0
  9
$AUPREC
 70
     4
  9
$MENU
  1
E:\r13\win\SUPPORT\ACAD
  9
$ELEVATION
 40
0.0
  9
$PELEVATION
 40
0.0
  9
$THICKNESS
 40
0.0
  9
$LIMCHECK
 70
     0
  9
$BLIPMODE
 70
     0
  9
$CHAMFERA
 40
0.0
  9
$CHAMFERB
 40
0.0
  9
$SKPOLY
 70
     0
  9
$TDCREATE
 40
2450280.598206134
  9
$TDUPDATE
 40
2456597.6891826158
  9
$TDINDWG
 40
0.0758391782
  9
$TDUSRTIMER
 40
0.0758391782
  9
$USRTIMER
 70
     1
  9
$ANGBASE
 50
0.0
  9
$ANGDIR
 70
     0
  9
$PDMODE
 70
     0
  9
$PDSIZE
 40
0.0
  9
$PLINEWID
 40
0.0
  9
$COORDS
 70
     1
  9
$SPLFRAME
 70
     0
  9
$SPLINETYPE
 70
     6
  9
$SPLINESEGS
 70
     8
  9
$ATTDIA
 70
     0
  9
$ATTREQ
 70
     1
  9
$HANDLING
 70
     1
  9
$HANDSEED
  5
987
  9
$SURFTAB1
 70
     6
  9
$SURFTAB2
 70
     6
  9
$SURFTYPE
 70
     6
  9
$SURFU
 70
     6
  9
$SURFV
 70
     6
  9
$UCSNAME
  2

  9
$UCSORG
 10
0.0
 20
0.0
 30
0.0
  9
$UCSXDIR
 10
1.0
 20
0.0
 30
0.0
  9
$UCSYDIR
 10
0.0
 20
1.0
 30
0.0
  9
$PUCSNAME
  2

  9
$PUCSORG
 10
0.0
 20
0.0
 30
0.0
  9
$PUCSXDIR
 10
1.0
 20
0.0
 30
0.0
  9
$PUCSYDIR
 10
0.0
 20
1.0
 30
0.0
  9
$USERI1
 70
     3
  9
$USERI2
 70
     1
  9
$USERI3
 70
     0
  9
$USERI4
 70
     0
  9
$USERI5
 70
     0
  9
$USERR1
 40
1.0
  9
$USERR2
 40
3.0
  9
$USERR3
 40
3.0
  9
$USERR4
 40
3.0
  9
$USERR5
 40
10.0
  9
$WORLDVIEW
 70
     1
  9
$SHADEDGE
 70
     3
  9
$SHADEDIF
 70
    70
  9
$TILEMODE
 70
     1
  9
$MAXACTVP
 70
    16
  9
$PLIMCHECK
 70
     0
  9
$PEXTMIN
 10
1.0000000000000000E+020
 20
1.0000000000000000E+020
 30
1.0000000000000000E+020
  9
$PEXTMAX
 10
-1.0000000000000000E+020
 20
-1.0000000000000000E+020
 30
-1.0000000000000000E+020
  9
$PLIMMIN
 10
0.0
 20
0.0
  9
$PLIMMAX
 10
12.0
 20
9.0
  9
$UNITMODE
 70
     0
  9
$VISRETAIN
 70
     0
  9
$PLINEGEN
 70
     0
  9
$PSLTSCALE
 70
     0
  0
ENDSEC
  0
SECTION
  2
TABLES
  0
TABLE
  2
VPORT
 70
     1
  0
VPORT
  2
*ACTIVE
 70
     0
 10
0.0
 20
0.0
 11
1.0
 21
1.0
 12
192.49412581440311
 22
134.84202934784381
 13
0.0
 23
0.0
 14
5.0
 24
5.0
 15
10.0
 25
10.0
 16
0.0
 26
0.0
 36
1.0
 17
0.0
 27
0.0
 37
0.0
 40
275.78743625673241
 41
2.304913294797688
 42
50.0
 43
0.0
 44
0.0
 50
0.0
 51
0.0
 71
     0
 72
   500
 73
     1
 74
     0
 75
     0
 76
     0
 77
     0
 78
     2
  0
ENDTAB
  0
TABLE
  2
LTYPE
 70
     4
  0
LTYPE
  2
CONTINUOUS
 70
     0
  3
Solid Line
 72
    65
 73
     0
 40
0.0
  0
LTYPE
  2
CENTER
 70
     0
  3
____ _ ____ _ ____ _ ____ _ ____ _ ____ _ ____
 72
    65
 73
     4
 40
2.0
 49
1.25
 49
-0.25
 49
0.25
 49
-0.25
  0
LTYPE
  2
HIDDEN
 70
     0
  3
_ _ _ _ _ _ _ _ _ _ _ _ _ _ _ _ _ _ _ _ _ _ _
 72
    65
 73
     2
 40
0.375
 49
0.25
 49
-0.125
  0
LTYPE
  2
PHANTOM2
 70
     0
  3
___ _ _ ___ _ _ ___ _ _ ___ _ _
 72
    65
 73
     6
 40
1.25
 49
0.625
 49
-0.125
 49
0.125
 49
-0.125
 49
0.125
 49
-0.125
  0
ENDTAB
  0
TABLE
  2
LAYER
 70
     4
  0
LAYER
  2
0
 70
     0
 62
     7
  6
CONTINUOUS
  0
LAYER
  2
1
 70
     0
 62
     1
  6
CENTER
  0
LAYER
  2
3
 70
     0
 62
     3
  6
CONTINUOUS
  0
LAYER
  2
2
 70
     0
 62
     2
  6
HIDDEN
  0
ENDTAB
  0
TABLE
  2
STYLE
 70
     2
  0
STYLE
  2
STANDARD
 70
     0
 40
0.0
 41
1.0
 50
0.0
 71
     0
 42
4.000000000000048
  3
SIMPLEX
  4
BIGFONT
  0
STYLE
  2
STANDARD1
 70
     0
 40
0.0
 41
1.0
 50
0.0
 71
     0
 42
3.0
  3
txt
  4

  0
ENDTAB
  0
TABLE
  2
VIEW
 70
     0
  0
ENDTAB
  0
TABLE
  2
UCS
 70
     0
  0
ENDTAB
  0
TABLE
  2
APPID
 70
     3
  0
APPID
  2
ACAD
 70
     0
  0
APPID
  2
ACAD_MLEADERVER
 70
     0
  0
APPID
  2
ACAD_NAV_VCDISPLAY
 70
     0
  0
ENDTAB
  0
TABLE
  2
DIMSTYLE
 70
     1
  0
DIMSTYLE
  2
STANDARD
 70
     0
  3

  4

  5

  6

  7

 40
1.0
 41
0.18
 42
0.0625
 43
0.38
 44
0.18
 45
0.0
 46
0.0
 47
0.0
 48
0.0
140
0.18
141
0.09
142
0.0
143
25.399999999999999
144
1.0
145
0.0
146
1.0
147
0.09
 71
     0
 72
     0
 73
     1
 74
     1
 75
     0
 76
     0
 77
     0
 78
     0
170
     0
171
     2
172
     0
173
     0
174
     0
175
     0
176
     0
177
     0
178
     0
  0
ENDTAB
  0
ENDSEC
  0
SECTION
  2
BLOCKS
  0
BLOCK
  8
0
  2
$MODEL_SPACE
 70
     0
 10
0.0
 20
0.0
 30
0.0
  3
$MODEL_SPACE
  1

  0
ENDBLK
  5
697
  8
0
  0
BLOCK
 67
     1
  8
0
  2
$PAPER_SPACE
 70
     0
 10
0.0
 20
0.0
 30
0.0
  3
$PAPER_SPACE
  1

  0
ENDBLK
  5
695
 67
     1
  8
0
  0
ENDSEC
  0
SECTION
  2
ENTITIES
  0
LINE
  5
40B
  8
0
 10
206.1150073974965
 20
114.7186466178415
 30
0.0
 11
206.1150073974965
 21
83.718646617840477
 31
0.0
  0
LINE
  5
40C
  8
0
 10
204.1150107011226
 20
115.71864661784009
 30
0.0
 11
203.8678435596496
 21
115.71864661784009
 31
0.0
  0
LINE
  5
40D
  8
0
 10
204.1150107011226
 20
82.718646617840065
 30
0.0
 11
203.8678435596496
 21
82.718646617840065
 31
0.0
  0
LINE
  5
40E
  8
1
 10
211.11500739749641
 20
99.218646617840065
 30
0.0
 11
127.1150073974964
 21
99.218646617840108
 31
0.0
  0
LINE
  5
40F
  8
0
 10
195.11500739749641
 20
108.21864661784009
 30
0.0
 11
195.11500739749641
 21
90.218646617840136
 31
0.0
  0
LINE
  5
410
  8
0
 10
195.11500739749641
 20
108.21864661784009
 30
0.0
 11
182.8150073974964
 21
108.21864661784009
 31
0.0
  0
LINE
  5
411
  8
0
 10
195.11500739749641
 20
90.218646617840065
 30
0.0
 11
182.8150073974964
 21
90.218646617840108
 31
0.0
  0
ARC
  5
417
  8
0
 10
204.11500739749781
 20
113.2186466178469
 30
0.0
 40
2.4999999999958362
 50
36.86989764571765
 51
89.999999999999986
  0
ARC
  5
418
  8
0
 10
204.11500739749781
 20
85.218646617833201
 30
0.0
 40
2.4999999999958362
 50
270.0
 51
323.13010235428231
  0
LINE
  5
419
  8
0
 10
203.8678435596496
 20
115.71864661784009
 30
0.0
 11
203.8678435596496
 21
82.718646617840022
 31
0.0
  0
LINE
  5
41A
  8
0
 10
142.11500739749641
 20
104.21864661783999
 30
0.0
 11
134.9150073974964
 21
104.21864661783999
 31
0.0
  0
LINE
  5
41B
  8
0
 10
142.1150073974963
 20
94.218646617840108
 30
0.0
 11
134.9150073974964
 21
94.218646617840108
 31
0.0
  0
LINE
  5
41C
  8
0
 10
134.9150073974964
 20
104.21864661783999
 30
0.0
 11
134.9150073974964
 21
94.218646617840108
 31
0.0
  0
LINE
  5
41D
  8
0
 10
142.11500739749621
 20
90.218646617840164
 30
0.0
 11
142.1150073974965
 21
108.21864661783999
 31
0.0
  0
LINE
  5
41E
  8
0
 10
170.11500739749641
 20
109.21864661783999
 30
0.0
 11
162.45251155985289
 21
109.21864661783999
 31
0.0
  0
LINE
  5
41F
  8
3
 10
167.1150073974965
 20
107.86564661784
 30
0.0
 11
162.45251155985289
 21
107.86564661784
 31
0.0
  0
LINE
  5
420
  8
3
 10
167.1150073974965
 20
90.571646617840116
 30
0.0
 11
162.45251155985309
 21
90.571646617840116
 31
0.0
  0
LINE
  5
421
  8
0
 10
170.11500739749641
 20
89.218646617840079
 30
0.0
 11
162.45251155985309
 21
89.218646617840093
 31
0.0
  0
LINE
  5
422
  8
0
 10
143.11500739749621
 20
89.218646617840164
 30
0.0
 11
142.11500739749621
 21
90.218646617840164
 31
0.0
  0
LINE
  5
423
  8
0
 10
142.1150073974965
 20
108.21864661783999
 30
0.0
 11
143.1150073974965
 21
109.21864661783999
 31
0.0
  0
LINE
  5
424
  8
0
 10
143.11500739749621
 20
89.218646617840164
 30
0.0
 11
143.11500739749621
 21
109.21864661783999
 31
0.0
  0
LINE
  5
430
  8
0
 10
134.9150073974964
 20
104.21864661783999
 30
0.0
 11
132.87407295540069
 21
103.04031256829769
 31
0.0
  0
LINE
  5
431
  8
0
 10
134.9150073974964
 20
94.218646617840108
 30
0.0
 11
132.87407295540069
 21
95.396980667382394
 31
0.0
  0
ARC
  5
46D
  8
0
 10
142.11500739749641
 20
99.218646617840079
 30
0.0
 40
10.0
 50
157.53204873306441
 51
202.46795126693621
  0
LINE
  5
46E
  8
0
 10
132.87407295540049
 20
103.04031256829759
 30
0.0
 11
132.87407295540061
 21
95.396980667382437
 31
0.0
  0
CIRCLE
  5
486
  8
0
 10
276.08937251936447
 20
99.218646617840079
 30
0.0
 40
16.5
  0
LINE
  5
487
  8
1
 10
297.58937251936447
 20
99.218646617840079
 30
0.0
 11
254.5893725193645
 21
99.218646617840079
 31
0.0
  0
LINE
  5
488
  8
1
 10
276.08937251936447
 20
120.71864661784009
 30
0.0
 11
276.08937251936447
 21
77.718646617840065
 31
0.0
  0
LINE
  5
490
  8
1
 10
69.201431710224142
 20
120.71864661784009
 30
0.0
 11
69.201431710224142
 21
77.718646617840065
 31
0.0
  0
ARC
  5
491
  8
0
 10
69.201431710224142
 20
99.218646617840079
 30
0.0
 40
16.5
 50
215.38002267134311
 51
264.619977328657
  0
LINE
  5
492
  8
1
 10
90.701431710224128
 20
99.218646617840079
 30
0.0
 11
47.701431710224142
 21
99.218646617840079
 31
0.0
  0
CIRCLE
  5
49B
  8
3
 10
69.201431710224142
 20
99.218646617840079
 30
0.0
 40
8.6470000000000002
  0
CIRCLE
  5
49C
  8
0
 10
69.201431710224142
 20
99.218646617840079
 30
0.0
 40
10.0
  0
CIRCLE
  5
49D
  8
0
 10
69.201431710224142
 20
99.218646617840079
 30
0.0
 40
5.0
  0
CIRCLE
  5
49E
  8
3
 10
69.201431710224142
 20
99.218646617840079
 30
0.0
 40
8.6469999999999985
  0
CIRCLE
  5
49F
  8
0
 10
69.201431710224142
 20
99.218646617840079
 30
0.0
 40
3.821665950457557
  0
LINE
  5
4A8
  8
0
 10
167.1150073974965
 20
109.21864661783999
 30
0.0
 11
167.1150073974965
 21
89.218646617840136
 31
0.0
  0
LINE
  5
4A9
  8
3
 10
167.1150073974965
 20
107.86564661784
 30
0.0
 11
169.45847214013719
 21
109.21864661783999
 31
0.0
  0
LINE
  5
4AA
  8
3
 10
167.1150073974965
 20
90.571646617840173
 30
0.0
 11
169.45847214013719
 21
89.218646617840179
 31
0.0
  0
LINE
  5
507
  8
0
 10
195.11500739749641
 20
155.46422607125419
 30
0.0
 11
182.8150073974964
 21
155.46422607125419
 31
0.0
  0
LINE
  5
508
  8
0
 10
195.11500739749641
 20
173.46422607125419
 30
0.0
 11
182.8150073974964
 21
173.46422607125419
 31
0.0
  0
LINE
  5
509
  8
1
 10
211.11500739749641
 20
164.46422607125419
 30
0.0
 11
127.1150073974964
 21
164.46422607125419
 31
0.0
  0
ARC
  5
50A
  8
0
 10
165.94038249548581
 20
169.96422607125061
 30
0.0
 40
15.88594976741253
 50
339.74384199968461
 51
20.256158000339941
  0
LINE
  5
50B
  8
0
 10
182.8150073974964
 20
155.46422607125419
 30
0.0
 11
182.8150073974964
 21
173.46422607125419
 31
0.0
  0
LINE
  5
50C
  8
0
 10
167.1150073974965
 20
154.4642260712543
 30
0.0
 11
167.1150073974965
 21
174.46422607125419
 31
0.0
  0
LINE
  5
50D
  8
0
 10
182.1150073974965
 20
153.9642260712545
 30
0.0
 11
182.11500739749621
 21
174.9642260712547
 31
0.0
  0
LINE
  5
50E
  8
0
 10
170.1150073974965
 20
153.46422607125419
 30
0.0
 11
170.1150073974963
 21
175.46422607125419
 31
0.0
  0
LINE
  5
50F
  8
0
 10
132.87407295540049
 20
160.64256012079659
 30
0.0
 11
132.87407295540061
 21
168.28589202171179
 31
0.0
  0
ARC
  5
510
  8
0
 10
142.11500739749641
 20
164.46422607125419
 30
0.0
 40
10.0
 50
157.5320487330641
 51
202.4679512669353
  0
LINE
  5
511
  8
0
 10
134.9150073974964
 20
159.4642260712543
 30
0.0
 11
134.9150073974964
 21
169.46422607125419
 31
0.0
  0
LINE
  5
512
  8
0
 10
142.11500739749621
 20
173.4642260712541
 30
0.0
 11
142.1150073974965
 21
155.46422607125419
 31
0.0
  0
LINE
  5
513
  8
0
 10
143.11500739749621
 20
174.4642260712541
 30
0.0
 11
143.11500739749621
 21
154.46422607125419
 31
0.0
  0
LINE
  5
514
  8
3
 10
167.1150073974965
 20
173.11122607125421
 30
0.0
 11
162.4525115598521
 21
173.11122607125421
 31
0.0
  0
LINE
  5
515
  8
0
 10
170.11500739749641
 20
174.46422607125419
 30
0.0
 11
162.4525115598521
 21
174.46422607125419
 31
0.0
  0
LINE
  5
516
  8
0
 10
142.1150073974963
 20
169.46422607125419
 30
0.0
 11
134.9150073974964
 21
169.46422607125419
 31
0.0
  0
LINE
  5
517
  8
0
 10
134.9150073974964
 20
169.46422607125419
 30
0.0
 11
132.87407295540069
 21
168.2858920217119
 31
0.0
  0
LINE
  5
518
  8
0
 10
143.11500739749621
 20
174.4642260712541
 30
0.0
 11
142.11500739749621
 21
173.4642260712541
 31
0.0
  0
LINE
  5
519
  8
0
 10
181.8263322629015
 20
175.46422607125419
 30
0.0
 11
170.1150073974963
 21
175.46422607125419
 31
0.0
  0
LINE
  5
51A
  8
3
 10
167.1150073974965
 20
173.11122607125409
 30
0.0
 11
169.45847214013719
 21
174.4642260712541
 31
0.0
  0
LINE
  5
51B
  8
0
 10
182.8150073974964
 20
173.46422607125419
 30
0.0
 11
182.11500739749641
 21
172.7642260712542
 31
0.0
  0
LINE
  5
51C
  8
0
 10
182.11500739749621
 20
174.9642260712545
 30
0.0
 11
181.8263322629017
 21
175.46422607125399
 31
0.0
  0
LINE
  5
51D
  8
0
 10
170.11500739749641
 20
154.4642260712543
 30
0.0
 11
162.4525115598523
 21
154.4642260712543
 31
0.0
  0
LINE
  5
51E
  8
3
 10
167.1150073974965
 20
155.81722607125431
 30
0.0
 11
162.4525115598523
 21
155.81722607125431
 31
0.0
  0
LINE
  5
51F
  8
0
 10
142.11500739749641
 20
159.4642260712543
 30
0.0
 11
134.9150073974964
 21
159.4642260712543
 31
0.0
  0
LINE
  5
520
  8
0
 10
134.9150073974964
 20
159.4642260712543
 30
0.0
 11
132.87407295540069
 21
160.64256012079659
 31
0.0
  0
LINE
  5
521
  8
0
 10
142.1150073974965
 20
155.46422607125419
 30
0.0
 11
143.1150073974965
 21
154.46422607125419
 31
0.0
  0
LINE
  5
522
  8
0
 10
181.8263322629015
 20
153.46422607125419
 30
0.0
 11
170.1150073974965
 21
153.46422607125419
 31
0.0
  0
LINE
  5
523
  8
0
 10
180.84385189065659
 20
164.46422607125419
 30
0.0
 11
170.11500739749641
 21
164.46422607125419
 31
0.0
  0
LINE
  5
524
  8
3
 10
167.1150073974965
 20
155.81722607125431
 30
0.0
 11
169.45847214013719
 21
154.4642260712543
 31
0.0
  0
ARC
  5
525
  8
0
 10
165.94038249548581
 20
158.96422607125791
 30
0.0
 40
15.88594976741253
 50
339.74384199965999
 51
20.256158000315359
  0
LINE
  5
526
  8
0
 10
182.11500739749641
 20
156.16422607125421
 30
0.0
 11
182.8150073974964
 21
155.46422607125419
 31
0.0
  0
LINE
  5
527
  8
0
 10
182.11500739749621
 20
153.96422607125399
 30
0.0
 11
181.8263322629017
 21
153.46422607125439
 31
0.0
  0
LINE
  5
529
  8
0
 10
195.11500739749641
 20
155.46422607125419
 30
0.0
 11
195.11500739749641
 21
173.4642260712541
 31
0.0
  0
LINE
  5
52A
  8
0
 10
203.8678435596496
 20
147.9642260712541
 30
0.0
 11
203.8678435596496
 21
180.9642260712543
 31
0.0
  0
LINE
  5
52B
  8
0
 10
206.1150073974965
 20
148.9642260712528
 30
0.0
 11
206.1150073974965
 21
179.96422607125379
 31
0.0
  0
ARC
  5
52F
  8
0
 10
204.11500739749781
 20
178.46422607126109
 30
0.0
 40
2.4999999999958362
 50
36.869897645717657
 51
90.0
  0
LINE
  5
530
  8
0
 10
204.1150107011226
 20
180.96422607125419
 30
0.0
 11
203.8678435596496
 21
180.96422607125419
 31
0.0
  0
ARC
  5
539
  8
0
 10
204.11500739749781
 20
150.46422607124731
 30
0.0
 40
2.4999999999958362
 50
270.0
 51
323.13010235428231
  0
LINE
  5
53A
  8
0
 10
204.1150107011226
 20
147.96422607125419
 30
0.0
 11
203.8678435596496
 21
147.96422607125419
 31
0.0
  0
LINE
  5
60F
  8
0
 10
195.11500739749641
 20
173.4642260712541
 30
0.0
 11
203.8678435596496
 21
180.9642260712543
 31
0.0
  0
LINE
  5
610
  8
0
 10
195.11500739749641
 20
155.46422607125419
 30
0.0
 11
203.8678435596496
 21
147.9642260712541
 31
0.0
  0
LINE
  5
612
  8
0
 10
203.8678435596496
 20
115.71864661784009
 30
0.0
 11
195.11500739749641
 21
108.21864661784009
 31
0.0
  0
LINE
  5
613
  8
0
 10
195.11500739749641
 20
90.218646617840065
 30
0.0
 11
203.8678435596496
 21
82.718646617840022
 31
0.0
  0
LINE
  5
751
  8
0
 10
162.45251155985281
 20
113.71864661784031
 30
0.0
 11
162.45251155985321
 21
84.718646617839823
 31
0.0
  0
LINE
  5
752
  8
0
 10
152.4525115598754
 20
84.718646617839823
 30
0.0
 11
152.45251155987589
 21
113.71864661784051
 31
0.0
  0
LINE
  5
753
  8
0
 10
152.4525115598756
 20
113.71864661783979
 30
0.0
 11
154.08093265662589
 21
116.5391546935284
 31
0.0
  0
ARC
  5
754
  8
0
 10
160.40865493974681
 20
112.20902767460601
 30
0.0
 40
7.6674682452751783
 50
154.38424747045369
 51
214.3842474680107
  0
ARC
  5
755
  8
0
 10
160.40865493974681
 20
112.20902767460601
 30
0.0
 40
7.6674682452751783
 50
145.61575253198481
 51
145.61575253198831
  0
ARC
  5
756
  8
0
 10
154.496368179982
 20
112.20902767460601
 30
0.0
 40
7.6674682452751783
 50
34.384247468011367
 51
34.38424746801514
  0
ARC
  5
757
  8
0
 10
154.496368179982
 20
112.20902767460601
 30
0.0
 40
7.6674682452751783
 50
325.6157525319893
 51
25.61575252954631
  0
LINE
  5
758
  8
0
 10
162.45251155985329
 20
113.71864661783979
 30
0.0
 11
160.82409046310289
 21
116.5391546935284
 31
0.0
  0
LINE
  5
759
  8
0
 10
154.08093265662589
 20
116.5391546935282
 30
0.0
 11
160.8240904629391
 21
116.53915469381189
 31
0.0
  0
LINE
  5
75A
  8
0
 10
160.8240904630795
 20
107.87890065568401
 30
0.0
 11
154.08093265662589
 21
107.8789006555301
 31
0.0
  0
ARC
  5
75B
  8
0
 10
133.50358238786461
 20
99.218646617913265
 30
0.0
 40
28.6602540373928
 50
342.4120462255658
 51
17.587953774125889
  0
LINE
  5
75C
  8
0
 10
160.8240904630795
 20
90.558392579995626
 30
0.0
 11
154.08093265662589
 21
90.558392580149544
 31
0.0
  0
LINE
  5
75D
  8
0
 10
154.08093265662589
 20
81.898138542151429
 30
0.0
 11
160.8240904629391
 21
81.898138541867667
 31
0.0
  0
LINE
  5
75E
  8
0
 10
162.45251155985329
 20
84.718646617839823
 30
0.0
 11
160.82409046310289
 21
81.898138542151202
 31
0.0
  0
ARC
  5
75F
  8
0
 10
154.496368179982
 20
86.228265561073641
 30
0.0
 40
7.6674682452751783
 50
334.38424747045372
 51
34.384247468010692
  0
ARC
  5
760
  8
0
 10
154.496368179982
 20
86.228265561073641
 30
0.0
 40
7.6674682452751783
 50
325.61575253198492
 51
325.61575253198839
  0
ARC
  5
761
  8
0
 10
181.40144073186411
 20
99.218646617913265
 30
0.0
 40
28.6602540373928
 50
162.41204622587409
 51
197.5879537744342
  0
ARC
  5
762
  8
0
 10
160.40865493974681
 20
86.228265561073641
 30
0.0
 40
7.6674682452751783
 50
214.38424746801141
 51
214.3842474680151
  0
ARC
  5
763
  8
0
 10
160.40865493974681
 20
86.228265561073641
 30
0.0
 40
7.6674682452751783
 50
145.6157525319893
 51
205.61575252954631
  0
LINE
  5
764
  8
0
 10
152.4525115598756
 20
84.718646617839823
 30
0.0
 11
154.08093265662589
 21
81.898138542151202
 31
0.0
  0
CIRCLE
  5
765
  8
0
 10
69.201431710224142
 20
99.218646617840079
 30
0.0
 40
14.5
  0
LINE
  5
766
  8
0
 10
69.201431710224369
 20
116.5391546935287
 30
0.0
 11
54.201431710224142
 21
107.8789006556843
 31
0.0
  0
LINE
  5
767
  8
0
 10
84.201431710224156
 20
107.87890065568421
 30
0.0
 11
69.201431710224369
 21
116.5391546935287
 31
0.0
  0
LINE
  5
768
  8
0
 10
84.201431710224156
 20
90.558392579995825
 30
0.0
 11
84.201431710224156
 21
107.87890065568421
 31
0.0
  0
LINE
  5
769
  8
0
 10
69.201431710224142
 20
81.898138542151287
 30
0.0
 11
84.201431710224156
 21
90.558392579995825
 31
0.0
  0
LINE
  5
76A
  8
0
 10
54.201431710224142
 20
90.558392579995655
 30
0.0
 11
69.201431710224142
 21
81.898138542151287
 31
0.0
  0
LINE
  5
76B
  8
0
 10
54.201431710224142
 20
107.8789006556843
 30
0.0
 11
54.201431710224142
 21
90.558392579995655
 31
0.0
  0
ARC
  5
76C
  8
0
 10
174.40384546813911
 20
171.96422607125419
 30
0.0
 40
21.662658773668529
 50
159.74384199959891
 51
200.2561580004014
  0
ARC
  5
76D
  8
0
 10
140.50117765158919
 20
171.96422607125419
 30
0.0
 40
21.662658773668529
 50
339.7438419995986
 51
20.256158000401101
  0
LINE
  5
76E
  8
0
 10
152.45251155987521
 20
178.96422607125419
 30
0.0
 11
152.45251155987521
 21
149.96422607125581
 31
0.0
  0
LINE
  5
76F
  8
0
 10
162.45251155985321
 20
149.96422607125581
 30
0.0
 11
162.45251155985321
 21
178.9642260712526
 31
0.0
  0
LINE
  5
770
  8
0
 10
162.16383642525761
 20
179.46422607125419
 30
0.0
 11
152.74118669447071
 21
179.46422607125399
 31
0.0
  0
LINE
  5
771
  8
0
 10
152.45251155987521
 20
178.9642260712526
 30
0.0
 11
152.7411866944708
 21
179.46422607125399
 31
0.0
  0
LINE
  5
772
  8
0
 10
162.45251155985321
 20
178.9642260712526
 30
0.0
 11
162.16383642525761
 21
179.46422607125399
 31
0.0
  0
ARC
  5
773
  8
0
 10
174.40384546813911
 20
156.96422607125419
 30
0.0
 40
21.662658773668529
 50
159.7438419995986
 51
200.256158000401
  0
ARC
  5
774
  8
0
 10
140.50117765158919
 20
156.96422607125419
 30
0.0
 40
21.662658773668529
 50
339.74384199959889
 51
20.256158000401381
  0
LINE
  5
775
  8
0
 10
160.82409046310309
 20
164.46422607125419
 30
0.0
 11
154.08093265662049
 21
164.46422607125419
 31
0.0
  0
LINE
  5
776
  8
0
 10
162.16383642525761
 20
149.46422607125419
 30
0.0
 11
152.74118669447071
 21
149.46422607125439
 31
0.0
  0
LINE
  5
777
  8
0
 10
152.45251155987521
 20
149.96422607125581
 30
0.0
 11
152.7411866944708
 21
149.46422607125439
 31
0.0
  0
LINE
  5
778
  8
0
 10
162.45251155985321
 20
149.96422607125581
 30
0.0
 11
162.16383642525761
 21
149.46422607125439
 31
0.0
  0
LINE
  5
7A1
  8
0
 10
152.4525115598758
 20
109.21864661783999
 30
0.0
 11
143.1150073974965
 21
109.21864661783999
 31
0.0
  0
LINE
  5
7A2
  8
3
 10
152.4525115598758
 20
107.86564661784
 30
0.0
 11
142.1150073974965
 21
107.86564661784
 31
0.0
  0
LINE
  5
7A3
  8
3
 10
152.4525115598756
 20
90.571646617840116
 30
0.0
 11
142.11500739749621
 21
90.571646617840116
 31
0.0
  0
LINE
  5
7A4
  8
0
 10
152.45251155987549
 20
89.218646617840108
 30
0.0
 11
143.11500739749621
 21
89.218646617840164
 31
0.0
  0
LINE
  5
7A5
  8
3
 10
152.4525115598766
 20
155.81722607125431
 30
0.0
 11
142.1150073974965
 21
155.81722607125431
 31
0.0
  0
LINE
  5
7A6
  8
0
 10
152.45251155987651
 20
154.4642260712543
 30
0.0
 11
143.1150073974965
 21
154.46422607125419
 31
0.0
  0
LINE
  5
7A7
  8
3
 10
152.45251155987691
 20
173.11122607125421
 30
0.0
 11
142.11500739749621
 21
173.11122607125421
 31
0.0
  0
LINE
  5
7A8
  8
0
 10
152.4525115598768
 20
174.4642260712541
 30
0.0
 11
143.11500739749621
 21
174.4642260712541
 31
0.0
  0
LINE
  5
7A9
  8
2
 10
58.201431710224142
 20
92.867793656754088
 30
0.0
 11
69.201431710224142
 21
86.516940695668268
 31
0.0
  0
LINE
  5
7AA
  8
2
 10
69.201431710224142
 20
86.516940695668268
 30
0.0
 11
80.201431710224142
 21
92.867793656754088
 31
0.0
  0
LINE
  5
7AB
  8
2
 10
80.201431710224142
 20
92.867793656754088
 30
0.0
 11
80.201431710224142
 21
105.5694995789259
 31
0.0
  0
LINE
  5
7AC
  8
2
 10
80.201431710224142
 20
105.5694995789259
 30
0.0
 11
69.201431710224142
 21
111.92035254001181
 31
0.0
  0
LINE
  5
7AD
  8
2
 10
69.201431710224142
 20
111.92035254001181
 30
0.0
 11
58.201431710224142
 21
105.5694995789259
 31
0.0
  0
LINE
  5
7AE
  8
2
 10
58.201431710224142
 20
105.5694995789259
 30
0.0
 11
58.201431710224142
 21
92.867793656754088
 31
0.0
  0
ARC
  5
7AF
  8
0
 10
69.201431710224142
 20
99.218646617840079
 30
0.0
 40
16.5
 50
155.3800226713428
 51
204.61997732865709
  0
ARC
  5
7B0
  8
0
 10
69.201431710224142
 20
99.218646617840079
 30
0.0
 40
16.5
 50
95.380022671341266
 51
144.61997732865811
  0
ARC
  5
7B1
  8
0
 10
69.201431710224142
 20
99.218646617840079
 30
0.0
 40
16.5
 50
35.380022671341337
 51
84.619977328657086
  0
ARC
  5
7B2
  8
0
 10
69.201431710224142
 20
99.218646617840079
 30
0.0
 40
16.5
 50
335.38002267134289
 51
24.619977328657079
  0
ARC
  5
7B3
  8
0
 10
69.201431710224142
 20
99.218646617840079
 30
0.0
 40
16.5
 50
275.38002267134277
 51
324.61997732865802
  0
LINE
  5
7B4
  8
0
 10
291.08937251936447
 20
107.87890065568421
 30
0.0
 11
289.54231296926019
 21
108.7720959033894
 31
0.0
  0
LINE
  5
7B5
  8
0
 10
291.08937251936447
 20
90.558392579995825
 30
0.0
 11
291.08937251936447
 21
92.344783075406383
 31
0.0
  0
LINE
  5
7B6
  8
0
 10
276.08937251936447
 20
81.898138542151287
 30
0.0
 11
277.63643206946921
 21
82.791333789856623
 31
0.0
  0
LINE
  5
7B7
  8
0
 10
261.08937251936447
 20
107.8789006556843
 30
0.0
 11
261.08937251936447
 21
106.0925101602738
 31
0.0
  0
LINE
  5
7B8
  8
0
 10
261.08937251936447
 20
90.558392579995655
 30
0.0
 11
262.63643206946932
 21
89.665197332290276
 31
0.0
  0
LINE
  5
7B9
  8
0
 10
276.08937251936482
 20
116.5391546935287
 30
0.0
 11
274.54231296926031
 21
115.64595944582361
 31
0.0
  0
LINE
  5
7BA
  8
0
 10
277.63643206946921
 20
115.64595944582349
 30
0.0
 11
276.08937251936482
 21
116.5391546935287
 31
0.0
  0
LINE
  5
7BB
  8
0
 10
262.63643206946898
 20
108.7720959033895
 30
0.0
 11
261.08937251936447
 21
107.8789006556843
 31
0.0
  0
LINE
  5
7BC
  8
0
 10
261.08937251936447
 20
92.344783075406298
 30
0.0
 11
261.08937251936447
 21
90.558392579995655
 31
0.0
  0
LINE
  5
7BD
  8
0
 10
274.54231296925968
 20
82.791333789856623
 30
0.0
 11
276.08937251936447
 21
81.898138542151287
 31
0.0
  0
LINE
  5
7BE
  8
0
 10
289.54231296926002
 20
89.665197332290589
 30
0.0
 11
291.08937251936447
 21
90.558392579995825
 31
0.0
  0
LINE
  5
7BF
  8
0
 10
291.08937251936447
 20
106.0925101602737
 30
0.0
 11
291.08937251936447
 21
107.87890065568421
 31
0.0
  0
LINE
  5
834
  8
0
 10
182.81500739749629
 20
90.218646617840108
 30
0.0
 11
182.1150073974963
 21
90.918646617840096
 31
0.0
  0
LINE
  5
835
  8
0
 10
182.1150073974963
 20
107.5186466178401
 30
0.0
 11
182.81500739749629
 21
108.21864661784009
 31
0.0
  0
LINE
  5
836
  8
0
 10
182.81500739749629
 20
108.21864661784009
 30
0.0
 11
182.81500739749629
 21
101.21864661784009
 31
0.0
  0
LINE
  5
837
  8
0
 10
170.11500739749641
 20
111.9203525400119
 30
0.0
 11
170.11500739749641
 21
86.516940695668296
 31
0.0
  0
LINE
  5
838
  8
0
 10
182.11500739749641
 20
109.71864661783999
 30
0.0
 11
182.11500739749641
 21
101.46864661783999
 31
0.0
  0
LINE
  5
839
  8
0
 10
180.84385189065429
 20
86.516940695668424
 30
0.0
 11
170.11500739749641
 21
86.516940695668296
 31
0.0
  0
LINE
  5
83A
  8
0
 10
180.84385189068391
 20
92.867793656754372
 30
0.0
 11
170.11500739749641
 21
92.867793656754372
 31
0.0
  0
LINE
  5
83B
  8
0
 10
182.11500739749641
 20
88.718646617840207
 30
0.0
 11
180.84385189065421
 21
86.516940695668339
 31
0.0
  0
ARC
  5
83C
  8
0
 10
176.20352221640539
 20
89.692367176203419
 30
0.0
 40
5.6228100464977411
 50
334.38424746417729
 51
34.384247468309937
  0
ARC
  5
83D
  8
0
 10
160.8088126349233
 20
99.218646617786646
 30
0.0
 40
21.01751962797988
 50
342.41204622608859
 51
353.8545069373688
  0
ARC
  5
83E
  8
0
 10
176.20352221640539
 20
108.7449260594767
 30
0.0
 40
5.6228100464977411
 50
325.61575253169008
 51
25.615752535822619
  0
LINE
  5
83F
  8
0
 10
182.11500739749641
 20
109.71864661783989
 30
0.0
 11
180.84385189065421
 21
111.92035254001181
 31
0.0
  0
LINE
  5
840
  8
0
 10
180.84385189064329
 20
105.5694995789258
 30
0.0
 11
170.11500739749641
 21
105.5694995789258
 31
0.0
  0
LINE
  5
841
  8
0
 10
180.84385189065429
 20
111.92035254001181
 30
0.0
 11
170.11500739749641
 21
111.9203525400119
 31
0.0
  0
LINE
  5
842
  8
0
 10
171.9150073974964
 20
100.96864661784009
 30
0.0
 11
171.9150073974964
 21
97.468646617840093
 31
0.0
  0
LINE
  5
843
  8
0
 10
182.81500739749629
 20
101.21864661784009
 30
0.0
 11
172.41500739749651
 21
101.21864661784009
 31
0.0
  0
LINE
  5
844
  8
0
 10
182.81500739749629
 20
97.218646617840079
 30
0.0
 11
172.41500739749651
 21
97.218646617840136
 31
0.0
  0
LINE
  5
845
  8
0
 10
182.1150073974965
 20
96.968646617840079
 30
0.0
 11
182.11500739749641
 21
88.718646617840776
 31
0.0
  0
LINE
  5
846
  8
0
 10
182.81500739749629
 20
97.218646617840079
 30
0.0
 11
182.81500739749629
 21
90.218646617840108
 31
0.0
  0
ARC
  5
847
  8
0
 10
160.8088126349233
 20
99.218646617786646
 30
0.0
 40
21.01751962797988
 50
6.1454930629245368
 51
17.58795377394539
  0
LINE
  5
848
  8
0
 10
172.41500739749651
 20
101.21864661784009
 30
0.0
 11
171.9150073974964
 21
100.71864661784009
 31
0.0
  0
LINE
  5
849
  8
0
 10
171.9150073974964
 20
97.71864661784015
 30
0.0
 11
172.41500739749651
 21
97.218646617840136
 31
0.0
  0
LINE
  5
84A
  8
0
 10
182.11500739749641
 20
101.46864661783999
 30
0.0
 11
172.41500739749651
 21
101.46864661783999
 31
0.0
  0
LINE
  5
84B
  8
0
 10
182.11500739749641
 20
96.968646617840079
 30
0.0
 11
172.41500739749651
 21
96.968646617840079
 31
0.0
  0
LINE
  5
84C
  8
0
 10
172.41500739749651
 20
101.46864661783999
 30
0.0
 11
171.9150073974964
 21
100.96864661784009
 31
0.0
  0
LINE
  5
84D
  8
0
 10
171.9150073974964
 20
97.468646617840093
 30
0.0
 11
172.41500739749651
 21
96.968646617840079
 31
0.0
  0
TEXT
  5
8F9
  8
0
 62
     3
 10
0.0
 20
0.0
 30
0.0
 40
5.0
  1
NDXN20LW-SUS
  7
STANDARD1
  0
ENDSEC
  0
EOF
