  0
SECTION
  2
HEADER
  9
$ACADVER
  1
AC1009
  9
$INSBASE
 10
0.0
 20
0.0
 30
0.0
  9
$EXTMIN
 10
0.0
 20
-1.4802182810368341
 30
0.0
  9
$EXTMAX
 10
280.7724338673915
 20
182.39676704636119
 30
0.0
  9
$LIMMIN
 10
0.0
 20
0.0
  9
$LIMMAX
 10
385.0
 20
270.0
  9
$ORTHOMODE
 70
     1
  9
$REGENMODE
 70
     1
  9
$FILLMODE
 70
     1
  9
$QTEXTMODE
 70
     0
  9
$MIRRTEXT
 70
     0
  9
$DRAGMODE
 70
     2
  9
$LTSCALE
 40
10.0
  9
$OSMODE
 70
  3071
  9
$ATTMODE
 70
     1
  9
$TEXTSIZE
 40
4.000000000000048
  9
$TRACEWID
 40
0.05
  9
$TEXTSTYLE
  7
STANDARD
  9
$CLAYER
  8
0
  9
$CELTYPE
  6
BYLAYER
  9
$CECOLOR
 62
   256
  9
$DIMSCALE
 40
1.0
  9
$DIMASZ
 40
3.0
  9
$DIMEXO
 40
2.0
  9
$DIMDLI
 40
0.38
  9
$DIMRND
 40
0.0
  9
$DIMDLE
 40
0.0
  9
$DIMEXE
 40
2.0
  9
$DIMTP
 40
0.0
  9
$DIMTM
 40
0.0
  9
$DIMTXT
 40
3.0
  9
$DIMCEN
 40
0.0
  9
$DIMTSZ
 40
0.0
  9
$DIMTOL
 70
     0
  9
$DIMLIM
 70
     0
  9
$DIMTIH
 70
     0
  9
$DIMTOH
 70
     0
  9
$DIMSE1
 70
     0
  9
$DIMSE2
 70
     0
  9
$DIMTAD
 70
     1
  9
$DIMZIN
 70
     0
  9
$DIMBLK
  1

  9
$DIMASO
 70
     0
  9
$DIMSHO
 70
     0
  9
$DIMPOST
  1

  9
$DIMAPOST
  1

  9
$DIMALT
 70
     0
  9
$DIMALTD
 70
     2
  9
$DIMALTF
 40
25.399999999999999
  9
$DIMLFAC
 40
1.0
  9
$DIMTOFL
 70
     1
  9
$DIMTVP
 40
1.6000000000000001
  9
$DIMTIX
 70
     1
  9
$DIMSOXD
 70
     0
  9
$DIMSAH
 70
     0
  9
$DIMBLK1
  1

  9
$DIMBLK2
  1

  9
$DIMSTYLE
  2
STANDARD
  9
$DIMCLRD
 70
     0
  9
$DIMCLRE
 70
     0
  9
$DIMCLRT
 70
     0
  9
$DIMTFAC
 40
1.0
  9
$DIMGAP
 40
1.0
  9
$LUNITS
 70
     2
  9
$LUPREC
 70
     4
  9
$SKETCHINC
 40
0.1
  9
$FILLETRAD
 40
0.0
  9
$AUNITS
 70
     0
  9
$AUPREC
 70
     4
  9
$MENU
  1
E:\r13\win\SUPPORT\ACAD
  9
$ELEVATION
 40
0.0
  9
$PELEVATION
 40
0.0
  9
$THICKNESS
 40
0.0
  9
$LIMCHECK
 70
     0
  9
$BLIPMODE
 70
     0
  9
$CHAMFERA
 40
0.0
  9
$CHAMFERB
 40
0.0
  9
$SKPOLY
 70
     0
  9
$TDCREATE
 40
2450280.598206134
  9
$TDUPDATE
 40
2456597.6888970491
  9
$TDINDWG
 40
0.0533993634
  9
$TDUSRTIMER
 40
0.0533993634
  9
$USRTIMER
 70
     1
  9
$ANGBASE
 50
0.0
  9
$ANGDIR
 70
     0
  9
$PDMODE
 70
     0
  9
$PDSIZE
 40
0.0
  9
$PLINEWID
 40
0.0
  9
$COORDS
 70
     1
  9
$SPLFRAME
 70
     0
  9
$SPLINETYPE
 70
     6
  9
$SPLINESEGS
 70
     8
  9
$ATTDIA
 70
     0
  9
$ATTREQ
 70
     1
  9
$HANDLING
 70
     1
  9
$HANDSEED
  5
6FA
  9
$SURFTAB1
 70
     6
  9
$SURFTAB2
 70
     6
  9
$SURFTYPE
 70
     6
  9
$SURFU
 70
     6
  9
$SURFV
 70
     6
  9
$UCSNAME
  2

  9
$UCSORG
 10
0.0
 20
0.0
 30
0.0
  9
$UCSXDIR
 10
1.0
 20
0.0
 30
0.0
  9
$UCSYDIR
 10
0.0
 20
1.0
 30
0.0
  9
$PUCSNAME
  2

  9
$PUCSORG
 10
0.0
 20
0.0
 30
0.0
  9
$PUCSXDIR
 10
1.0
 20
0.0
 30
0.0
  9
$PUCSYDIR
 10
0.0
 20
1.0
 30
0.0
  9
$USERI1
 70
     3
  9
$USERI2
 70
     1
  9
$USERI3
 70
     0
  9
$USERI4
 70
     0
  9
$USERI5
 70
     0
  9
$USERR1
 40
1.0
  9
$USERR2
 40
3.0
  9
$USERR3
 40
3.0
  9
$USERR4
 40
3.0
  9
$USERR5
 40
10.0
  9
$WORLDVIEW
 70
     1
  9
$SHADEDGE
 70
     3
  9
$SHADEDIF
 70
    70
  9
$TILEMODE
 70
     1
  9
$MAXACTVP
 70
    16
  9
$PLIMCHECK
 70
     0
  9
$PEXTMIN
 10
1.0000000000000000E+020
 20
1.0000000000000000E+020
 30
1.0000000000000000E+020
  9
$PEXTMAX
 10
-1.0000000000000000E+020
 20
-1.0000000000000000E+020
 30
-1.0000000000000000E+020
  9
$PLIMMIN
 10
0.0
 20
0.0
  9
$PLIMMAX
 10
12.0
 20
9.0
  9
$UNITMODE
 70
     0
  9
$VISRETAIN
 70
     0
  9
$PLINEGEN
 70
     0
  9
$PSLTSCALE
 70
     0
  0
ENDSEC
  0
SECTION
  2
TABLES
  0
TABLE
  2
VPORT
 70
     1
  0
VPORT
  2
*ACTIVE
 70
     0
 10
0.0
 20
0.0
 11
1.0
 21
1.0
 12
192.49412581440311
 22
134.84202934784381
 13
0.0
 23
0.0
 14
5.0
 24
5.0
 15
10.0
 25
10.0
 16
0.0
 26
0.0
 36
1.0
 17
0.0
 27
0.0
 37
0.0
 40
275.78743625673241
 41
2.304913294797688
 42
50.0
 43
0.0
 44
0.0
 50
0.0
 51
0.0
 71
     0
 72
   500
 73
     1
 74
     0
 75
     0
 76
     0
 77
     0
 78
     2
  0
ENDTAB
  0
TABLE
  2
LTYPE
 70
     3
  0
LTYPE
  2
CONTINUOUS
 70
     0
  3
Solid Line
 72
    65
 73
     0
 40
0.0
  0
LTYPE
  2
CENTER
 70
     0
  3
____ _ ____ _ ____ _ ____ _ ____ _ ____ _ ____
 72
    65
 73
     4
 40
2.0
 49
1.25
 49
-0.25
 49
0.25
 49
-0.25
  0
LTYPE
  2
PHANTOM2
 70
     0
  3
___ _ _ ___ _ _ ___ _ _ ___ _ _
 72
    65
 73
     6
 40
1.25
 49
0.625
 49
-0.125
 49
0.125
 49
-0.125
 49
0.125
 49
-0.125
  0
ENDTAB
  0
TABLE
  2
LAYER
 70
     3
  0
LAYER
  2
0
 70
     0
 62
     7
  6
CONTINUOUS
  0
LAYER
  2
1
 70
     0
 62
     1
  6
CENTER
  0
LAYER
  2
3
 70
     0
 62
     3
  6
CONTINUOUS
  0
ENDTAB
  0
TABLE
  2
STYLE
 70
     2
  0
STYLE
  2
STANDARD
 70
     0
 40
0.0
 41
1.0
 50
0.0
 71
     0
 42
4.000000000000048
  3
SIMPLEX
  4
BIGFONT
  0
STYLE
  2
STANDARD1
 70
     0
 40
0.0
 41
1.0
 50
0.0
 71
     0
 42
3.0
  3
txt
  4

  0
ENDTAB
  0
TABLE
  2
VIEW
 70
     0
  0
ENDTAB
  0
TABLE
  2
UCS
 70
     0
  0
ENDTAB
  0
TABLE
  2
APPID
 70
     3
  0
APPID
  2
ACAD
 70
     0
  0
APPID
  2
ACAD_MLEADERVER
 70
     0
  0
APPID
  2
ACAD_NAV_VCDISPLAY
 70
     0
  0
ENDTAB
  0
TABLE
  2
DIMSTYLE
 70
     1
  0
DIMSTYLE
  2
STANDARD
 70
     0
  3

  4

  5

  6

  7

 40
1.0
 41
0.18
 42
0.0625
 43
0.38
 44
0.18
 45
0.0
 46
0.0
 47
0.0
 48
0.0
140
0.18
141
0.09
142
0.0
143
25.399999999999999
144
1.0
145
0.0
146
1.0
147
0.09
 71
     0
 72
     0
 73
     1
 74
     1
 75
     0
 76
     0
 77
     0
 78
     0
170
     0
171
     2
172
     0
173
     0
174
     0
175
     0
176
     0
177
     0
178
     0
  0
ENDTAB
  0
ENDSEC
  0
SECTION
  2
BLOCKS
  0
BLOCK
  8
0
  2
$MODEL_SPACE
 70
     0
 10
0.0
 20
0.0
 30
0.0
  3
$MODEL_SPACE
  1

  0
ENDBLK
  5
560
  8
0
  0
BLOCK
 67
     1
  8
0
  2
$PAPER_SPACE
 70
     0
 10
0.0
 20
0.0
 30
0.0
  3
$PAPER_SPACE
  1

  0
ENDBLK
  5
55E
 67
     1
  8
0
  0
ENDSEC
  0
SECTION
  2
ENTITIES
  0
LINE
  5
2D5
  8
0
 10
59.311943304594017
 20
86.166394384683088
 30
0.0
 11
68.811943304594024
 21
80.681566827380905
 31
0.0
  0
LINE
  5
2D6
  8
0
 10
68.811943304594024
 20
80.681566827380905
 30
0.0
 11
78.311943304593115
 21
86.166394384683088
 31
0.0
  0
LINE
  5
2D7
  8
0
 10
78.311943304593115
 20
86.166394384683088
 30
0.0
 11
78.311943304593115
 21
97.136049499287537
 31
0.0
  0
LINE
  5
2D8
  8
0
 10
78.311943304593115
 20
97.136049499287537
 30
0.0
 11
68.811943304593115
 21
102.6208770565861
 31
0.0
  0
LINE
  5
2D9
  8
0
 10
68.811943304593115
 20
102.6208770565861
 30
0.0
 11
59.311943304592198
 21
97.136049499283899
 31
0.0
  0
LINE
  5
2DA
  8
0
 10
59.311943304592198
 20
97.136049499283899
 30
0.0
 11
59.311943304594017
 21
86.166394384683088
 31
0.0
  0
CIRCLE
  5
2DC
  8
0
 10
68.811943304593001
 20
91.651221941983465
 30
0.0
 40
3.9999999999999849
  0
CIRCLE
  5
2DD
  8
3
 10
68.811943304593001
 20
91.651221941983465
 30
0.0
 40
7.187999999994573
  0
CIRCLE
  5
2DE
  8
0
 10
68.811943304593001
 20
91.651221941983465
 30
0.0
 40
7.9999999999515552
  0
LINE
  5
2DF
  8
1
 10
47.311943304593001
 20
91.651221941983465
 30
0.0
 11
90.311943304592845
 21
91.651221941983465
 31
0.0
  0
LINE
  5
2E0
  8
1
 10
68.811943304593115
 20
113.15122194198339
 30
0.0
 11
68.811943304593115
 21
70.151221941983636
 31
0.0
  0
CIRCLE
  5
2E1
  8
0
 10
68.811943304593001
 20
91.651221941983465
 30
0.0
 40
16.5
  0
CIRCLE
  5
2E8
  8
0
 10
259.27243386739173
 20
91.651221941983508
 30
0.0
 40
16.5
  0
LINE
  5
2E9
  8
1
 10
237.77243386739181
 20
91.651221941983636
 30
0.0
 11
280.7724338673915
 21
91.651221941983636
 31
0.0
  0
LINE
  5
2EA
  8
1
 10
259.27243386739173
 20
70.151221941983522
 30
0.0
 11
259.27243386739173
 21
113.15122194198329
 31
0.0
  0
ARC
  5
2F8
  8
0
 10
192.81194330459201
 20
105.6512219419904
 30
0.0
 40
2.4999999999958362
 50
36.869897645717657
 51
90.0
  0
ARC
  5
2F9
  8
0
 10
192.81194330459201
 20
77.651221941976644
 30
0.0
 40
2.4999999999958362
 50
270.0
 51
323.13010235428231
  0
LINE
  5
2FC
  8
0
 10
170.81194330459209
 20
82.151216547185697
 30
0.0
 11
170.81194330459201
 21
101.15122194198359
 31
0.0
  0
LINE
  5
2FD
  8
0
 10
169.96343753371389
 20
80.681566836313152
 30
0.0
 11
160.81194330459209
 21
80.681566836313152
 31
0.0
  0
LINE
  5
2FE
  8
0
 10
160.81194330459209
 20
86.166394389147214
 30
0.0
 11
169.96343753371389
 21
86.166394389147172
 31
0.0
  0
LINE
  5
2FF
  8
0
 10
169.963437533714
 20
102.6208770476597
 30
0.0
 11
160.81194330459209
 21
102.6208770476596
 31
0.0
  0
LINE
  5
300
  8
0
 10
160.81194330459209
 20
97.136049494818693
 30
0.0
 11
169.96343753371389
 21
97.136049494818693
 31
0.0
  0
LINE
  5
301
  8
0
 10
170.81194330459201
 20
101.15122194198359
 30
0.0
 11
169.963437533714
 21
102.6208770476597
 31
0.0
  0
ARC
  5
302
  8
0
 10
165.95588006545239
 20
99.878463271239255
 30
0.0
 40
4.8560632391392371
 50
325.6157527021943
 51
359.99999999999932
  0
ARC
  5
303
  8
0
 10
152.6604490043913
 20
91.651221941982939
 30
0.0
 40
18.151494300200689
 50
342.41204631707052
 51
17.587953682929559
  0
ARC
  5
304
  8
0
 10
165.95588006545239
 20
83.423975217930035
 30
0.0
 40
4.8560632391392371
 50
0.0000000000006616
 51
34.384247297805693
  0
LINE
  5
305
  8
0
 10
170.81194330459209
 20
82.151216547185697
 30
0.0
 11
169.963437533714
 21
80.681561441509643
 31
0.0
  0
LINE
  5
306
  8
0
 10
160.81194330459209
 20
102.6208770476596
 30
0.0
 11
160.81194330459201
 21
80.681566836313152
 31
0.0
  0
LINE
  5
307
  8
0
 10
171.81194330459209
 20
101.15122194198349
 30
0.0
 11
170.81194330459201
 21
100.15122194198339
 31
0.0
  0
LINE
  5
308
  8
0
 10
171.81194330459209
 20
82.151221941983522
 30
0.0
 11
170.81194330459209
 21
83.151221941983565
 31
0.0
  0
LINE
  5
309
  8
0
 10
182.81194330459201
 20
82.151221941983565
 30
0.0
 11
192.81194330459201
 21
75.151221941980793
 31
0.0
  0
LINE
  5
30A
  8
0
 10
182.81194330459201
 20
101.15122194198339
 30
0.0
 11
192.81194330459201
 21
108.15122194198349
 31
0.0
  0
LINE
  5
30B
  8
0
 10
171.81194330459201
 20
101.15122194198349
 30
0.0
 11
171.81194330459209
 21
82.151221941983522
 31
0.0
  0
LINE
  5
30C
  8
0
 10
182.81194330459201
 20
101.15122194198339
 30
0.0
 11
182.81194330459201
 21
82.151221941983565
 31
0.0
  0
LINE
  5
30D
  8
0
 10
192.81194330459201
 20
75.151221941983522
 30
0.0
 11
192.81194330459201
 21
108.15122194198349
 31
0.0
  0
LINE
  5
310
  8
0
 10
194.81194330459201
 20
76.151221941983522
 30
0.0
 11
194.81194330459201
 21
107.15122194198349
 31
0.0
  0
LINE
  5
312
  8
0
 10
135.81194330459221
 20
83.651221941994095
 30
0.0
 11
160.81194330459201
 21
83.651221941981589
 31
0.0
  0
LINE
  5
313
  8
0
 10
135.81194330459181
 20
99.651221941972722
 30
0.0
 11
160.81194330459209
 21
99.651221941985511
 31
0.0
  0
LINE
  5
314
  8
1
 10
199.81194330459201
 20
91.651221941983508
 30
0.0
 11
121.81194330459201
 21
91.651221941983508
 31
0.0
  0
LINE
  5
315
  8
0
 10
134.81194330459201
 20
98.651221941972906
 30
0.0
 11
135.81194330459201
 21
99.651221941972906
 31
0.0
  0
LINE
  5
316
  8
3
 10
157.81194330459201
 20
98.839221941978167
 30
0.0
 11
134.99994330459731
 21
98.839221941978167
 31
0.0
  0
LINE
  5
317
  8
0
 10
171.81194330459209
 20
101.15122194198339
 30
0.0
 11
182.81194330459201
 21
101.15122194198339
 31
0.0
  0
LINE
  5
318
  8
3
 10
157.81194330459201
 20
84.463221941988877
 30
0.0
 11
134.99994330459739
 21
84.463221941988877
 31
0.0
  0
LINE
  5
319
  8
0
 10
171.81194330459209
 20
82.151221941983565
 30
0.0
 11
182.81194330459201
 21
82.151221941983565
 31
0.0
  0
LINE
  5
31A
  8
0
 10
134.81194330459201
 20
84.651221941994208
 30
0.0
 11
135.81194330459201
 21
83.651221941994194
 31
0.0
  0
LINE
  5
31B
  8
0
 10
134.81194330459201
 20
98.651221941972906
 30
0.0
 11
134.81194330459201
 21
84.651221941994208
 31
0.0
  0
LINE
  5
31C
  8
0
 10
135.81194330459201
 20
99.651221941972906
 30
0.0
 11
135.81194330459201
 21
83.651221941994194
 31
0.0
  0
LINE
  5
37A
  8
0
 10
129.11194330459199
 20
95.651221941983522
 30
0.0
 11
129.11194330459199
 21
87.651221941983536
 31
0.0
  0
LINE
  5
37B
  8
0
 10
129.11194330459199
 20
87.651221941983536
 30
0.0
 11
134.81194330459201
 21
87.651221941983536
 31
0.0
  0
LINE
  5
37C
  8
0
 10
129.11194330459199
 20
95.651221941983522
 30
0.0
 11
134.81194330459201
 21
95.651221941983522
 31
0.0
  0
LINE
  5
38E
  8
0
 10
157.81194330459201
 20
99.651221941983977
 30
0.0
 11
157.81194330459201
 21
83.651221941983096
 31
0.0
  0
LINE
  5
38F
  8
3
 10
157.81194330459201
 20
98.839221941978167
 30
0.0
 11
159.21836856034929
 21
99.651221941984716
 31
0.0
  0
LINE
  5
390
  8
3
 10
157.81194330459201
 20
84.463221941988877
 30
0.0
 11
159.21836856034929
 21
83.651221941982328
 31
0.0
  0
LINE
  5
3D7
  8
1
 10
199.81194330459201
 20
165.89676704635849
 30
0.0
 11
121.81194330459201
 21
165.89676704635849
 31
0.0
  0
LINE
  5
3D8
  8
0
 10
171.81194330459209
 20
156.39676704635849
 30
0.0
 11
182.81194330459201
 21
156.39676704635849
 31
0.0
  0
LINE
  5
3D9
  8
0
 10
171.81194330459209
 20
175.39676704635841
 30
0.0
 11
182.81194330459201
 21
175.39676704635841
 31
0.0
  0
LINE
  5
3DA
  8
0
 10
135.81194330459221
 20
173.89676704634789
 30
0.0
 11
160.81194330459201
 21
173.8967670463604
 31
0.0
  0
LINE
  5
3DB
  8
0
 10
135.81194330459181
 20
157.89676704636929
 30
0.0
 11
160.81194330459209
 21
157.8967670463565
 31
0.0
  0
LINE
  5
3DC
  8
3
 10
157.81194330459201
 20
158.70876704636379
 30
0.0
 11
134.99994330459731
 21
158.70876704636379
 31
0.0
  0
LINE
  5
3DD
  8
3
 10
157.81194330459201
 20
173.08476704635311
 30
0.0
 11
134.99994330459739
 21
173.08476704635311
 31
0.0
  0
LINE
  5
3E0
  8
0
 10
135.81194330459201
 20
157.89676704636909
 30
0.0
 11
135.81194330459201
 21
173.8967670463478
 31
0.0
  0
LINE
  5
3E1
  8
0
 10
134.81194330459201
 20
158.89676704636909
 30
0.0
 11
134.81194330459201
 21
172.8967670463478
 31
0.0
  0
LINE
  5
3E5
  8
0
 10
134.81194330459201
 20
172.8967670463478
 30
0.0
 11
135.81194330459201
 21
173.8967670463478
 31
0.0
  0
LINE
  5
3E8
  8
0
 10
134.81194330459201
 20
158.89676704636909
 30
0.0
 11
135.81194330459201
 21
157.89676704636909
 31
0.0
  0
ARC
  5
3E9
  8
0
 10
156.93094095702881
 20
170.64676704635849
 30
0.0
 40
13.719683889994901
 50
339.7438419996065
 51
20.25615800039342
  0
LINE
  5
3EA
  8
0
 10
160.81194330459201
 20
175.39676704635841
 30
0.0
 11
160.81194330459201
 21
156.39676704635849
 31
0.0
  0
LINE
  5
3EB
  8
0
 10
170.81194330459209
 20
175.11735528165141
 30
0.0
 11
170.81194330459209
 21
156.67617881106551
 31
0.0
  0
LINE
  5
3EC
  8
0
 10
171.81194330459201
 20
156.39676704635849
 30
0.0
 11
171.81194330459209
 21
175.39676704635849
 31
0.0
  0
LINE
  5
3ED
  8
0
 10
170.65062484702381
 20
175.39676704635849
 30
0.0
 11
160.81194330459201
 21
175.39676704635841
 31
0.0
  0
LINE
  5
3EE
  8
0
 10
170.65062484702381
 20
175.39676704635849
 30
0.0
 11
170.81194330459209
 21
175.11735528165141
 31
0.0
  0
LINE
  5
3EF
  8
0
 10
171.81194330459209
 20
175.39676704635849
 30
0.0
 11
170.81194330459209
 21
174.39676704635841
 31
0.0
  0
LINE
  5
3F0
  8
0
 10
170.65062484702381
 20
156.39676704635841
 30
0.0
 11
160.81194330459201
 21
156.39676704635849
 31
0.0
  0
LINE
  5
3F1
  8
0
 10
169.8021190709924
 20
165.89676704635849
 30
0.0
 11
160.81194330459201
 21
165.89676704635841
 31
0.0
  0
LINE
  5
3F2
  8
0
 10
157.81194330459201
 20
157.89676704635801
 30
0.0
 11
157.81194330459201
 21
173.89676704635889
 31
0.0
  0
LINE
  5
3F3
  8
3
 10
157.81194330459201
 20
173.08476704635311
 30
0.0
 11
159.21836856034929
 21
173.89676704635971
 31
0.0
  0
LINE
  5
3F4
  8
3
 10
157.81194330459201
 20
158.70876704636379
 30
0.0
 11
159.21836856034929
 21
157.8967670463573
 31
0.0
  0
ARC
  5
3F5
  8
0
 10
156.93094095702881
 20
161.14676704635849
 30
0.0
 40
13.719683889994901
 50
339.74384199960662
 51
20.25615800039348
  0
LINE
  5
3F6
  8
0
 10
170.65062484702381
 20
156.39676704635841
 30
0.0
 11
170.81194330459209
 21
156.67617881106551
 31
0.0
  0
LINE
  5
3F7
  8
0
 10
171.81194330459209
 20
156.39676704635849
 30
0.0
 11
170.81194330459201
 21
157.3967670463586
 31
0.0
  0
LINE
  5
3F9
  8
0
 10
182.81194330459201
 20
156.39676704635849
 30
0.0
 11
192.81194330459201
 21
149.39676704635849
 31
0.0
  0
LINE
  5
3FA
  8
0
 10
192.81194330459201
 20
182.39676704635849
 30
0.0
 11
192.81194330459201
 21
149.39676704635849
 31
0.0
  0
LINE
  5
3FB
  8
0
 10
194.81194330459201
 20
181.39676704635849
 30
0.0
 11
194.81194330459201
 21
150.39676704635849
 31
0.0
  0
LINE
  5
3FD
  8
0
 10
182.81194330459201
 20
156.39676704635849
 30
0.0
 11
182.81194330459201
 21
175.39676704635841
 31
0.0
  0
LINE
  5
3FF
  8
0
 10
182.81194330459201
 20
175.39676704635841
 30
0.0
 11
192.81194330459201
 21
182.39676704636119
 31
0.0
  0
ARC
  5
400
  8
0
 10
192.81194330459201
 20
179.89676704636531
 30
0.0
 40
2.4999999999958362
 50
36.869897645717657
 51
90.0
  0
ARC
  5
408
  8
0
 10
192.81194330459201
 20
151.8967670463515
 30
0.0
 40
2.4999999999958362
 50
270.0
 51
323.13010235428231
  0
LINE
  5
571
  8
0
 10
129.11194330459199
 20
95.651221941983522
 30
0.0
 11
127.40058989903061
 21
94.663171592604044
 31
0.0
  0
ARC
  5
5A0
  8
0
 10
134.81194330459201
 20
91.65122194198355
 30
0.0
 40
8.0
 50
157.88333686751591
 51
202.1166631324846
  0
LINE
  5
5B8
  8
0
 10
127.40058989903061
 20
94.663171592604044
 30
0.0
 11
127.40058989903061
 21
88.639272291362985
 31
0.0
  0
LINE
  5
5B9
  8
0
 10
129.11194330459199
 20
87.651221941983536
 30
0.0
 11
127.40058989903061
 21
88.639272291362985
 31
0.0
  0
LINE
  5
5BA
  8
0
 10
129.11194330459199
 20
161.89676704635849
 30
0.0
 11
127.40058989903061
 21
162.88481739573791
 31
0.0
  0
LINE
  5
5BB
  8
0
 10
127.40058989903061
 20
168.90871669697901
 30
0.0
 11
127.40058989903061
 21
162.88481739573791
 31
0.0
  0
ARC
  5
5BC
  8
0
 10
134.81194330459201
 20
165.89676704635849
 30
0.0
 40
8.0
 50
157.88333686751591
 51
202.1166631324846
  0
LINE
  5
5BD
  8
0
 10
129.11194330459199
 20
169.89676704635849
 30
0.0
 11
127.40058989903061
 21
168.90871669697901
 31
0.0
  0
LINE
  5
5BE
  8
0
 10
129.11194330459199
 20
169.89676704635849
 30
0.0
 11
134.81194330459201
 21
169.89676704635849
 31
0.0
  0
LINE
  5
5BF
  8
0
 10
129.11194330459199
 20
161.89676704635849
 30
0.0
 11
134.81194330459201
 21
161.89676704635849
 31
0.0
  0
LINE
  5
5C0
  8
0
 10
129.11194330459199
 20
169.89676704635849
 30
0.0
 11
129.11194330459199
 21
161.89676704635849
 31
0.0
  0
CIRCLE
  5
5C2
  8
0
 10
68.811943304592916
 20
91.651221941983465
 30
0.0
 40
3.0119496506205792
  0
TEXT
  5
66C
  8
0
 62
     3
 10
0.0
 20
0.0
 30
0.0
 40
5.0
  1
NDXN16-SUS
  7
STANDARD1
  0
ENDSEC
  0
EOF
