  0
SECTION
  2
HEADER
  9
$ACADVER
  1
AC1009
  9
$INSBASE
 10
0.0
 20
0.0
 30
0.0
  9
$EXTMIN
 10
0.0
 20
-1.4802182810368341
 30
0.0
  9
$EXTMAX
 10
246.3550997197494
 20
142.47559223614721
 30
0.0
  9
$LIMMIN
 10
0.0
 20
0.0
  9
$LIMMAX
 10
385.0
 20
270.0
  9
$ORTHOMODE
 70
     1
  9
$REGENMODE
 70
     1
  9
$FILLMODE
 70
     1
  9
$QTEXTMODE
 70
     0
  9
$MIRRTEXT
 70
     0
  9
$DRAGMODE
 70
     2
  9
$LTSCALE
 40
10.0
  9
$OSMODE
 70
  3071
  9
$ATTMODE
 70
     1
  9
$TEXTSIZE
 40
4.000000000000048
  9
$TRACEWID
 40
0.05
  9
$TEXTSTYLE
  7
STANDARD
  9
$CLAYER
  8
0
  9
$CELTYPE
  6
BYLAYER
  9
$CECOLOR
 62
   256
  9
$DIMSCALE
 40
1.0
  9
$DIMASZ
 40
3.0
  9
$DIMEXO
 40
2.0
  9
$DIMDLI
 40
0.38
  9
$DIMRND
 40
0.0
  9
$DIMDLE
 40
0.0
  9
$DIMEXE
 40
2.0
  9
$DIMTP
 40
0.0
  9
$DIMTM
 40
0.0
  9
$DIMTXT
 40
3.0
  9
$DIMCEN
 40
0.0
  9
$DIMTSZ
 40
0.0
  9
$DIMTOL
 70
     0
  9
$DIMLIM
 70
     0
  9
$DIMTIH
 70
     0
  9
$DIMTOH
 70
     0
  9
$DIMSE1
 70
     0
  9
$DIMSE2
 70
     0
  9
$DIMTAD
 70
     1
  9
$DIMZIN
 70
     0
  9
$DIMBLK
  1

  9
$DIMASO
 70
     0
  9
$DIMSHO
 70
     0
  9
$DIMPOST
  1

  9
$DIMAPOST
  1

  9
$DIMALT
 70
     0
  9
$DIMALTD
 70
     2
  9
$DIMALTF
 40
25.399999999999999
  9
$DIMLFAC
 40
1.0
  9
$DIMTOFL
 70
     1
  9
$DIMTVP
 40
1.6000000000000001
  9
$DIMTIX
 70
     1
  9
$DIMSOXD
 70
     0
  9
$DIMSAH
 70
     0
  9
$DIMBLK1
  1

  9
$DIMBLK2
  1

  9
$DIMSTYLE
  2
STANDARD
  9
$DIMCLRD
 70
     0
  9
$DIMCLRE
 70
     0
  9
$DIMCLRT
 70
     0
  9
$DIMTFAC
 40
1.0
  9
$DIMGAP
 40
1.0
  9
$LUNITS
 70
     2
  9
$LUPREC
 70
     4
  9
$SKETCHINC
 40
0.1
  9
$FILLETRAD
 40
0.0
  9
$AUNITS
 70
     0
  9
$AUPREC
 70
     4
  9
$MENU
  1
E:\r13\win\SUPPORT\ACAD
  9
$ELEVATION
 40
0.0
  9
$PELEVATION
 40
0.0
  9
$THICKNESS
 40
0.0
  9
$LIMCHECK
 70
     0
  9
$BLIPMODE
 70
     0
  9
$CHAMFERA
 40
0.0
  9
$CHAMFERB
 40
0.0
  9
$SKPOLY
 70
     0
  9
$TDCREATE
 40
2450280.598206134
  9
$TDUPDATE
 40
2456597.6887594792
  9
$TDINDWG
 40
0.0460960532
  9
$TDUSRTIMER
 40
0.0460960532
  9
$USRTIMER
 70
     1
  9
$ANGBASE
 50
0.0
  9
$ANGDIR
 70
     0
  9
$PDMODE
 70
     0
  9
$PDSIZE
 40
0.0
  9
$PLINEWID
 40
0.0
  9
$COORDS
 70
     1
  9
$SPLFRAME
 70
     0
  9
$SPLINETYPE
 70
     6
  9
$SPLINESEGS
 70
     8
  9
$ATTDIA
 70
     0
  9
$ATTREQ
 70
     1
  9
$HANDLING
 70
     1
  9
$HANDSEED
  5
549
  9
$SURFTAB1
 70
     6
  9
$SURFTAB2
 70
     6
  9
$SURFTYPE
 70
     6
  9
$SURFU
 70
     6
  9
$SURFV
 70
     6
  9
$UCSNAME
  2

  9
$UCSORG
 10
0.0
 20
0.0
 30
0.0
  9
$UCSXDIR
 10
1.0
 20
0.0
 30
0.0
  9
$UCSYDIR
 10
0.0
 20
1.0
 30
0.0
  9
$PUCSNAME
  2

  9
$PUCSORG
 10
0.0
 20
0.0
 30
0.0
  9
$PUCSXDIR
 10
1.0
 20
0.0
 30
0.0
  9
$PUCSYDIR
 10
0.0
 20
1.0
 30
0.0
  9
$USERI1
 70
     3
  9
$USERI2
 70
     1
  9
$USERI3
 70
     0
  9
$USERI4
 70
     0
  9
$USERI5
 70
     0
  9
$USERR1
 40
1.0
  9
$USERR2
 40
3.0
  9
$USERR3
 40
3.0
  9
$USERR4
 40
3.0
  9
$USERR5
 40
10.0
  9
$WORLDVIEW
 70
     1
  9
$SHADEDGE
 70
     3
  9
$SHADEDIF
 70
    70
  9
$TILEMODE
 70
     1
  9
$MAXACTVP
 70
    16
  9
$PLIMCHECK
 70
     0
  9
$PEXTMIN
 10
1.0000000000000000E+020
 20
1.0000000000000000E+020
 30
1.0000000000000000E+020
  9
$PEXTMAX
 10
-1.0000000000000000E+020
 20
-1.0000000000000000E+020
 30
-1.0000000000000000E+020
  9
$PLIMMIN
 10
0.0
 20
0.0
  9
$PLIMMAX
 10
12.0
 20
9.0
  9
$UNITMODE
 70
     0
  9
$VISRETAIN
 70
     0
  9
$PLINEGEN
 70
     0
  9
$PSLTSCALE
 70
     0
  0
ENDSEC
  0
SECTION
  2
TABLES
  0
TABLE
  2
VPORT
 70
     1
  0
VPORT
  2
*ACTIVE
 70
     0
 10
0.0
 20
0.0
 11
1.0
 21
1.0
 12
192.49412581440311
 22
134.84202934784381
 13
0.0
 23
0.0
 14
5.0
 24
5.0
 15
10.0
 25
10.0
 16
0.0
 26
0.0
 36
1.0
 17
0.0
 27
0.0
 37
0.0
 40
275.78743625673241
 41
2.304913294797688
 42
50.0
 43
0.0
 44
0.0
 50
0.0
 51
0.0
 71
     0
 72
   500
 73
     1
 74
     0
 75
     0
 76
     0
 77
     0
 78
     2
  0
ENDTAB
  0
TABLE
  2
LTYPE
 70
     3
  0
LTYPE
  2
CONTINUOUS
 70
     0
  3
Solid Line
 72
    65
 73
     0
 40
0.0
  0
LTYPE
  2
CENTER
 70
     0
  3
____ _ ____ _ ____ _ ____ _ ____ _ ____ _ ____
 72
    65
 73
     4
 40
2.0
 49
1.25
 49
-0.25
 49
0.25
 49
-0.25
  0
LTYPE
  2
PHANTOM2
 70
     0
  3
___ _ _ ___ _ _ ___ _ _ ___ _ _
 72
    65
 73
     6
 40
1.25
 49
0.625
 49
-0.125
 49
0.125
 49
-0.125
 49
0.125
 49
-0.125
  0
ENDTAB
  0
TABLE
  2
LAYER
 70
     3
  0
LAYER
  2
0
 70
     0
 62
     7
  6
CONTINUOUS
  0
LAYER
  2
1
 70
     0
 62
     1
  6
CENTER
  0
LAYER
  2
3
 70
     0
 62
     3
  6
CONTINUOUS
  0
ENDTAB
  0
TABLE
  2
STYLE
 70
     2
  0
STYLE
  2
STANDARD
 70
     0
 40
0.0
 41
1.0
 50
0.0
 71
     0
 42
4.000000000000048
  3
SIMPLEX
  4
BIGFONT
  0
STYLE
  2
STANDARD1
 70
     0
 40
0.0
 41
1.0
 50
0.0
 71
     0
 42
3.0
  3
txt
  4

  0
ENDTAB
  0
TABLE
  2
VIEW
 70
     0
  0
ENDTAB
  0
TABLE
  2
UCS
 70
     0
  0
ENDTAB
  0
TABLE
  2
APPID
 70
     3
  0
APPID
  2
ACAD
 70
     0
  0
APPID
  2
ACAD_MLEADERVER
 70
     0
  0
APPID
  2
ACAD_NAV_VCDISPLAY
 70
     0
  0
ENDTAB
  0
TABLE
  2
DIMSTYLE
 70
     1
  0
DIMSTYLE
  2
STANDARD
 70
     0
  3

  4

  5

  6

  7

 40
1.0
 41
0.18
 42
0.0625
 43
0.38
 44
0.18
 45
0.0
 46
0.0
 47
0.0
 48
0.0
140
0.18
141
0.09
142
0.0
143
25.399999999999999
144
1.0
145
0.0
146
1.0
147
0.09
 71
     0
 72
     0
 73
     1
 74
     1
 75
     0
 76
     0
 77
     0
 78
     0
170
     0
171
     2
172
     0
173
     0
174
     0
175
     0
176
     0
177
     0
178
     0
  0
ENDTAB
  0
ENDSEC
  0
SECTION
  2
BLOCKS
  0
BLOCK
  8
0
  2
$MODEL_SPACE
 70
     0
 10
0.0
 20
0.0
 30
0.0
  3
$MODEL_SPACE
  1

  0
ENDBLK
  5
3B1
  8
0
  0
BLOCK
 67
     1
  8
0
  2
$PAPER_SPACE
 70
     0
 10
0.0
 20
0.0
 30
0.0
  3
$PAPER_SPACE
  1

  0
ENDBLK
  5
3AF
 67
     1
  8
0
  0
ENDSEC
  0
SECTION
  2
ENTITIES
  0
LINE
  5
2A8
  8
0
 10
43.82692192784986
 20
63.134474635530523
 30
0.0
 11
50.82692192784986
 21
59.09302275120239
 31
0.0
  0
LINE
  5
2A9
  8
0
 10
50.82692192784986
 20
59.09302275120239
 30
0.0
 11
57.826921927848957
 21
63.134474635530523
 31
0.0
  0
LINE
  5
2AA
  8
0
 10
57.826921927848957
 20
63.134474635530523
 30
0.0
 11
57.826921927848957
 21
71.217378404185865
 31
0.0
  0
LINE
  5
2AB
  8
0
 10
57.826921927848957
 20
71.217378404185865
 30
0.0
 11
50.826921927848957
 21
75.258830288512172
 31
0.0
  0
LINE
  5
2AC
  8
0
 10
50.826921927848957
 20
75.258830288512172
 30
0.0
 11
43.826921927848041
 21
71.217378404184046
 31
0.0
  0
LINE
  5
2AD
  8
0
 10
43.826921927848041
 20
71.217378404184046
 30
0.0
 11
43.82692192784986
 21
63.134474635530523
 31
0.0
  0
CIRCLE
  5
2AF
  8
0
 10
50.826921927848957
 20
67.17592651985683
 30
0.0
 40
6.000000000301398
  0
CIRCLE
  5
2B0
  8
3
 10
50.826921927848957
 20
67.17592651985683
 30
0.0
 40
5.1879999999945454
  0
CIRCLE
  5
2B1
  8
0
 10
50.826921927848957
 20
67.17592651985683
 30
0.0
 40
3.0
  0
CIRCLE
  5
2B2
  8
0
 10
50.826921927848957
 20
67.17592651985683
 30
0.0
 40
12.5
  0
LINE
  5
2B3
  8
1
 10
33.326921927849178
 20
67.17592651985683
 30
0.0
 11
68.326921927848957
 21
67.17592651985683
 31
0.0
  0
LINE
  5
2B4
  8
1
 10
50.826921927848957
 20
84.675926519856674
 30
0.0
 11
50.826921927848957
 21
49.675926519856773
 31
0.0
  0
ARC
  5
2BB
  8
0
 10
160.79983215401461
 20
78.050926519856205
 30
0.0
 40
1.6250000000006251
 50
22.61986494791347
 51
90.000000000144325
  0
ARC
  5
2BC
  8
0
 10
160.79983215401461
 20
56.300926519857512
 30
0.0
 40
1.6250000000006251
 50
269.99999999985567
 51
337.38013505208647
  0
LINE
  5
2BF
  8
0
 10
144.59983215401471
 20
74.175926514160494
 30
0.0
 11
143.97461736834799
 21
75.258830288578565
 31
0.0
  0
ARC
  5
2C0
  8
0
 10
137.28722482548531
 20
74.175926514160778
 30
0.0
 40
7.3126073285298174
 50
336.13507441578679
 51
359.99999999997351
  0
ARC
  5
2C1
  8
0
 10
137.28722482548531
 20
60.175926525552931
 30
0.0
 40
7.3126073285298174
 50
0.0000000000265001
 51
23.864925584213289
  0
ARC
  5
2C2
  8
0
 10
131.2250470040874
 20
67.175926519856887
 30
0.0
 40
13.374785149927391
 50
342.41204613394399
 51
17.587953866056029
  0
LINE
  5
2C3
  8
0
 10
144.59983215401471
 20
60.175926525553223
 30
0.0
 11
143.97461736834799
 21
59.093022751135102
 31
0.0
  0
LINE
  5
2C4
  8
0
 10
145.09983215401479
 20
74.17592651985683
 30
0.0
 11
144.59983215401479
 21
73.675926519856773
 31
0.0
  0
LINE
  5
2C5
  8
0
 10
145.09983215401479
 20
60.17592651985683
 30
0.0
 11
144.59983215401479
 21
60.67592651985683
 31
0.0
  0
LINE
  5
2C6
  8
0
 10
145.09983215401479
 20
74.17592651985683
 30
0.0
 11
145.09983215401479
 21
60.17592651985683
 31
0.0
  0
LINE
  5
2C9
  8
0
 10
160.79983215401461
 20
79.67592651985683
 30
0.0
 11
160.79983215401461
 21
54.67592651985683
 31
0.0
  0
LINE
  5
2CA
  8
0
 10
153.29983215401481
 20
74.17592651985683
 30
0.0
 11
153.29983215401481
 21
60.17592651985683
 31
0.0
  0
LINE
  5
2CB
  8
0
 10
162.29983215401489
 20
78.67592651985683
 30
0.0
 11
162.29983215401501
 21
55.67592651985688
 31
0.0
  0
LINE
  5
2CD
  8
0
 10
117.59983215401481
 20
61.175926519809252
 30
0.0
 11
136.59983215401479
 21
61.175926519868739
 31
0.0
  0
LINE
  5
2CE
  8
3
 10
116.82649882065751
 20
61.987926519862299
 30
0.0
 11
133.59983215401479
 21
61.987926519862242
 31
0.0
  0
LINE
  5
2CF
  8
0
 10
117.5998321540151
 20
73.175926519904806
 30
0.0
 11
136.59983215401479
 21
73.175926519844793
 31
0.0
  0
LINE
  5
2D0
  8
3
 10
116.82649882065751
 20
72.363926519851475
 30
0.0
 11
133.59983215401479
 21
72.363926519851475
 31
0.0
  0
LINE
  5
2D1
  8
0
 10
144.59983215401479
 20
74.175926514159357
 30
0.0
 11
144.59983215401479
 21
60.175926525553223
 31
0.0
  0
LINE
  5
2D2
  8
0
 10
136.59983215401479
 20
75.258830288578565
 30
0.0
 11
136.59983215401479
 21
59.093022751135102
 31
0.0
  0
LINE
  5
2D3
  8
0
 10
117.59983215401481
 20
73.175926519904465
 30
0.0
 11
117.59983215401481
 21
61.175926519809252
 31
0.0
  0
LINE
  5
2D4
  8
0
 10
116.59983215401481
 20
72.125926519868514
 30
0.0
 11
116.59983215401481
 21
62.225926519845189
 31
0.0
  0
LINE
  5
2D5
  8
0
 10
112.3998321540147
 20
70.175926519856816
 30
0.0
 11
112.3998321540147
 21
64.175926519856887
 31
0.0
  0
LINE
  5
2D8
  8
0
 10
112.3998321540147
 20
64.17592651985683
 30
0.0
 11
116.59983215401481
 21
64.17592651985683
 31
0.0
  0
LINE
  5
2D9
  8
0
 10
116.59983215401481
 20
62.225926519845189
 30
0.0
 11
117.59983215401481
 21
61.175926519809252
 31
0.0
  0
LINE
  5
2DA
  8
0
 10
136.59983215401479
 20
59.093022751135102
 30
0.0
 11
143.97461736834799
 21
59.093022751135102
 31
0.0
  0
LINE
  5
2DB
  8
0
 10
143.97461736834799
 20
63.134474635510571
 30
0.0
 11
136.59983215401479
 21
63.134474635510507
 31
0.0
  0
LINE
  5
2DC
  8
0
 10
145.09983215401479
 20
60.17592651985683
 30
0.0
 11
153.29983215401469
 21
60.17592651985683
 31
0.0
  0
LINE
  5
2DD
  8
0
 10
145.09983215401479
 20
74.17592651985683
 30
0.0
 11
153.29983215401469
 21
74.17592651985683
 31
0.0
  0
LINE
  5
2DE
  8
0
 10
143.97461736834799
 20
71.217378404203203
 30
0.0
 11
136.59983215401479
 21
71.217378404203146
 31
0.0
  0
LINE
  5
2DF
  8
0
 10
136.59983215401479
 20
75.258830288578565
 30
0.0
 11
143.97461736834799
 21
75.258830288578622
 31
0.0
  0
LINE
  5
2E0
  8
0
 10
116.59983215401481
 20
72.125926519868514
 30
0.0
 11
117.59983215401481
 21
73.175926519904465
 31
0.0
  0
LINE
  5
2E1
  8
0
 10
112.3998321540147
 20
70.17592651985683
 30
0.0
 11
116.59983215401481
 21
70.17592651985683
 31
0.0
  0
LINE
  5
2E4
  8
1
 10
105.59983215401451
 20
67.17592651985683
 30
0.0
 11
167.29983215401501
 21
67.17592651985683
 31
0.0
  0
LINE
  5
2EB
  8
1
 10
228.8550997197494
 20
84.675926519856674
 30
0.0
 11
228.8550997197494
 21
49.675926519856773
 31
0.0
  0
LINE
  5
2EC
  8
1
 10
211.35509971974969
 20
67.17592651985683
 30
0.0
 11
246.3550997197494
 21
67.17592651985683
 31
0.0
  0
CIRCLE
  5
2ED
  8
0
 10
228.8550997197494
 20
67.17592651985683
 30
0.0
 40
12.5
  0
LINE
  5
2EF
  8
0
 10
133.59983215401479
 20
73.175926519854329
 30
0.0
 11
133.59983215401479
 21
61.175926519859331
 31
0.0
  0
LINE
  5
2F0
  8
3
 10
133.59983215401479
 20
72.363926519851475
 30
0.0
 11
135.00625740975789
 21
73.175926519849867
 31
0.0
  0
LINE
  5
2F1
  8
3
 10
133.59983215401479
 20
61.987926519862178
 30
0.0
 11
135.00625740975789
 21
61.175926519863793
 31
0.0
  0
LINE
  5
323
  8
0
 10
145.09983215401479
 20
122.97559223614719
 30
0.0
 11
153.29983215401469
 21
122.97559223614731
 31
0.0
  0
LINE
  5
324
  8
0
 10
145.09983215401479
 20
136.97559223614721
 30
0.0
 11
153.29983215401469
 21
136.97559223614721
 31
0.0
  0
LINE
  5
325
  8
1
 10
105.59983215401451
 20
129.97559223614721
 30
0.0
 11
167.29983215401509
 21
129.97559223614721
 31
0.0
  0
LINE
  5
326
  8
0
 10
145.09983215401479
 20
122.97559223614719
 30
0.0
 11
145.09983215401479
 21
136.97559223614721
 31
0.0
  0
LINE
  5
327
  8
0
 10
133.59983215401479
 20
123.97559223614969
 30
0.0
 11
133.59983215401479
 21
135.97559223614471
 31
0.0
  0
LINE
  5
328
  8
0
 10
144.59983215401479
 20
123.2448230053795
 30
0.0
 11
144.59983215401479
 21
136.70636146691501
 31
0.0
  0
LINE
  5
329
  8
0
 10
136.59983215401479
 20
122.97559223614751
 30
0.0
 11
136.59983215401471
 21
136.97559223614701
 31
0.0
  0
ARC
  5
32A
  8
0
 10
134.3351509358875
 20
133.47559223614701
 30
0.0
 40
10.10924076103711
 50
339.7438419995828
 51
20.256158000417141
  0
LINE
  5
32D
  8
0
 10
117.59983215401481
 20
123.9755922360996
 30
0.0
 11
117.59983215401481
 21
135.97559223619481
 31
0.0
  0
LINE
  5
32E
  8
0
 10
116.59983215401481
 20
125.02559223613549
 30
0.0
 11
116.59983215401481
 21
134.92559223615879
 31
0.0
  0
LINE
  5
32F
  8
0
 10
117.59983215401481
 20
135.97559223619481
 30
0.0
 11
136.59983215401479
 21
135.9755922361353
 31
0.0
  0
LINE
  5
330
  8
3
 10
116.82649882065751
 20
135.16359223614171
 30
0.0
 11
133.59983215401479
 21
135.1635922361418
 31
0.0
  0
LINE
  5
331
  8
0
 10
116.59983215401481
 20
134.92559223615879
 30
0.0
 11
117.59983215401481
 21
135.97559223619481
 31
0.0
  0
LINE
  5
333
  8
3
 10
133.59983215401479
 20
135.16359223614191
 30
0.0
 11
135.00625740975789
 21
135.9755922361403
 31
0.0
  0
LINE
  5
334
  8
0
 10
144.4443916969245
 20
136.97559223614701
 30
0.0
 11
136.59983215401471
 21
136.97559223614701
 31
0.0
  0
LINE
  5
335
  8
0
 10
145.09983215401479
 20
136.97559223614721
 30
0.0
 11
144.59983215401479
 21
136.47559223614721
 31
0.0
  0
LINE
  5
336
  8
0
 10
144.4443916969245
 20
136.97559223614701
 30
0.0
 11
144.59983215401479
 21
136.70636146691501
 31
0.0
  0
LINE
  5
337
  8
0
 10
117.5998321540151
 20
123.9755922360992
 30
0.0
 11
136.59983215401479
 21
123.9755922361592
 31
0.0
  0
LINE
  5
338
  8
3
 10
116.82649882065751
 20
124.78759223615261
 30
0.0
 11
133.59983215401479
 21
124.78759223615261
 31
0.0
  0
LINE
  5
33D
  8
0
 10
116.59983215401481
 20
125.02559223613549
 30
0.0
 11
117.59983215401481
 21
123.9755922360996
 31
0.0
  0
LINE
  5
33E
  8
3
 10
133.59983215401479
 20
124.78759223615261
 30
0.0
 11
135.00625740975789
 21
123.9755922361542
 31
0.0
  0
LINE
  5
33F
  8
0
 10
144.4443916969245
 20
122.97559223614751
 30
0.0
 11
136.59983215401479
 21
122.97559223614751
 31
0.0
  0
LINE
  5
340
  8
0
 10
143.8191769145848
 20
129.97559223614721
 30
0.0
 11
136.59983215401471
 21
129.97559223614721
 31
0.0
  0
ARC
  5
341
  8
0
 10
134.3351509358875
 20
126.47559223614751
 30
0.0
 40
10.10924076103711
 50
339.7438419995828
 51
20.256158000417141
  0
LINE
  5
342
  8
0
 10
145.09983215401479
 20
122.97559223614719
 30
0.0
 11
144.59983215401479
 21
123.47559223614731
 31
0.0
  0
LINE
  5
343
  8
0
 10
144.4443916969245
 20
122.97559223614751
 30
0.0
 11
144.59983215401479
 21
123.2448230053795
 31
0.0
  0
LINE
  5
345
  8
0
 10
160.79983215401481
 20
117.47559223614719
 30
0.0
 11
160.79983215401481
 21
142.47559223614721
 31
0.0
  0
LINE
  5
346
  8
0
 10
153.29983215401481
 20
122.97559223614719
 30
0.0
 11
153.29983215401481
 21
136.97559223614721
 31
0.0
  0
LINE
  5
347
  8
0
 10
162.29983215401501
 20
118.47559223614719
 30
0.0
 11
162.29983215401509
 21
141.47559223614721
 31
0.0
  0
ARC
  5
349
  8
0
 10
160.79983215401481
 20
140.8505922361465
 30
0.0
 40
1.6250000000006251
 50
22.619864947913101
 51
90.000000000144325
  0
ARC
  5
34E
  8
0
 10
160.79983215401481
 20
119.1005922361478
 30
0.0
 40
1.6250000000006251
 50
269.99999999985567
 51
337.38013505208693
  0
LINE
  5
354
  8
0
 10
153.29983215401481
 20
136.97559223614721
 30
0.0
 11
160.79983215401481
 21
142.47559223614721
 31
0.0
  0
LINE
  5
355
  8
0
 10
153.29983215401481
 20
122.97559223614719
 30
0.0
 11
160.79983215401481
 21
117.47559223614719
 31
0.0
  0
LINE
  5
356
  8
0
 10
153.29983215401481
 20
74.17592651985683
 30
0.0
 11
160.79983215401461
 21
79.67592651985683
 31
0.0
  0
LINE
  5
357
  8
0
 10
153.29983215401481
 20
60.17592651985683
 30
0.0
 11
160.79983215401461
 21
54.67592651985683
 31
0.0
  0
LINE
  5
3BF
  8
0
 10
111.01875754881689
 20
69.378562724774895
 30
0.0
 11
112.3998321540148
 21
70.17592651985683
 31
0.0
  0
ARC
  5
3F2
  8
0
 10
116.59983215401481
 20
67.175926519856858
 30
0.0
 40
6.0
 50
158.4627507536234
 51
201.537249246377
  0
LINE
  5
407
  8
0
 10
111.01875754881689
 20
64.973290314938779
 30
0.0
 11
112.3998321540148
 21
64.175926519856844
 31
0.0
  0
LINE
  5
408
  8
0
 10
111.01875754881689
 20
64.973290314938779
 30
0.0
 11
111.01875754881689
 21
69.378562724774895
 31
0.0
  0
LINE
  5
409
  8
0
 10
111.01875754881689
 20
127.7729560312291
 30
0.0
 11
111.01875754881689
 21
132.17822844106519
 31
0.0
  0
LINE
  5
40A
  8
0
 10
111.01875754881689
 20
127.7729560312291
 30
0.0
 11
112.3998321540148
 21
126.97559223614719
 31
0.0
  0
ARC
  5
40B
  8
0
 10
116.59983215401481
 20
129.97559223614721
 30
0.0
 40
6.0
 50
158.4627507536234
 51
201.537249246377
  0
LINE
  5
40C
  8
0
 10
112.3998321540147
 20
126.97559223614719
 30
0.0
 11
116.59983215401481
 21
126.97559223614719
 31
0.0
  0
LINE
  5
40D
  8
0
 10
112.3998321540147
 20
132.97559223614721
 30
0.0
 11
112.3998321540147
 21
126.97559223614719
 31
0.0
  0
LINE
  5
40E
  8
0
 10
111.01875754881689
 20
132.17822844106519
 30
0.0
 11
112.3998321540148
 21
132.97559223614721
 31
0.0
  0
LINE
  5
40F
  8
0
 10
112.3998321540147
 20
132.97559223614721
 30
0.0
 11
116.59983215401481
 21
132.97559223614721
 31
0.0
  0
CIRCLE
  5
411
  8
0
 10
50.826921927849071
 20
67.17592651985683
 30
0.0
 40
2.2026362049180639
  0
TEXT
  5
4BB
  8
0
 62
     3
 10
0.0
 20
0.0
 30
0.0
 40
5.0
  1
NDXN12A-SUS
  7
STANDARD1
  0
ENDSEC
  0
EOF
