  0
SECTION
  2
HEADER
  9
$ACADVER
  1
AC1009
  9
$INSBASE
 10
0.0
 20
0.0
 30
0.0
  9
$EXTMIN
 10
0.0
 20
-1.4802182810368341
 30
0.0
  9
$EXTMAX
 10
193.23984171560491
 20
131.3676996929492
 30
0.0
  9
$LIMMIN
 10
0.0
 20
0.0
  9
$LIMMAX
 10
385.0
 20
270.0
  9
$ORTHOMODE
 70
     1
  9
$REGENMODE
 70
     1
  9
$FILLMODE
 70
     1
  9
$QTEXTMODE
 70
     0
  9
$MIRRTEXT
 70
     0
  9
$DRAGMODE
 70
     2
  9
$LTSCALE
 40
5.0
  9
$OSMODE
 70
  3071
  9
$ATTMODE
 70
     1
  9
$TEXTSIZE
 40
4.000000000000048
  9
$TRACEWID
 40
0.05
  9
$TEXTSTYLE
  7
STANDARD
  9
$CLAYER
  8
0
  9
$CELTYPE
  6
BYLAYER
  9
$CECOLOR
 62
   256
  9
$DIMSCALE
 40
1.0
  9
$DIMASZ
 40
3.0
  9
$DIMEXO
 40
2.0
  9
$DIMDLI
 40
0.38
  9
$DIMRND
 40
0.0
  9
$DIMDLE
 40
0.0
  9
$DIMEXE
 40
2.0
  9
$DIMTP
 40
0.0
  9
$DIMTM
 40
0.0
  9
$DIMTXT
 40
3.0
  9
$DIMCEN
 40
0.0
  9
$DIMTSZ
 40
0.0
  9
$DIMTOL
 70
     0
  9
$DIMLIM
 70
     0
  9
$DIMTIH
 70
     0
  9
$DIMTOH
 70
     0
  9
$DIMSE1
 70
     0
  9
$DIMSE2
 70
     0
  9
$DIMTAD
 70
     1
  9
$DIMZIN
 70
     0
  9
$DIMBLK
  1

  9
$DIMASO
 70
     0
  9
$DIMSHO
 70
     0
  9
$DIMPOST
  1

  9
$DIMAPOST
  1

  9
$DIMALT
 70
     0
  9
$DIMALTD
 70
     2
  9
$DIMALTF
 40
25.399999999999999
  9
$DIMLFAC
 40
1.0
  9
$DIMTOFL
 70
     1
  9
$DIMTVP
 40
1.6000000000000001
  9
$DIMTIX
 70
     1
  9
$DIMSOXD
 70
     0
  9
$DIMSAH
 70
     0
  9
$DIMBLK1
  1

  9
$DIMBLK2
  1

  9
$DIMSTYLE
  2
STANDARD
  9
$DIMCLRD
 70
     0
  9
$DIMCLRE
 70
     0
  9
$DIMCLRT
 70
     0
  9
$DIMTFAC
 40
1.0
  9
$DIMGAP
 40
1.0
  9
$LUNITS
 70
     2
  9
$LUPREC
 70
     4
  9
$SKETCHINC
 40
0.1
  9
$FILLETRAD
 40
0.0
  9
$AUNITS
 70
     0
  9
$AUPREC
 70
     4
  9
$MENU
  1
E:\r13\win\SUPPORT\ACAD
  9
$ELEVATION
 40
0.0
  9
$PELEVATION
 40
0.0
  9
$THICKNESS
 40
0.0
  9
$LIMCHECK
 70
     0
  9
$BLIPMODE
 70
     0
  9
$CHAMFERA
 40
0.0
  9
$CHAMFERB
 40
0.0
  9
$SKPOLY
 70
     0
  9
$TDCREATE
 40
2450280.598206134
  9
$TDUPDATE
 40
2456597.6886358219
  9
$TDINDWG
 40
0.0673521065
  9
$TDUSRTIMER
 40
0.0673521065
  9
$USRTIMER
 70
     1
  9
$ANGBASE
 50
0.0
  9
$ANGDIR
 70
     0
  9
$PDMODE
 70
     0
  9
$PDSIZE
 40
0.0
  9
$PLINEWID
 40
0.0
  9
$COORDS
 70
     1
  9
$SPLFRAME
 70
     0
  9
$SPLINETYPE
 70
     6
  9
$SPLINESEGS
 70
     8
  9
$ATTDIA
 70
     0
  9
$ATTREQ
 70
     1
  9
$HANDLING
 70
     1
  9
$HANDSEED
  5
469
  9
$SURFTAB1
 70
     6
  9
$SURFTAB2
 70
     6
  9
$SURFTYPE
 70
     6
  9
$SURFU
 70
     6
  9
$SURFV
 70
     6
  9
$UCSNAME
  2

  9
$UCSORG
 10
0.0
 20
0.0
 30
0.0
  9
$UCSXDIR
 10
1.0
 20
0.0
 30
0.0
  9
$UCSYDIR
 10
0.0
 20
1.0
 30
0.0
  9
$PUCSNAME
  2

  9
$PUCSORG
 10
0.0
 20
0.0
 30
0.0
  9
$PUCSXDIR
 10
1.0
 20
0.0
 30
0.0
  9
$PUCSYDIR
 10
0.0
 20
1.0
 30
0.0
  9
$USERI1
 70
     3
  9
$USERI2
 70
     1
  9
$USERI3
 70
     1
  9
$USERI4
 70
     0
  9
$USERI5
 70
     0
  9
$USERR1
 40
1.0
  9
$USERR2
 40
3.0
  9
$USERR3
 40
3.0
  9
$USERR4
 40
3.0
  9
$USERR5
 40
10.0
  9
$WORLDVIEW
 70
     1
  9
$SHADEDGE
 70
     3
  9
$SHADEDIF
 70
    70
  9
$TILEMODE
 70
     1
  9
$MAXACTVP
 70
    16
  9
$PLIMCHECK
 70
     0
  9
$PEXTMIN
 10
1.0000000000000000E+020
 20
1.0000000000000000E+020
 30
1.0000000000000000E+020
  9
$PEXTMAX
 10
-1.0000000000000000E+020
 20
-1.0000000000000000E+020
 30
-1.0000000000000000E+020
  9
$PLIMMIN
 10
0.0
 20
0.0
  9
$PLIMMAX
 10
12.0
 20
9.0
  9
$UNITMODE
 70
     0
  9
$VISRETAIN
 70
     0
  9
$PLINEGEN
 70
     0
  9
$PSLTSCALE
 70
     0
  0
ENDSEC
  0
SECTION
  2
TABLES
  0
TABLE
  2
VPORT
 70
     1
  0
VPORT
  2
*ACTIVE
 70
     0
 10
0.0
 20
0.0
 11
1.0
 21
1.0
 12
192.49412581440311
 22
134.84202934784381
 13
0.0
 23
0.0
 14
5.0
 24
5.0
 15
10.0
 25
10.0
 16
0.0
 26
0.0
 36
1.0
 17
0.0
 27
0.0
 37
0.0
 40
275.78743625673241
 41
2.304913294797688
 42
50.0
 43
0.0
 44
0.0
 50
0.0
 51
0.0
 71
     0
 72
   500
 73
     1
 74
     0
 75
     0
 76
     0
 77
     0
 78
     2
  0
ENDTAB
  0
TABLE
  2
LTYPE
 70
     4
  0
LTYPE
  2
CONTINUOUS
 70
     0
  3
Solid Line
 72
    65
 73
     0
 40
0.0
  0
LTYPE
  2
CENTER
 70
     0
  3
____ _ ____ _ ____ _ ____ _ ____ _ ____ _ ____
 72
    65
 73
     4
 40
2.0
 49
1.25
 49
-0.25
 49
0.25
 49
-0.25
  0
LTYPE
  2
HIDDEN
 70
     0
  3
_ _ _ _ _ _ _ _ _ _ _ _ _ _ _ _ _ _ _ _ _ _ _
 72
    65
 73
     2
 40
0.375
 49
0.25
 49
-0.125
  0
LTYPE
  2
PHANTOM2
 70
     0
  3
___ _ _ ___ _ _ ___ _ _ ___ _ _
 72
    65
 73
     6
 40
1.25
 49
0.625
 49
-0.125
 49
0.125
 49
-0.125
 49
0.125
 49
-0.125
  0
ENDTAB
  0
TABLE
  2
LAYER
 70
     4
  0
LAYER
  2
0
 70
     0
 62
     7
  6
CONTINUOUS
  0
LAYER
  2
1
 70
     0
 62
     1
  6
CENTER
  0
LAYER
  2
3
 70
     0
 62
     3
  6
CONTINUOUS
  0
LAYER
  2
2
 70
     0
 62
     2
  6
HIDDEN
  0
ENDTAB
  0
TABLE
  2
STYLE
 70
     2
  0
STYLE
  2
STANDARD
 70
     0
 40
0.0
 41
1.0
 50
0.0
 71
     0
 42
4.000000000000048
  3
SIMPLEX
  4
BIGFONT
  0
STYLE
  2
STANDARD1
 70
     0
 40
0.0
 41
1.0
 50
0.0
 71
     0
 42
3.0
  3
txt
  4

  0
ENDTAB
  0
TABLE
  2
VIEW
 70
     0
  0
ENDTAB
  0
TABLE
  2
UCS
 70
     0
  0
ENDTAB
  0
TABLE
  2
APPID
 70
     3
  0
APPID
  2
ACAD
 70
     0
  0
APPID
  2
ACAD_MLEADERVER
 70
     0
  0
APPID
  2
ACAD_NAV_VCDISPLAY
 70
     0
  0
ENDTAB
  0
TABLE
  2
DIMSTYLE
 70
     1
  0
DIMSTYLE
  2
STANDARD
 70
     0
  3

  4

  5

  6

  7

 40
1.0
 41
0.18
 42
0.0625
 43
0.38
 44
0.18
 45
0.0
 46
0.0
 47
0.0
 48
0.0
140
0.18
141
0.09
142
0.0
143
25.399999999999999
144
1.0
145
0.0
146
1.0
147
0.09
 71
     0
 72
     0
 73
     1
 74
     1
 75
     0
 76
     0
 77
     0
 78
     0
170
     0
171
     2
172
     0
173
     0
174
     0
175
     0
176
     0
177
     0
178
     0
  0
ENDTAB
  0
ENDSEC
  0
SECTION
  2
BLOCKS
  0
BLOCK
  8
0
  2
$MODEL_SPACE
 70
     0
 10
0.0
 20
0.0
 30
0.0
  3
$MODEL_SPACE
  1

  0
ENDBLK
  5
175
  8
0
  0
BLOCK
 67
     1
  8
0
  2
$PAPER_SPACE
 70
     0
 10
0.0
 20
0.0
 30
0.0
  3
$PAPER_SPACE
  1

  0
ENDBLK
  5
173
 67
     1
  8
0
  0
ENDSEC
  0
SECTION
  2
ENTITIES
  0
LINE
  5
1E
  8
1
 10
79.711663923704577
 20
71.129895431226032
 30
0.0
 11
133.2116639237039
 21
71.129895431226032
 31
0.0
  0
LINE
  5
28
  8
1
 10
79.711663923704577
 20
120.8676996929493
 30
0.0
 11
133.2116639237039
 21
120.8676996929493
 31
0.0
  0
CIRCLE
  5
55
  8
0
 10
36.711663923704577
 20
71.129895431226032
 30
0.0
 40
5.0000000003133627
  0
CIRCLE
  5
56
  8
3
 10
36.711663923704577
 20
71.129895431226032
 30
0.0
 40
4.4585000000079162
  0
LINE
  5
57
  8
2
 10
30.21166392370549
 20
67.377118681493812
 30
0.0
 11
36.711663923705487
 21
63.624341931761592
 31
0.0
  0
LINE
  5
58
  8
2
 10
36.711663923704577
 20
78.635448930691439
 30
0.0
 11
30.211663923703671
 21
74.882672180958252
 31
0.0
  0
LINE
  5
59
  8
1
 10
21.21166392370446
 20
71.129895431226032
 30
0.0
 11
52.211663923704457
 21
71.129895431226032
 31
0.0
  0
CIRCLE
  5
5A
  8
0
 10
36.711663923704577
 20
71.129895431226032
 30
0.0
 40
10.5
  0
LINE
  5
5B
  8
2
 10
30.211663923703671
 20
74.882672180958252
 30
0.0
 11
30.21166392370549
 21
67.377118681493812
 31
0.0
  0
LINE
  5
5C
  8
0
 10
121.2116639237039
 20
114.3676996929493
 30
0.0
 11
121.2116639237038
 21
127.3676996929493
 31
0.0
  0
LINE
  5
5D
  8
0
 10
114.2116639237039
 20
114.3676996929493
 30
0.0
 11
114.2116639237038
 21
127.3676996929494
 31
0.0
  0
LINE
  5
5E
  8
0
 10
106.7116639237038
 20
114.3676996929496
 30
0.0
 11
106.7116639237038
 21
127.3676996929491
 31
0.0
  0
LINE
  5
5F
  8
0
 10
113.7116639237038
 20
114.61769969295069
 30
0.0
 11
113.7116639237038
 21
127.11769969294799
 31
0.0
  0
ARC
  5
60
  8
0
 10
104.1801742211571
 20
124.1176996929491
 30
0.0
 40
9.3871521352487513
 50
339.7438419995828
 51
20.256158000417141
  0
LINE
  5
61
  8
0
 10
128.2116639237039
 20
111.3676996929493
 30
0.0
 11
128.2116639237039
 21
130.36769969294929
 31
0.0
  0
LINE
  5
62
  8
0
 10
127.2116639237039
 20
110.3676996929494
 30
0.0
 11
127.2116639237039
 21
131.3676996929492
 31
0.0
  0
LINE
  5
66
  8
0
 10
90.711663923703867
 20
115.867699692901
 30
0.0
 11
90.711663923703867
 21
125.8676996929978
 31
0.0
  0
LINE
  5
67
  8
0
 10
89.711663923703867
 20
116.867699692901
 30
0.0
 11
89.711663923703867
 21
124.8676996929978
 31
0.0
  0
LINE
  5
68
  8
0
 10
104.7116639237039
 20
115.86769969295111
 30
0.0
 11
104.7116639237039
 21
125.8676996929476
 31
0.0
  0
CIRCLE
  5
69
  8
0
 10
36.711663923704577
 20
71.129895431226032
 30
0.0
 40
2.5
  0
LINE
  5
6A
  8
2
 10
43.21166392370457
 20
67.377118681493812
 30
0.0
 11
43.21166392370457
 21
74.882672180960071
 31
0.0
  0
LINE
  5
6B
  8
1
 10
36.711663923704577
 20
86.629895431226316
 30
0.0
 11
36.711663923704577
 21
55.629895431225798
 31
0.0
  0
LINE
  5
6C
  8
2
 10
36.711663923705487
 20
63.624341931761592
 30
0.0
 11
43.21166392370457
 21
67.377118681493812
 31
0.0
  0
LINE
  5
6D
  8
2
 10
43.21166392370457
 20
74.882672180960071
 30
0.0
 11
36.711663923704577
 21
78.635448930691439
 31
0.0
  0
LINE
  5
6F
  8
3
 10
90.170163923663381
 20
66.671395431218173
 30
0.0
 11
97.003904525411571
 21
66.671395431218144
 31
0.0
  0
LINE
  5
70
  8
3
 10
90.170163923663495
 20
75.588395431234005
 30
0.0
 11
97.003904525411571
 21
75.588395431233991
 31
0.0
  0
LINE
  5
71
  8
0
 10
106.7116639237038
 20
66.129895431234843
 30
0.0
 11
102.0039045254117
 21
66.129895431218074
 31
0.0
  0
LINE
  5
72
  8
0
 10
106.7116639237038
 20
76.129895431217193
 30
0.0
 11
102.0039045254117
 21
76.129895431233933
 31
0.0
  0
LINE
  5
74
  8
0
 10
90.711663923703867
 20
76.129895431274406
 30
0.0
 11
90.711663923703867
 21
66.129895431177601
 31
0.0
  0
LINE
  5
75
  8
0
 10
89.711663923703867
 20
75.129895431274349
 30
0.0
 11
89.711663923703867
 21
67.129895431177601
 31
0.0
  0
LINE
  5
77
  8
0
 10
89.711663923703867
 20
68.629895431226032
 30
0.0
 11
86.011663923703821
 21
68.629895431226032
 31
0.0
  0
LINE
  5
78
  8
0
 10
90.711663923703867
 20
66.129895431177601
 30
0.0
 11
89.711663923703867
 21
67.129895431177601
 31
0.0
  0
LINE
  5
79
  8
0
 10
89.711663923703867
 20
73.629895431226032
 30
0.0
 11
86.011663923703907
 21
73.629895431226046
 31
0.0
  0
LINE
  5
7D
  8
0
 10
90.711663923703867
 20
76.129895431274406
 30
0.0
 11
89.711663923703867
 21
75.129895431274349
 31
0.0
  0
LINE
  5
80
  8
0
 10
128.2116639237039
 20
80.629895431226089
 30
0.0
 11
128.2116639237039
 21
61.629895431226032
 31
0.0
  0
LINE
  5
81
  8
0
 10
127.2116639237039
 20
81.629895431225975
 30
0.0
 11
127.2116639237039
 21
60.629895431226153
 31
0.0
  0
LINE
  5
82
  8
0
 10
121.2116639237039
 20
77.629895431226089
 30
0.0
 11
121.2116639237038
 21
64.629895431226032
 31
0.0
  0
LINE
  5
85
  8
0
 10
104.7116639237039
 20
76.129895431224298
 30
0.0
 11
104.7116639237039
 21
66.129895431227737
 31
0.0
  0
LINE
  5
86
  8
0
 10
121.2116639237038
 20
64.629895431226018
 30
0.0
 11
114.2116639237038
 21
64.629895431225975
 31
0.0
  0
LINE
  5
89
  8
3
 10
104.7116639237039
 20
66.671395431218002
 30
0.0
 11
105.6495694359798
 21
66.129895431231091
 31
0.0
  0
LINE
  5
8D
  8
0
 10
121.2116639237038
 20
64.629895431226032
 30
0.0
 11
127.2116639237039
 21
60.629895431229777
 31
0.0
  0
ARC
  5
8E
  8
0
 10
127.2116639237039
 20
61.629895431226139
 30
0.0
 40
1.0
 50
270.00000000000091
 51
0.0
  0
LINE
  5
8F
  8
0
 10
121.2116639237039
 20
77.629895431226089
 30
0.0
 11
114.2116639237038
 21
77.629895431226089
 31
0.0
  0
LINE
  5
92
  8
3
 10
104.7116639237039
 20
75.588395431234062
 30
0.0
 11
105.6495694359798
 21
76.129895431220973
 31
0.0
  0
LINE
  5
96
  8
0
 10
121.2116639237039
 20
77.629895431226089
 30
0.0
 11
127.2116639237039
 21
81.629895431218699
 31
0.0
  0
ARC
  5
97
  8
0
 10
127.2116639237039
 20
80.629895431225975
 30
0.0
 40
1.0
 50
0.0
 51
89.999999999999091
  0
LINE
  5
98
  8
3
 10
90.170163923663495
 20
116.4091996929414
 30
0.0
 11
97.003904525411571
 21
116.4091996929414
 31
0.0
  0
LINE
  5
99
  8
0
 10
106.7116639237038
 20
115.8676996929582
 30
0.0
 11
102.0039045254117
 21
115.8676996929415
 31
0.0
  0
LINE
  5
9C
  8
0
 10
90.711663923703867
 20
115.867699692901
 30
0.0
 11
89.711663923703867
 21
116.867699692901
 31
0.0
  0
LINE
  5
9D
  8
0
 10
121.2116639237039
 20
114.3676996929493
 30
0.0
 11
114.2116639237038
 21
114.3676996929493
 31
0.0
  0
LINE
  5
9E
  8
0
 10
112.98676977280461
 20
120.8676996929493
 30
0.0
 11
106.7116639237038
 21
120.8676996929493
 31
0.0
  0
LINE
  5
9F
  8
0
 10
113.5673263564058
 20
114.3676996929496
 30
0.0
 11
106.7116639237038
 21
114.3676996929496
 31
0.0
  0
LINE
  5
A0
  8
3
 10
104.7116639237039
 20
116.4091996929413
 30
0.0
 11
105.6495694359798
 21
115.8676996929544
 31
0.0
  0
ARC
  5
A1
  8
0
 10
104.1801742211571
 20
117.6176996929496
 30
0.0
 40
9.3871521352487513
 50
339.7438419995828
 51
20.256158000417141
  0
LINE
  5
A2
  8
0
 10
113.7116639237038
 20
114.8676996929493
 30
0.0
 11
114.2116639237038
 21
114.3676996929493
 31
0.0
  0
LINE
  5
A3
  8
0
 10
113.5673263564058
 20
114.3676996929496
 30
0.0
 11
113.7116639237038
 21
114.61769969295069
 31
0.0
  0
LINE
  5
A4
  8
0
 10
121.2116639237039
 20
114.3676996929493
 30
0.0
 11
127.2116639237039
 21
110.36769969295671
 31
0.0
  0
ARC
  5
A5
  8
0
 10
127.2116639237039
 20
111.3676996929494
 30
0.0
 40
1.0
 50
270.00000000000091
 51
0.0
  0
LINE
  5
A6
  8
3
 10
90.170163923663381
 20
125.3261996929572
 30
0.0
 11
97.003904525411571
 21
125.3261996929572
 31
0.0
  0
LINE
  5
A7
  8
0
 10
106.7116639237038
 20
125.8676996929405
 30
0.0
 11
102.0039045254117
 21
125.8676996929573
 31
0.0
  0
LINE
  5
AA
  8
0
 10
90.711663923703867
 20
125.8676996929978
 30
0.0
 11
89.711663923703867
 21
124.8676996929978
 31
0.0
  0
LINE
  5
AB
  8
0
 10
121.2116639237038
 20
127.3676996929493
 30
0.0
 11
114.2116639237038
 21
127.3676996929494
 31
0.0
  0
LINE
  5
AC
  8
0
 10
113.5673263564058
 20
127.3676996929491
 30
0.0
 11
106.7116639237038
 21
127.3676996929491
 31
0.0
  0
LINE
  5
AD
  8
3
 10
104.7116639237039
 20
125.3261996929574
 30
0.0
 11
105.6495694359798
 21
125.8676996929443
 31
0.0
  0
LINE
  5
AE
  8
0
 10
113.7116639237038
 20
126.8676996929494
 30
0.0
 11
114.2116639237038
 21
127.3676996929494
 31
0.0
  0
LINE
  5
AF
  8
0
 10
113.5673263564058
 20
127.3676996929491
 30
0.0
 11
113.7116639237038
 21
127.11769969294799
 31
0.0
  0
LINE
  5
B0
  8
0
 10
121.2116639237038
 20
127.3676996929493
 30
0.0
 11
127.2116639237039
 21
131.36769969294559
 31
0.0
  0
ARC
  5
B1
  8
0
 10
127.2116639237039
 20
130.3676996929492
 30
0.0
 40
1.0
 50
0.0
 51
89.999999999999091
  0
CIRCLE
  5
CF
  8
0
 10
177.739841715605
 20
71.129895431226032
 30
0.0
 40
10.5
  0
LINE
  5
D0
  8
1
 10
162.23984171560491
 20
71.129895431226032
 30
0.0
 11
193.23984171560491
 21
71.129895431226032
 31
0.0
  0
LINE
  5
E0
  8
1
 10
177.739841715605
 20
86.629895431226316
 30
0.0
 11
177.739841715605
 21
55.629895431225798
 31
0.0
  0
LINE
  5
1A8
  8
0
 10
86.011663923703864
 20
73.629895431226004
 30
0.0
 11
85.123541391409944
 21
73.117137648132825
 31
0.0
  0
ARC
  5
1E5
  8
0
 10
89.711663923703867
 20
71.129895431225975
 30
0.0
 40
5.0
 50
156.5812350446345
 51
203.4187649553644
  0
LINE
  5
1E7
  8
0
 10
86.011663923703864
 20
73.629895431226032
 30
0.0
 11
86.011663923703864
 21
68.629895431226004
 31
0.0
  0
LINE
  5
1E9
  8
0
 10
86.011663923703864
 20
68.629895431226004
 30
0.0
 11
85.123541391409901
 21
69.142653214319211
 31
0.0
  0
LINE
  5
1FF
  8
0
 10
85.123541391409944
 20
73.117137648132825
 30
0.0
 11
85.123541391409901
 21
69.142653214319211
 31
0.0
  0
LINE
  5
200
  8
0
 10
85.123541391409944
 20
122.85494190985619
 30
0.0
 11
85.123541391409901
 21
118.88045747604259
 31
0.0
  0
LINE
  5
201
  8
0
 10
86.011663923703864
 20
123.3676996929494
 30
0.0
 11
86.011663923703864
 21
118.3676996929494
 31
0.0
  0
ARC
  5
202
  8
0
 10
89.711663923703824
 20
120.8676996929493
 30
0.0
 40
5.0
 50
156.5812350446345
 51
203.4187649553644
  0
LINE
  5
203
  8
0
 10
86.011663923703864
 20
123.3676996929494
 30
0.0
 11
85.123541391409944
 21
122.85494190985619
 31
0.0
  0
LINE
  5
204
  8
0
 10
89.711663923703824
 20
123.3676996929494
 30
0.0
 11
86.011663923703907
 21
123.3676996929494
 31
0.0
  0
LINE
  5
205
  8
0
 10
86.011663923703864
 20
118.3676996929494
 30
0.0
 11
85.123541391409901
 21
118.88045747604259
 31
0.0
  0
LINE
  5
206
  8
0
 10
89.711663923703824
 20
118.3676996929494
 30
0.0
 11
86.011663923703779
 21
118.3676996929494
 31
0.0
  0
CIRCLE
  5
208
  8
0
 10
36.711663923704577
 20
71.129895431226061
 30
0.0
 40
1.9872422169067501
  0
LINE
  5
276
  8
0
 10
28.211663923704521
 20
76.037372719338009
 30
0.0
 11
28.211663923704521
 21
66.222418143114282
 31
0.0
  0
LINE
  5
277
  8
0
 10
28.211663923704521
 20
66.222418143114282
 30
0.0
 11
36.711663923704521
 21
61.314940855002419
 31
0.0
  0
LINE
  5
278
  8
0
 10
36.711663923704521
 20
61.314940855002419
 30
0.0
 11
45.211663923704521
 21
66.222418143114282
 31
0.0
  0
LINE
  5
279
  8
0
 10
45.211663923704521
 20
66.222418143114282
 30
0.0
 11
45.211663923704521
 21
76.037372719337895
 31
0.0
  0
LINE
  5
27A
  8
0
 10
45.211663923704521
 20
76.037372719337895
 30
0.0
 11
36.711663923704521
 21
80.944850007449645
 31
0.0
  0
LINE
  5
27B
  8
0
 10
36.711663923704521
 20
80.944850007449645
 30
0.0
 11
28.211663923704521
 21
76.037372719338009
 31
0.0
  0
CIRCLE
  5
27C
  8
0
 10
36.711663923704521
 20
71.129895431226146
 30
0.0
 40
8.5
  0
LINE
  5
27D
  8
0
 10
97.003904525411571
 20
79.629895431224753
 30
0.0
 11
97.763093899353834
 21
80.94484999945908
 31
0.0
  0
ARC
  5
27E
  8
0
 10
101.34880321306591
 20
78.491102827479807
 30
0.0
 40
4.344898687654096
 50
179.9999999999996
 51
214.3842472977615
  0
ARC
  5
27F
  8
0
 10
113.2447152150837
 20
71.129895431226032
 30
0.0
 40
16.240810689671989
 50
162.41204631709601
 51
197.58795368291021
  0
ARC
  5
280
  8
0
 10
101.34880321306591
 20
63.768679505049867
 30
0.0
 40
4.344898687654096
 50
145.6157527022385
 51
180.0000000000004
  0
LINE
  5
281
  8
0
 10
97.003904525411571
 20
62.629895431224668
 30
0.0
 11
97.763093899353834
 21
61.314940862990341
 31
0.0
  0
LINE
  5
282
  8
0
 10
101.2447151514685
 20
66.222418147109323
 30
0.0
 11
97.763093899353834
 21
66.222418147109323
 31
0.0
  0
LINE
  5
283
  8
0
 10
97.763093899353834
 20
61.314940862990341
 30
0.0
 11
101.24471515146951
 21
61.314940862990369
 31
0.0
  0
LINE
  5
284
  8
0
 10
101.24471515146899
 20
76.037372715340979
 30
0.0
 11
97.763093899353834
 21
76.037372715340979
 31
0.0
  0
LINE
  5
285
  8
0
 10
97.763093899353834
 20
80.944849999458995
 30
0.0
 11
101.24471515146951
 21
80.944849999459024
 31
0.0
  0
LINE
  5
286
  8
0
 10
97.003904525411571
 20
79.629895431224696
 30
0.0
 11
97.003904525411571
 21
62.629895431224668
 31
0.0
  0
LINE
  5
287
  8
0
 10
102.0039045254117
 20
79.629895431224696
 30
0.0
 11
102.0039045254117
 21
62.629895431224668
 31
0.0
  0
LINE
  5
288
  8
0
 10
102.0039045254117
 20
62.629895431224668
 30
0.0
 11
101.24471515146941
 21
61.314940862990341
 31
0.0
  0
ARC
  5
289
  8
0
 10
97.659005837757348
 20
63.768679505049867
 30
0.0
 40
4.344898687654096
 50
359.9999999999996
 51
34.38424729776149
  0
ARC
  5
28A
  8
0
 10
85.763093835739696
 20
71.129895431226032
 30
0.0
 40
16.240810689671989
 50
342.41204631708979
 51
17.587953682903908
  0
ARC
  5
28B
  8
0
 10
97.659005837757348
 20
78.491102827479807
 30
0.0
 40
4.344898687654096
 50
325.61575270223852
 51
0.0000000000004071
  0
LINE
  5
28C
  8
0
 10
102.0039045254117
 20
79.629895431224753
 30
0.0
 11
101.24471515146941
 21
80.94484999945908
 31
0.0
  0
LINE
  5
28D
  8
0
 10
97.003904525411571
 20
112.6176996929493
 30
0.0
 11
97.003904525411571
 21
129.1176996929494
 31
0.0
  0
ARC
  5
28E
  8
0
 10
109.4237487311254
 20
125.1176996929494
 30
0.0
 40
12.275506638416489
 50
159.7438419996065
 51
200.2561580003935
  0
ARC
  5
28F
  8
0
 10
89.584060319697144
 20
125.1176996929494
 30
0.0
 40
12.275506638416489
 50
339.74384199960662
 51
20.25615800039348
  0
LINE
  5
290
  8
0
 10
102.0039045254117
 20
129.11769969294829
 30
0.0
 11
102.0039045254117
 21
112.6176996929504
 31
0.0
  0
LINE
  5
291
  8
0
 10
101.8595669581136
 20
129.3676996929494
 30
0.0
 11
97.148242092708955
 21
129.3676996929494
 31
0.0
  0
LINE
  5
292
  8
0
 10
97.148242092708955
 20
129.3676996929494
 30
0.0
 11
97.003904525410888
 21
129.11769969294829
 31
0.0
  0
LINE
  5
293
  8
0
 10
101.8595669581136
 20
129.3676996929494
 30
0.0
 11
102.0039045254117
 21
129.11769969294829
 31
0.0
  0
ARC
  5
294
  8
0
 10
109.4237487311254
 20
116.6176996929494
 30
0.0
 40
12.275506638416489
 50
159.7438419996065
 51
200.2561580003935
  0
ARC
  5
295
  8
0
 10
89.584060319697144
 20
116.6176996929494
 30
0.0
 40
12.275506638416489
 50
339.74384199960662
 51
20.25615800039348
  0
LINE
  5
296
  8
0
 10
101.10037757955929
 20
120.8676996929494
 30
0.0
 11
97.907431471263038
 21
120.8676996929494
 31
0.0
  0
LINE
  5
297
  8
0
 10
101.8595669581136
 20
112.3676996929493
 30
0.0
 11
97.148242092708955
 21
112.3676996929494
 31
0.0
  0
LINE
  5
298
  8
0
 10
97.148242092708955
 20
112.3676996929493
 30
0.0
 11
97.003904525410888
 21
112.6176996929504
 31
0.0
  0
LINE
  5
299
  8
0
 10
101.8595669581136
 20
112.3676996929493
 30
0.0
 11
102.0039045254117
 21
112.6176996929504
 31
0.0
  0
LINE
  5
2B8
  8
3
 10
102.0039045254117
 20
75.588395431233991
 30
0.0
 11
104.7116639237039
 21
75.588395431234005
 31
0.0
  0
LINE
  5
2B9
  8
0
 10
97.003904525411571
 20
76.129895431251683
 30
0.0
 11
90.711663923703625
 21
76.129895431274065
 31
0.0
  0
LINE
  5
2BA
  8
3
 10
102.0039045254117
 20
66.67139543121813
 30
0.0
 11
104.7116639237039
 21
66.671395431218116
 31
0.0
  0
LINE
  5
2BB
  8
0
 10
97.003904525411571
 20
66.129895431200254
 30
0.0
 11
90.711663923703625
 21
66.129895431177886
 31
0.0
  0
LINE
  5
2BC
  8
0
 10
97.003904525411571
 20
115.86769969292369
 30
0.0
 11
90.711663923703625
 21
115.8676996929013
 31
0.0
  0
LINE
  5
2BD
  8
3
 10
102.0039045254117
 20
116.4091996929414
 30
0.0
 11
104.7116639237039
 21
116.4091996929414
 31
0.0
  0
LINE
  5
2BE
  8
0
 10
97.003904525411571
 20
125.86769969297509
 30
0.0
 11
90.711663923703625
 21
125.8676996929975
 31
0.0
  0
LINE
  5
2BF
  8
3
 10
102.0039045254117
 20
125.3261996929572
 30
0.0
 11
104.7116639237039
 21
125.3261996929573
 31
0.0
  0
LINE
  5
319
  8
0
 10
114.2116639237038
 20
69.629889399660243
 30
0.0
 11
114.2116639237038
 21
64.629895431225975
 31
0.0
  0
ARC
  5
31A
  8
0
 10
101.29222057099351
 20
71.129895431226203
 30
0.0
 40
12.41944335271058
 50
6.9369980298144789
 51
17.587953867365592
  0
LINE
  5
31B
  8
0
 10
113.7116639237038
 20
69.629889399660243
 30
0.0
 11
113.7116639237038
 21
64.629895436524635
 31
0.0
  0
LINE
  5
31C
  8
0
 10
108.2116639237038
 20
72.129889399660215
 30
0.0
 11
108.2116639237038
 21
70.129889399660215
 31
0.0
  0
LINE
  5
31D
  8
0
 10
108.2116639237038
 20
70.129889399660215
 30
0.0
 11
108.7116639237038
 21
69.629889399660215
 31
0.0
  0
LINE
  5
31E
  8
0
 10
108.2116639237038
 20
72.129889399660215
 30
0.0
 11
108.7116639237038
 21
72.629889399660215
 31
0.0
  0
LINE
  5
31F
  8
0
 10
114.2116639237038
 20
69.629889399660215
 30
0.0
 11
108.7116639237038
 21
69.629889399660215
 31
0.0
  0
LINE
  5
320
  8
0
 10
114.2116639237038
 20
72.629889399660215
 30
0.0
 11
108.7116639237038
 21
72.629889399660215
 31
0.0
  0
LINE
  5
321
  8
0
 10
113.7116639237038
 20
77.629895425927486
 30
0.0
 11
113.1311073369647
 21
78.635448930828659
 31
0.0
  0
ARC
  5
322
  8
0
 10
106.92138569078161
 20
77.629895425927714
 30
0.0
 40
6.7902782329225202
 50
336.13507441350401
 51
0.0000000000248338
  0
LINE
  5
323
  8
0
 10
113.7116639237038
 20
77.129895431226089
 30
0.0
 11
114.2116639237038
 21
77.629895431226089
 31
0.0
  0
LINE
  5
324
  8
0
 10
106.7116639237038
 20
74.882672181007251
 30
0.0
 11
113.13110733696431
 21
74.882672181007251
 31
0.0
  0
LINE
  5
325
  8
0
 10
113.1311073369648
 20
78.635448930828545
 30
0.0
 11
106.7116639237219
 21
78.635448930828545
 31
0.0
  0
ARC
  5
326
  8
0
 10
106.92138569078161
 20
64.62989543652435
 30
0.0
 40
6.7902782329225202
 50
359.99999999997522
 51
23.86492558649606
  0
LINE
  5
327
  8
0
 10
113.7116639237038
 20
65.129895431225975
 30
0.0
 11
114.2116639237038
 21
64.629895431225975
 31
0.0
  0
LINE
  5
328
  8
0
 10
113.7116639237038
 20
64.629895436524578
 30
0.0
 11
113.1311073369647
 21
63.624341931623462
 31
0.0
  0
LINE
  5
329
  8
0
 10
113.1311073369647
 20
63.624341931623462
 30
0.0
 11
106.7116639237219
 21
63.624341931623462
 31
0.0
  0
LINE
  5
32A
  8
0
 10
106.7116639237038
 20
67.377118681444699
 30
0.0
 11
113.13110733696431
 21
67.377118681444699
 31
0.0
  0
ARC
  5
32B
  8
0
 10
101.29222057099351
 20
71.129895431226203
 30
0.0
 40
12.41944335271058
 50
342.41204613263159
 51
353.06294590780618
  0
LINE
  5
32C
  8
0
 10
114.2116639237039
 20
77.629895431226089
 30
0.0
 11
114.2116639237039
 21
72.629889399660215
 31
0.0
  0
LINE
  5
32D
  8
0
 10
113.7116639237038
 20
77.629895425927486
 30
0.0
 11
113.7116639237039
 21
72.629889399660186
 31
0.0
  0
LINE
  5
32E
  8
0
 10
106.7116639237038
 20
78.635448930828545
 30
0.0
 11
106.7116639237038
 21
63.624341931623462
 31
0.0
  0
TEXT
  5
3DB
  8
0
 62
     3
 10
0.0
 20
0.0
 30
0.0
 40
5.0
  1
NDXN10ALW-SUS
  7
STANDARD1
  0
ENDSEC
  0
EOF
