  0
SECTION
  2
HEADER
  9
$ACADVER
  1
AC1009
  9
$INSBASE
 10
0.0
 20
0.0
 30
0.0
  9
$EXTMIN
 10
0.0
 20
-1.4802182810368341
 30
0.0
  9
$EXTMAX
 10
110.0
 20
67.0
 30
0.0
  9
$LIMMIN
 10
0.0
 20
0.0
  9
$LIMMAX
 10
187.5
 20
135.0
  9
$ORTHOMODE
 70
     1
  9
$REGENMODE
 70
     1
  9
$FILLMODE
 70
     1
  9
$QTEXTMODE
 70
     0
  9
$MIRRTEXT
 70
     0
  9
$DRAGMODE
 70
     2
  9
$LTSCALE
 40
5.0
  9
$OSMODE
 70
    37
  9
$ATTMODE
 70
     1
  9
$TEXTSIZE
 40
4.0
  9
$TRACEWID
 40
0.05
  9
$TEXTSTYLE
  7
STANDARD
  9
$CLAYER
  8
0
  9
$CELTYPE
  6
BYLAYER
  9
$CECOLOR
 62
   256
  9
$DIMSCALE
 40
0.5
  9
$DIMASZ
 40
3.0
  9
$DIMEXO
 40
2.0
  9
$DIMDLI
 40
0.38
  9
$DIMRND
 40
0.0
  9
$DIMDLE
 40
0.0
  9
$DIMEXE
 40
2.0
  9
$DIMTP
 40
0.0
  9
$DIMTM
 40
0.0
  9
$DIMTXT
 40
3.0
  9
$DIMCEN
 40
0.0
  9
$DIMTSZ
 40
0.0
  9
$DIMTOL
 70
     0
  9
$DIMLIM
 70
     0
  9
$DIMTIH
 70
     0
  9
$DIMTOH
 70
     0
  9
$DIMSE1
 70
     0
  9
$DIMSE2
 70
     0
  9
$DIMTAD
 70
     1
  9
$DIMZIN
 70
     0
  9
$DIMBLK
  1

  9
$DIMASO
 70
     0
  9
$DIMSHO
 70
     0
  9
$DIMPOST
  1

  9
$DIMAPOST
  1

  9
$DIMALT
 70
     0
  9
$DIMALTD
 70
     2
  9
$DIMALTF
 40
25.399999999999999
  9
$DIMLFAC
 40
1.0
  9
$DIMTOFL
 70
     0
  9
$DIMTVP
 40
1.6000000000000001
  9
$DIMTIX
 70
     1
  9
$DIMSOXD
 70
     0
  9
$DIMSAH
 70
     0
  9
$DIMBLK1
  1

  9
$DIMBLK2
  1

  9
$DIMSTYLE
  2
STANDARD
  9
$DIMCLRD
 70
     0
  9
$DIMCLRE
 70
     0
  9
$DIMCLRT
 70
     0
  9
$DIMTFAC
 40
1.0
  9
$DIMGAP
 40
0.09
  9
$LUNITS
 70
     2
  9
$LUPREC
 70
     4
  9
$SKETCHINC
 40
0.1
  9
$FILLETRAD
 40
0.4
  9
$AUNITS
 70
     0
  9
$AUPREC
 70
     0
  9
$MENU
  1
E:\r13\win\SUPPORT\ACAD
  9
$ELEVATION
 40
0.0
  9
$PELEVATION
 40
0.0
  9
$THICKNESS
 40
0.0
  9
$LIMCHECK
 70
     0
  9
$BLIPMODE
 70
     0
  9
$CHAMFERA
 40
0.0
  9
$CHAMFERB
 40
0.0
  9
$SKPOLY
 70
     0
  9
$TDCREATE
 40
2449840.6143865739
  9
$TDUPDATE
 40
2458249.5923927659
  9
$TDINDWG
 40
0.4780209722
  9
$TDUSRTIMER
 40
0.4780209722
  9
$USRTIMER
 70
     1
  9
$ANGBASE
 50
0.0
  9
$ANGDIR
 70
     0
  9
$PDMODE
 70
     0
  9
$PDSIZE
 40
0.0
  9
$PLINEWID
 40
0.0
  9
$COORDS
 70
     1
  9
$SPLFRAME
 70
     0
  9
$SPLINETYPE
 70
     6
  9
$SPLINESEGS
 70
     8
  9
$ATTDIA
 70
     0
  9
$ATTREQ
 70
     1
  9
$HANDLING
 70
     1
  9
$HANDSEED
  5
320D
  9
$SURFTAB1
 70
     6
  9
$SURFTAB2
 70
     6
  9
$SURFTYPE
 70
     6
  9
$SURFU
 70
     6
  9
$SURFV
 70
     6
  9
$UCSNAME
  2

  9
$UCSORG
 10
0.0
 20
0.0
 30
0.0
  9
$UCSXDIR
 10
1.0
 20
0.0
 30
0.0
  9
$UCSYDIR
 10
0.0
 20
1.0
 30
0.0
  9
$PUCSNAME
  2

  9
$PUCSORG
 10
0.0
 20
0.0
 30
0.0
  9
$PUCSXDIR
 10
1.0
 20
0.0
 30
0.0
  9
$PUCSYDIR
 10
0.0
 20
1.0
 30
0.0
  9
$USERI1
 70
     0
  9
$USERI2
 70
     1
  9
$USERI3
 70
     1
  9
$USERI4
 70
     0
  9
$USERI5
 70
     0
  9
$USERR1
 40
0.0
  9
$USERR2
 40
0.0
  9
$USERR3
 40
0.0
  9
$USERR4
 40
0.0
  9
$USERR5
 40
0.0
  9
$WORLDVIEW
 70
     1
  9
$SHADEDGE
 70
     3
  9
$SHADEDIF
 70
    70
  9
$TILEMODE
 70
     1
  9
$MAXACTVP
 70
    16
  9
$PLIMCHECK
 70
     0
  9
$PEXTMIN
 10
1.0000000000000000E+020
 20
1.0000000000000000E+020
 30
1.0000000000000000E+020
  9
$PEXTMAX
 10
-1.0000000000000000E+020
 20
-1.0000000000000000E+020
 30
-1.0000000000000000E+020
  9
$PLIMMIN
 10
0.0
 20
0.0
  9
$PLIMMAX
 10
12.0
 20
9.0
  9
$UNITMODE
 70
     0
  9
$VISRETAIN
 70
     0
  9
$PLINEGEN
 70
     0
  9
$PSLTSCALE
 70
     0
  0
ENDSEC
  0
SECTION
  2
TABLES
  0
TABLE
  2
VPORT
 70
     1
  0
VPORT
  2
*ACTIVE
 70
     0
 10
0.0
 20
0.0
 11
1.0
 21
1.0
 12
58.838520451770613
 22
32.758026459350688
 13
0.0
 23
0.0
 14
5.0
 24
5.0
 15
5.0
 25
5.0
 16
0.0
 26
0.0
 36
1.0
 17
0.0
 27
0.0
 37
0.0
 40
69.487634107867422
 41
2.0984455958549222
 42
50.0
 43
0.0
 44
0.0
 50
0.0
 51
0.0
 71
     0
 72
   100
 73
     1
 74
     0
 75
     0
 76
     0
 77
     0
 78
     0
  0
ENDTAB
  0
TABLE
  2
LTYPE
 70
     4
  0
LTYPE
  2
CONTINUOUS
 70
     0
  3
Solid Line
 72
    65
 73
     0
 40
0.0
  0
LTYPE
  2
CENTER
 70
     0
  3
____ _ ____ _ ____ _ ____ _ ____ _ ____ _ ____
 72
    65
 73
     4
 40
2.0
 49
1.25
 49
-0.25
 49
0.25
 49
-0.25
  0
LTYPE
  2
HIDDEN
 70
     0
  3
_ _ _ _ _ _ _ _ _ _ _ _ _ _ _ _ _ _ _ _ _ _ _
 72
    65
 73
     2
 40
0.375
 49
0.25
 49
-0.125
  0
LTYPE
  2
PHANTOM2
 70
     0
  3
___ _ _ ___ _ _ ___ _ _ ___ _ _
 72
    65
 73
     6
 40
1.25
 49
0.625
 49
-0.125
 49
0.125
 49
-0.125
 49
0.125
 49
-0.125
  0
ENDTAB
  0
TABLE
  2
LAYER
 70
     4
  0
LAYER
  2
0
 70
     0
 62
     7
  6
CONTINUOUS
  0
LAYER
  2
1
 70
     0
 62
     1
  6
CENTER
  0
LAYER
  2
3
 70
     0
 62
     3
  6
CONTINUOUS
  0
LAYER
  2
2
 70
     0
 62
     2
  6
HIDDEN
  0
ENDTAB
  0
TABLE
  2
STYLE
 70
     2
  0
STYLE
  2
STANDARD
 70
     0
 40
0.0
 41
1.0
 50
0.0
 71
     0
 42
4.0
  3
TXT
  4
BIGFONT
  0
STYLE
  2
STANDARD1
 70
     0
 40
0.0
 41
1.0
 50
0.0
 71
     0
 42
3.0
  3
txt
  4

  0
ENDTAB
  0
TABLE
  2
VIEW
 70
     1
  0
VIEW
  2
ALL
 70
     0
 40
179.66152299999999
 10
141.903918
 20
89.830760999999995
 41
1.0
 11
0.0
 21
0.0
 31
1.0
 12
0.0
 22
0.0
 32
0.0
 42
50.0
 43
0.0
 44
0.0
 50
0.0
 71
     0
  0
ENDTAB
  0
TABLE
  2
UCS
 70
     0
  0
ENDTAB
  0
TABLE
  2
APPID
 70
     6
  0
APPID
  2
ACAD
 70
     0
  0
APPID
  2
DCO15
 70
     0
  0
APPID
  2
ACAD_MLEADERVER
 70
     0
  0
APPID
  2
ACAD_NAV_VCDISPLAY
 70
     0
  0
APPID
  2
ACAD_EXEMPT_FROM_CAD_STANDARDS
 70
     0
  0
APPID
  2
ACADANNOTATIVE
 70
     0
  0
ENDTAB
  0
TABLE
  2
DIMSTYLE
 70
     2
  0
DIMSTYLE
  2
STANDARD
 70
     0
  3

  4

  5

  6

  7

 40
1.0
 41
0.18
 42
0.0625
 43
0.38
 44
0.18
 45
0.0
 46
0.0
 47
0.0
 48
0.0
140
0.18
141
0.09
142
0.0
143
25.399999999999999
144
1.0
145
0.0
146
1.0
147
0.09
 71
     0
 72
     0
 73
     1
 74
     1
 75
     0
 76
     0
 77
     0
 78
     0
170
     0
171
     2
172
     0
173
     0
174
     0
175
     0
176
     0
177
     0
178
     0
  0
DIMSTYLE
  2
ISO-25
 70
     0
  3

  4

  5

  6

  7

 40
1.0
 41
2.5
 42
0.625
 43
3.75
 44
1.25
 45
0.0
 46
0.0
 47
0.0
 48
0.0
140
2.5
141
2.5
142
0.0
143
0.0393700787
144
1.0
145
0.0
146
1.0
147
0.625
 71
     0
 72
     0
 73
     0
 74
     0
 75
     0
 76
     0
 77
     1
 78
     8
170
     0
171
     3
172
     1
173
     0
174
     0
175
     0
176
     0
177
     0
178
     0
  0
ENDTAB
  0
ENDSEC
  0
SECTION
  2
BLOCKS
  0
BLOCK
  8
0
  2
$MODEL_SPACE
 70
     0
 10
0.0
 20
0.0
 30
0.0
  3
$MODEL_SPACE
  1

  0
ENDBLK
  5
1BD
  8
0
  0
BLOCK
 67
     1
  8
0
  2
$PAPER_SPACE
 70
     0
 10
0.0
 20
0.0
 30
0.0
  3
$PAPER_SPACE
  1

  0
ENDBLK
  5
1BB
 67
     1
  8
0
  0
BLOCK
  8
0
  2
MN-M6-L
 70
     0
 10
0.0
 20
0.0
 30
0.0
  3
MN-M6-L
  1

  0
LINE
  5
2E2E
  8
0
 10
3.0
 20
0.0
 30
0.0
 11
3.0
 21
10.0
 31
0.0
  0
LINE
  5
2E2F
  8
3
 10
2.4585000000000861
 20
0.0
 30
0.0
 11
2.4585000000000861
 21
10.0
 31
0.0
  0
LINE
  5
2E30
  8
3
 10
-2.4585000000000861
 20
0.0
 30
0.0
 11
-2.4585000000000861
 21
10.0
 31
0.0
  0
LINE
  5
2E31
  8
0
 10
-3.0
 20
0.0
 30
0.0
 11
-3.0
 21
10.0
 31
0.0
  0
ENDBLK
  5
2E33
  8
0
  0
BLOCK
  8
0
  2
MN-M8-C
 70
     0
 10
0.0
 20
0.0
 30
0.0
  3
MN-M8-C
  1

  0
CIRCLE
  5
2E36
  8
3
 10
0.0
 20
0.0
 30
0.0
 40
4.0
  0
CIRCLE
  5
2E37
  8
0
 10
0.0
 20
0.0
 30
0.0
 40
3.3235000000000001
  0
ENDBLK
  5
2E39
  8
0
  0
ENDSEC
  0
SECTION
  2
ENTITIES
  0
TEXT
  5
1B5D
  8
0
 62
     3
 10
0.0
 20
0.0
 30
0.0
 40
5.0
  1
NDXCS6A
  7
STANDARD1
  0
LINE
  5
2375
  8
1
 10
20.0
 20
67.0
 30
0.0
 11
20.0
 21
47.0
 31
0.0
  0
LINE
  5
2376
  8
1
 10
10.0
 20
57.0
 30
0.0
 11
30.0
 21
57.0
 31
0.0
  0
CIRCLE
  5
2377
  8
0
 10
20.0
 20
57.0
 30
0.0
 40
7.0
  0
CIRCLE
  5
2379
  8
0
 10
20.0
 20
57.0
 30
0.0
 40
1.5
  0
CIRCLE
  5
237B
  8
0
 10
20.0
 20
57.0
 30
0.0
 40
3.0
  0
LINE
  5
237C
  8
0
 10
24.0
 20
59.309401076758512
 30
0.0
 11
20.0
 21
61.618802153517002
 31
0.0
  0
LINE
  5
237D
  8
0
 10
24.0
 20
54.69059892324151
 30
0.0
 11
24.0
 21
59.309401076758512
 31
0.0
  0
LINE
  5
237E
  8
0
 10
20.0
 20
52.381197846483019
 30
0.0
 11
24.0
 21
54.69059892324151
 31
0.0
  0
LINE
  5
237F
  8
0
 10
16.0
 20
59.309401076758512
 30
0.0
 11
16.0
 21
54.69059892324151
 31
0.0
  0
LINE
  5
2380
  8
0
 10
16.0
 20
54.69059892324151
 30
0.0
 11
20.0
 21
52.381197846483019
 31
0.0
  0
LINE
  5
2381
  8
0
 10
20.0
 20
61.618802153517002
 30
0.0
 11
16.0
 21
59.309401076758512
 31
0.0
  0
LINE
  5
23CC
  8
1
 10
100.0
 20
67.0
 30
0.0
 11
100.0
 21
47.0
 31
0.0
  0
LINE
  5
23CD
  8
1
 10
90.0
 20
57.0
 30
0.0
 11
110.0
 21
57.0
 31
0.0
  0
CIRCLE
  5
23CE
  8
0
 10
100.0
 20
57.0
 30
0.0
 40
5.7236352085016646
  0
CIRCLE
  5
23CF
  8
0
 10
100.0
 20
57.0
 30
0.0
 40
6.2000000000000002
  0
CIRCLE
  5
23D0
  8
0
 10
100.0
 20
57.0
 30
0.0
 40
7.0
  0
ARC
  5
240E
  8
2
 10
80.950000000000017
 20
57.0
 30
0.0
 40
10.000000000000041
 50
145.08479375255621
 51
214.91520624744379
  0
LINE
  5
2474
  8
1
 10
75.75
 20
57.0
 30
0.0
 11
44.249999999999993
 21
57.0
 31
0.0
  0
ARC
  5
2475
  8
0
 10
71.949999999999989
 20
63.199999999999989
 30
0.0
 40
0.7999999999999991
 50
0.0
 51
90.0
  0
ARC
  5
2476
  8
0
 10
71.949999999999989
 20
50.800000000000011
 30
0.0
 40
0.7999999999999999
 50
270.0
 51
0.0
  0
LINE
  5
2477
  8
0
 10
71.648980198052101
 20
50.0
 30
0.0
 11
71.949999999999989
 21
50.0
 31
0.0
  0
LINE
  5
2478
  8
0
 10
71.949999999999989
 20
64.0
 30
0.0
 11
71.648980198052101
 21
64.0
 31
0.0
  0
LINE
  5
2479
  8
0
 10
67.550000000000011
 20
53.0
 30
0.0
 11
71.648980198052101
 21
50.0
 31
0.0
  0
LINE
  5
247A
  8
0
 10
71.648980198052101
 20
64.0
 30
0.0
 11
67.550000000000011
 21
61.0
 31
0.0
  0
LINE
  5
247B
  8
0
 10
62.10355339059327
 20
53.0
 30
0.0
 11
67.550000000000011
 21
53.0
 31
0.0
  0
LINE
  5
247C
  8
0
 10
67.550000000000011
 20
61.0
 30
0.0
 11
62.103553390593277
 21
61.0
 31
0.0
  0
LINE
  5
247D
  8
0
 10
61.75
 20
53.353553390593277
 30
0.0
 11
62.10355339059327
 21
53.0
 31
0.0
  0
LINE
  5
247E
  8
0
 10
62.103553390593277
 20
61.0
 30
0.0
 11
61.75
 21
60.646446609406723
 31
0.0
  0
LINE
  5
247F
  8
0
 10
48.04999999999999
 20
55.5
 30
0.0
 11
50.75
 21
55.5
 31
0.0
  0
LINE
  5
2480
  8
0
 10
50.75
 20
58.5
 30
0.0
 11
48.04999999999999
 21
58.5
 31
0.0
  0
LINE
  5
2481
  8
0
 10
47.490525138289662
 20
55.82301296201328
 30
0.0
 11
48.04999999999999
 21
55.5
 31
0.0
  0
LINE
  5
2482
  8
0
 10
48.04999999999999
 20
58.5
 30
0.0
 11
47.490525138289662
 21
58.17698703798672
 31
0.0
  0
LINE
  5
2487
  8
0
 10
61.39273441009184
 20
52.381197846482991
 30
0.0
 11
61.75
 21
53.0
 31
0.0
  0
LINE
  5
2488
  8
0
 10
61.75
 20
61.0
 30
0.0
 11
61.39273441009184
 21
61.618802153517002
 31
0.0
  0
LINE
  5
2489
  8
0
 10
72.75
 20
63.199999999999989
 30
0.0
 11
72.75
 21
50.800000000000011
 31
0.0
  0
LINE
  5
248A
  8
0
 10
71.949999999999989
 20
64.0
 30
0.0
 11
71.949999999999989
 21
50.0
 31
0.0
  0
LINE
  5
248B
  8
0
 10
71.648980198052101
 20
64.0
 30
0.0
 11
71.648980198052101
 21
50.0
 31
0.0
  0
LINE
  5
248C
  8
0
 10
67.550000000000011
 20
61.0
 30
0.0
 11
67.550000000000011
 21
53.0
 31
0.0
  0
LINE
  5
248D
  8
0
 10
62.103553390593277
 20
61.0
 30
0.0
 11
62.10355339059327
 21
53.0
 31
0.0
  0
LINE
  5
248E
  8
0
 10
48.04999999999999
 20
58.5
 30
0.0
 11
48.04999999999999
 21
55.5
 31
0.0
  0
LINE
  5
248F
  8
0
 10
47.490525138289669
 20
58.176987037986727
 30
0.0
 11
47.490525138289676
 21
55.823012962013252
 31
0.0
  0
LINE
  5
2492
  8
0
 10
61.75
 20
61.0
 30
0.0
 11
61.75
 21
53.0
 31
0.0
  0
POLYLINE
  5
2493
  8
0
 66
     1
 10
0.0
 20
0.0
 30
0.0
 70
     8
  0
VERTEX
  5
2494
  8
0
 10
61.39273441009184
 20
61.618802153517002
 30
0.0
 70
    32
  0
VERTEX
  5
2495
  8
0
 10
61.412460389932761
 20
61.584245020992618
 30
0.0
 70
    32
  0
VERTEX
  5
2496
  8
0
 10
61.450105555352629
 20
61.515917824616189
 30
0.0
 70
    32
  0
VERTEX
  5
2497
  8
0
 10
61.485386806383929
 20
61.448561923158877
 30
0.0
 70
    32
  0
VERTEX
  5
2498
  8
0
 10
61.502156378444262
 20
61.415219554876217
 30
0.0
 70
    32
  0
VERTEX
  5
2499
  8
0
 10
61.518352681448782
 20
61.382085934437207
 30
0.0
 70
    32
  0
VERTEX
  5
249A
  8
0
 10
61.549045476006157
 20
61.31640081827689
 30
0.0
 70
    32
  0
VERTEX
  5
249B
  8
0
 10
61.577501423161152
 20
61.251419478452902
 30
0.0
 70
    32
  0
VERTEX
  5
249C
  8
0
 10
61.60375083376033
 20
61.187056376483781
 30
0.0
 70
    32
  0
VERTEX
  5
249D
  8
0
 10
61.627818197083641
 20
61.123227153670477
 30
0.0
 70
    32
  0
VERTEX
  5
249E
  8
0
 10
61.649722242751189
 20
61.05984825784526
 30
0.0
 70
    32
  0
VERTEX
  5
249F
  8
0
 10
61.659867306082639
 20
61.028301701508319
 30
0.0
 70
    32
  0
VERTEX
  5
24A0
  8
0
 10
61.6694759639756
 20
60.996836571314731
 30
0.0
 70
    32
  0
VERTEX
  5
24A1
  8
0
 10
61.687086601797773
 20
60.93410903644223
 30
0.0
 70
    32
  0
VERTEX
  5
24A2
  8
0
 10
61.702555589435192
 20
60.87158227521536
 30
0.0
 70
    32
  0
VERTEX
  5
24A3
  8
0
 10
61.715878455336927
 20
60.809172198984101
 30
0.0
 70
    32
  0
VERTEX
  5
24A4
  8
0
 10
61.727044682965698
 20
60.746793604323237
 30
0.0
 70
    32
  0
VERTEX
  5
24A5
  8
0
 10
61.736037524702148
 20
60.684359750669579
 30
0.0
 70
    32
  0
VERTEX
  5
24A6
  8
0
 10
61.739711931591017
 20
60.653094465944037
 30
0.0
 70
    32
  0
VERTEX
  5
24A7
  8
0
 10
61.742833766573781
 20
60.621781914992773
 30
0.0
 70
    32
  0
VERTEX
  5
24A8
  8
0
 10
61.747403439734263
 20
60.558968918273528
 30
0.0
 70
    32
  0
VERTEX
  5
24A9
  8
0
 10
61.749709473736047
 20
60.495826617963608
 30
0.0
 70
    32
  0
VERTEX
  5
24AA
  8
0
 10
61.75
 20
60.464101615137757
 30
0.0
 70
    32
  0
SEQEND
  5
24AB
  8
0
  0
POLYLINE
  5
24AC
  8
0
 66
     1
 10
0.0
 20
0.0
 30
0.0
 70
     8
  0
VERTEX
  5
24AD
  8
0
 10
61.75
 20
60.464101615137757
 30
0.0
 70
    32
  0
VERTEX
  5
24AE
  8
0
 10
61.749709473736047
 20
60.432376612311707
 30
0.0
 70
    32
  0
VERTEX
  5
24AF
  8
0
 10
61.747403439734263
 20
60.369234312001538
 30
0.0
 70
    32
  0
VERTEX
  5
24B0
  8
0
 10
61.742833766573789
 20
60.30642131528208
 30
0.0
 70
    32
  0
VERTEX
  5
24B1
  8
0
 10
61.739711931591032
 20
60.275108764330689
 30
0.0
 70
    32
  0
VERTEX
  5
24B2
  8
0
 10
61.736037524702148
 20
60.24384347960509
 30
0.0
 70
    32
  0
VERTEX
  5
24B3
  8
0
 10
61.727044682965712
 20
60.181409625951233
 30
0.0
 70
    32
  0
VERTEX
  5
24B4
  8
0
 10
61.715878455336927
 20
60.119031031290262
 30
0.0
 70
    32
  0
VERTEX
  5
24B5
  8
0
 10
61.702555589435192
 20
60.056620955058918
 30
0.0
 70
    32
  0
VERTEX
  5
24B6
  8
0
 10
61.68708660179778
 20
59.994094193832041
 30
0.0
 70
    32
  0
VERTEX
  5
24B7
  8
0
 10
61.669475963975607
 20
59.93136665895949
 30
0.0
 70
    32
  0
VERTEX
  5
24B8
  8
0
 10
61.659867306082667
 20
59.899901528765923
 30
0.0
 70
    32
  0
VERTEX
  5
24B9
  8
0
 10
61.64972224275121
 20
59.868354972428989
 30
0.0
 70
    32
  0
VERTEX
  5
24BA
  8
0
 10
61.62781819708367
 20
59.804976076603822
 30
0.0
 70
    32
  0
VERTEX
  5
24BB
  8
0
 10
61.603750833760358
 20
59.74114685379061
 30
0.0
 70
    32
  0
VERTEX
  5
24BC
  8
0
 10
61.577501423161181
 20
59.676783751821567
 30
0.0
 70
    32
  0
VERTEX
  5
24BD
  8
0
 10
61.549045476006192
 20
59.611802411997701
 30
0.0
 70
    32
  0
VERTEX
  5
24BE
  8
0
 10
61.518352681448818
 20
59.546117295837547
 30
0.0
 70
    32
  0
VERTEX
  5
24BF
  8
0
 10
61.50215637844429
 20
59.512983675398623
 30
0.0
 70
    32
  0
VERTEX
  5
24C0
  8
0
 10
61.48538680638395
 20
59.479641307116047
 30
0.0
 70
    32
  0
VERTEX
  5
24C1
  8
0
 10
61.450105555352643
 20
59.412285405658942
 30
0.0
 70
    32
  0
VERTEX
  5
24C2
  8
0
 10
61.412460389932761
 20
59.343958209282761
 30
0.0
 70
    32
  0
VERTEX
  5
24C3
  8
0
 10
61.39273441009184
 20
59.30940107675849
 30
0.0
 70
    32
  0
SEQEND
  5
24C4
  8
0
  0
LINE
  5
24C5
  8
0
 10
61.39273441009184
 20
59.30940107675849
 30
0.0
 11
56.75
 21
59.30940107675849
 31
0.0
  0
POLYLINE
  5
24C6
  8
0
 66
     1
 10
0.0
 20
0.0
 30
0.0
 70
     8
  0
VERTEX
  5
24C7
  8
0
 10
61.39273441009184
 20
59.30940107675849
 30
0.0
 70
    32
  0
VERTEX
  5
24C8
  8
0
 10
61.412460389932761
 20
59.240286811709751
 30
0.0
 70
    32
  0
VERTEX
  5
24C9
  8
0
 10
61.450105555352629
 20
59.10363241895692
 30
0.0
 70
    32
  0
VERTEX
  5
24CA
  8
0
 10
61.485386806383929
 20
58.968920616042283
 30
0.0
 70
    32
  0
VERTEX
  5
24CB
  8
0
 10
61.502156378444262
 20
58.902235879476912
 30
0.0
 70
    32
  0
VERTEX
  5
24CC
  8
0
 10
61.518352681448782
 20
58.835968638598899
 30
0.0
 70
    32
  0
VERTEX
  5
24CD
  8
0
 10
61.549045476006157
 20
58.704598406278279
 30
0.0
 70
    32
  0
VERTEX
  5
24CE
  8
0
 10
61.577501423161152
 20
58.574635726630298
 30
0.0
 70
    32
  0
VERTEX
  5
24CF
  8
0
 10
61.60375083376033
 20
58.445909522692041
 30
0.0
 70
    32
  0
VERTEX
  5
24D0
  8
0
 10
61.627818197083641
 20
58.31825107706544
 30
0.0
 70
    32
  0
VERTEX
  5
24D1
  8
0
 10
61.649722242751189
 20
58.191493285414992
 30
0.0
 70
    32
  0
VERTEX
  5
24D2
  8
0
 10
61.659867306082639
 20
58.128400172741117
 30
0.0
 70
    32
  0
VERTEX
  5
24D3
  8
0
 10
61.6694759639756
 20
58.065469912353961
 30
0.0
 70
    32
  0
VERTEX
  5
24D4
  8
0
 10
61.687086601797773
 20
57.940014842608953
 30
0.0
 70
    32
  0
VERTEX
  5
24D5
  8
0
 10
61.702555589435192
 20
57.814961320155248
 30
0.0
 70
    32
  0
VERTEX
  5
24D6
  8
0
 10
61.715878455336927
 20
57.690141167692701
 30
0.0
 70
    32
  0
VERTEX
  5
24D7
  8
0
 10
61.727044682965698
 20
57.565383978370988
 30
0.0
 70
    32
  0
VERTEX
  5
24D8
  8
0
 10
61.736037524702148
 20
57.440516271063643
 30
0.0
 70
    32
  0
VERTEX
  5
24D9
  8
0
 10
61.739711931591017
 20
57.377985701612573
 30
0.0
 70
    32
  0
VERTEX
  5
24DA
  8
0
 10
61.742833766573781
 20
57.315360599710033
 30
0.0
 70
    32
  0
VERTEX
  5
24DB
  8
0
 10
61.747403439734263
 20
57.189734606271571
 30
0.0
 70
    32
  0
VERTEX
  5
24DC
  8
0
 10
61.749709473736047
 20
57.06345000565176
 30
0.0
 70
    32
  0
VERTEX
  5
24DD
  8
0
 10
61.75
 20
57.0
 30
0.0
 70
    32
  0
SEQEND
  5
24DE
  8
0
  0
POLYLINE
  5
24DF
  8
0
 66
     1
 10
0.0
 20
0.0
 30
0.0
 70
     8
  0
VERTEX
  5
24E0
  8
0
 10
61.75
 20
57.0
 30
0.0
 70
    32
  0
VERTEX
  5
24E1
  8
0
 10
61.749709473736047
 20
56.936549994347949
 30
0.0
 70
    32
  0
VERTEX
  5
24E2
  8
0
 10
61.747403439734263
 20
56.810265393727583
 30
0.0
 70
    32
  0
VERTEX
  5
24E3
  8
0
 10
61.742833766573781
 20
56.68463940028866
 30
0.0
 70
    32
  0
VERTEX
  5
24E4
  8
0
 10
61.739711931591017
 20
56.622014298385892
 30
0.0
 70
    32
  0
VERTEX
  5
24E5
  8
0
 10
61.736037524702148
 20
56.559483728934651
 30
0.0
 70
    32
  0
VERTEX
  5
24E6
  8
0
 10
61.727044682965712
 20
56.434616021626987
 30
0.0
 70
    32
  0
VERTEX
  5
24E7
  8
0
 10
61.715878455336927
 20
56.309858832305054
 30
0.0
 70
    32
  0
VERTEX
  5
24E8
  8
0
 10
61.702555589435192
 20
56.185038679842343
 30
0.0
 70
    32
  0
VERTEX
  5
24E9
  8
0
 10
61.68708660179778
 20
56.059985157388553
 30
0.0
 70
    32
  0
VERTEX
  5
24EA
  8
0
 10
61.669475963975607
 20
55.934530087643481
 30
0.0
 70
    32
  0
VERTEX
  5
24EB
  8
0
 10
61.65986730608266
 20
55.87159982725634
 30
0.0
 70
    32
  0
VERTEX
  5
24EC
  8
0
 10
61.64972224275121
 20
55.808506714582471
 30
0.0
 70
    32
  0
VERTEX
  5
24ED
  8
0
 10
61.62781819708367
 20
55.681748922932137
 30
0.0
 70
    32
  0
VERTEX
  5
24EE
  8
0
 10
61.603750833760358
 20
55.554090477305692
 30
0.0
 70
    32
  0
VERTEX
  5
24EF
  8
0
 10
61.577501423161181
 20
55.425364273367649
 30
0.0
 70
    32
  0
VERTEX
  5
24F0
  8
0
 10
61.549045476006192
 20
55.295401593719902
 30
0.0
 70
    32
  0
VERTEX
  5
24F1
  8
0
 10
61.518352681448818
 20
55.164031361399601
 30
0.0
 70
    32
  0
VERTEX
  5
24F2
  8
0
 10
61.50215637844429
 20
55.097764120521752
 30
0.0
 70
    32
  0
VERTEX
  5
24F3
  8
0
 10
61.48538680638395
 20
55.031079383956609
 30
0.0
 70
    32
  0
VERTEX
  5
24F4
  8
0
 10
61.450105555352643
 20
54.896367581042369
 30
0.0
 70
    32
  0
VERTEX
  5
24F5
  8
0
 10
61.412460389932761
 20
54.75971318829
 30
0.0
 70
    32
  0
VERTEX
  5
24F6
  8
0
 10
61.39273441009184
 20
54.69059892324151
 30
0.0
 70
    32
  0
SEQEND
  5
24F7
  8
0
  0
LINE
  5
24F8
  8
0
 10
61.39273441009184
 20
54.69059892324151
 30
0.0
 11
56.75
 21
54.69059892324151
 31
0.0
  0
POLYLINE
  5
24F9
  8
0
 66
     1
 10
0.0
 20
0.0
 30
0.0
 70
     8
  0
VERTEX
  5
24FA
  8
0
 10
61.39273441009184
 20
54.69059892324151
 30
0.0
 70
    32
  0
VERTEX
  5
24FB
  8
0
 10
61.412460389932761
 20
54.656041790717119
 30
0.0
 70
    32
  0
VERTEX
  5
24FC
  8
0
 10
61.450105555352629
 20
54.587714594340689
 30
0.0
 70
    32
  0
VERTEX
  5
24FD
  8
0
 10
61.485386806383929
 20
54.52035869288337
 30
0.0
 70
    32
  0
VERTEX
  5
24FE
  8
0
 10
61.502156378444262
 20
54.48701632460071
 30
0.0
 70
    32
  0
VERTEX
  5
24FF
  8
0
 10
61.518352681448782
 20
54.453882704161678
 30
0.0
 70
    32
  0
VERTEX
  5
2500
  8
0
 10
61.54904547600615
 20
54.38819758800139
 30
0.0
 70
    32
  0
VERTEX
  5
2501
  8
0
 10
61.577501423161152
 20
54.323216248177403
 30
0.0
 70
    32
  0
VERTEX
  5
2502
  8
0
 10
61.60375083376033
 20
54.258853146208253
 30
0.0
 70
    32
  0
VERTEX
  5
2503
  8
0
 10
61.627818197083641
 20
54.195023923394949
 30
0.0
 70
    32
  0
VERTEX
  5
2504
  8
0
 10
61.649722242751189
 20
54.131645027569732
 30
0.0
 70
    32
  0
VERTEX
  5
2505
  8
0
 10
61.659867306082639
 20
54.100098471232798
 30
0.0
 70
    32
  0
VERTEX
  5
2506
  8
0
 10
61.6694759639756
 20
54.068633341039231
 30
0.0
 70
    32
  0
VERTEX
  5
2507
  8
0
 10
61.687086601797773
 20
54.005905806166709
 30
0.0
 70
    32
  0
VERTEX
  5
2508
  8
0
 10
61.702555589435192
 20
53.94337904493986
 30
0.0
 70
    32
  0
VERTEX
  5
2509
  8
0
 10
61.715878455336927
 20
53.880968968708601
 30
0.0
 70
    32
  0
VERTEX
  5
250A
  8
0
 10
61.727044682965698
 20
53.818590374047737
 30
0.0
 70
    32
  0
VERTEX
  5
250B
  8
0
 10
61.736037524702148
 20
53.756156520394057
 30
0.0
 70
    32
  0
VERTEX
  5
250C
  8
0
 10
61.739711931591017
 20
53.724891235668537
 30
0.0
 70
    32
  0
VERTEX
  5
250D
  8
0
 10
61.742833766573781
 20
53.693578684717266
 30
0.0
 70
    32
  0
VERTEX
  5
250E
  8
0
 10
61.747403439734263
 20
53.630765687998043
 30
0.0
 70
    32
  0
VERTEX
  5
250F
  8
0
 10
61.749709473736047
 20
53.567623387688108
 30
0.0
 70
    32
  0
VERTEX
  5
2510
  8
0
 10
61.75
 20
53.535898384862229
 30
0.0
 70
    32
  0
SEQEND
  5
2511
  8
0
  0
POLYLINE
  5
2512
  8
0
 66
     1
 10
0.0
 20
0.0
 30
0.0
 70
     8
  0
VERTEX
  5
2513
  8
0
 10
61.75
 20
53.535898384862229
 30
0.0
 70
    32
  0
VERTEX
  5
2514
  8
0
 10
61.749709473736047
 20
53.504173382036207
 30
0.0
 70
    32
  0
VERTEX
  5
2515
  8
0
 10
61.747403439734263
 20
53.441031081726031
 30
0.0
 70
    32
  0
VERTEX
  5
2516
  8
0
 10
61.742833766573781
 20
53.37821808500658
 30
0.0
 70
    32
  0
VERTEX
  5
2517
  8
0
 10
61.739711931591017
 20
53.346905534055189
 30
0.0
 70
    32
  0
VERTEX
  5
2518
  8
0
 10
61.736037524702148
 20
53.315640249329562
 30
0.0
 70
    32
  0
VERTEX
  5
2519
  8
0
 10
61.727044682965712
 20
53.253206395675733
 30
0.0
 70
    32
  0
VERTEX
  5
251A
  8
0
 10
61.715878455336927
 20
53.190827801014763
 30
0.0
 70
    32
  0
VERTEX
  5
251B
  8
0
 10
61.702555589435192
 20
53.128417724783418
 30
0.0
 70
    32
  0
VERTEX
  5
251C
  8
0
 10
61.68708660179778
 20
53.065890963556512
 30
0.0
 70
    32
  0
VERTEX
  5
251D
  8
0
 10
61.669475963975607
 20
53.00316342868399
 30
0.0
 70
    32
  0
VERTEX
  5
251E
  8
0
 10
61.65986730608266
 20
52.971698298490431
 30
0.0
 70
    32
  0
VERTEX
  5
251F
  8
0
 10
61.64972224275121
 20
52.940151742153489
 30
0.0
 70
    32
  0
VERTEX
  5
2520
  8
0
 10
61.62781819708367
 20
52.876772846328322
 30
0.0
 70
    32
  0
VERTEX
  5
2521
  8
0
 10
61.603750833760358
 20
52.812943623515082
 30
0.0
 70
    32
  0
VERTEX
  5
2522
  8
0
 10
61.577501423161181
 20
52.748580521546067
 30
0.0
 70
    32
  0
VERTEX
  5
2523
  8
0
 10
61.549045476006192
 20
52.683599181722201
 30
0.0
 70
    32
  0
VERTEX
  5
2524
  8
0
 10
61.518352681448818
 20
52.617914065562047
 30
0.0
 70
    32
  0
VERTEX
  5
2525
  8
0
 10
61.50215637844429
 20
52.58478044512313
 30
0.0
 70
    32
  0
VERTEX
  5
2526
  8
0
 10
61.48538680638395
 20
52.551438076840547
 30
0.0
 70
    32
  0
VERTEX
  5
2527
  8
0
 10
61.450105555352643
 20
52.484082175383442
 30
0.0
 70
    32
  0
VERTEX
  5
2528
  8
0
 10
61.412460389932761
 20
52.415754979007232
 30
0.0
 70
    32
  0
VERTEX
  5
2529
  8
0
 10
61.39273441009184
 20
52.381197846482991
 30
0.0
 70
    32
  0
SEQEND
  5
252A
  8
0
  0
LINE
  5
252B
  8
0
 10
56.75
 20
52.381197846482991
 30
0.0
 11
56.75
 21
61.618802153517002
 31
0.0
  0
LINE
  5
252C
  8
0
 10
61.39273441009184
 20
52.381197846482991
 30
0.0
 11
56.75
 21
52.381197846482991
 31
0.0
  0
LINE
  5
252D
  8
0
 10
61.39273441009184
 20
61.618802153517002
 30
0.0
 11
56.75
 21
61.618802153517002
 31
0.0
  0
ARC
  5
256E
  8
2
 10
80.950000000000017
 20
27.0
 30
0.0
 40
10.000000000000041
 50
145.08479375255621
 51
214.91520624744371
  0
LINE
  5
25A2
  8
1
 10
75.75
 20
27.0
 30
0.0
 11
44.249999999999979
 21
27.0
 31
0.0
  0
ARC
  5
25A3
  8
0
 10
71.949999999999989
 20
33.199999999999989
 30
0.0
 40
0.7999999999999991
 50
0.0
 51
90.0
  0
ARC
  5
25A4
  8
0
 10
71.949999999999989
 20
20.800000000000011
 30
0.0
 40
0.7999999999999999
 50
270.0
 51
0.0
  0
LINE
  5
25A5
  8
0
 10
71.648980198052072
 20
20.0
 30
0.0
 11
71.949999999999989
 21
20.0
 31
0.0
  0
LINE
  5
25A6
  8
0
 10
71.949999999999989
 20
34.0
 30
0.0
 11
71.648980198052072
 21
34.0
 31
0.0
  0
LINE
  5
25A7
  8
0
 10
67.549999999999983
 20
23.0
 30
0.0
 11
71.648980198052072
 21
20.0
 31
0.0
  0
LINE
  5
25A8
  8
0
 10
71.648980198052072
 20
34.0
 30
0.0
 11
67.550000000000011
 21
31.0
 31
0.0
  0
LINE
  5
25A9
  8
0
 10
62.103553390593262
 20
23.0
 30
0.0
 11
67.549999999999983
 21
23.0
 31
0.0
  0
LINE
  5
25AA
  8
0
 10
67.550000000000011
 20
31.0
 30
0.0
 11
62.10355339059327
 21
31.0
 31
0.0
  0
LINE
  5
25AB
  8
0
 10
61.751003362341471
 20
23.35255002825178
 30
0.0
 11
62.103553390593262
 21
23.0
 31
0.0
  0
LINE
  5
25AC
  8
0
 10
62.10355339059327
 20
31.0
 30
0.0
 11
61.749999999999993
 21
30.64644660940672
 31
0.0
  0
LINE
  5
25AD
  8
0
 10
48.049999999999983
 20
25.5
 30
0.0
 11
50.749999999999993
 21
25.5
 31
0.0
  0
LINE
  5
25AE
  8
0
 10
50.749999999999993
 20
28.5
 30
0.0
 11
48.049999999999983
 21
28.5
 31
0.0
  0
LINE
  5
25AF
  8
0
 10
47.490525138289648
 20
25.823012962013291
 30
0.0
 11
48.049999999999983
 21
25.5
 31
0.0
  0
LINE
  5
25B0
  8
0
 10
48.049999999999983
 20
28.5
 30
0.0
 11
47.490525138289662
 21
28.17698703798672
 31
0.0
  0
LINE
  5
25B5
  8
0
 10
72.75
 20
33.199999999999989
 30
0.0
 11
72.75
 21
20.800000000000011
 31
0.0
  0
LINE
  5
25B6
  8
0
 10
71.949999999999989
 20
34.0
 30
0.0
 11
71.949999999999989
 21
20.0
 31
0.0
  0
LINE
  5
25B7
  8
0
 10
71.648980198052072
 20
34.0
 30
0.0
 11
71.648980198052072
 21
20.0
 31
0.0
  0
LINE
  5
25B8
  8
0
 10
67.550000000000011
 20
31.0
 30
0.0
 11
67.549999999999983
 21
23.0
 31
0.0
  0
LINE
  5
25B9
  8
0
 10
62.10355339059327
 20
31.0
 30
0.0
 11
62.103553390593262
 21
23.0
 31
0.0
  0
LINE
  5
25BA
  8
0
 10
48.049999999999983
 20
28.5
 30
0.0
 11
48.049999999999983
 21
25.5
 31
0.0
  0
LINE
  5
25BE
  8
0
 10
61.749999999999993
 20
31.0
 30
0.0
 11
61.749999999999993
 21
23.0
 31
0.0
  0
LINE
  5
25BF
  8
0
 10
61.749999999999993
 20
31.0
 30
0.0
 11
56.749999999999993
 21
31.0
 31
0.0
  0
POLYLINE
  5
25C0
  8
0
 66
     1
 10
0.0
 20
0.0
 30
0.0
 70
     8
  0
VERTEX
  5
25C1
  8
0
 10
61.39273441009184
 20
31.0
 30
0.0
 70
    32
  0
VERTEX
  5
25C2
  8
0
 10
61.412460389932747
 20
30.940145290703899
 30
0.0
 70
    32
  0
VERTEX
  5
25C3
  8
0
 10
61.450105555352621
 20
30.821799115041191
 30
0.0
 70
    32
  0
VERTEX
  5
25C4
  8
0
 10
61.485386806383922
 20
30.705135271527531
 30
0.0
 70
    32
  0
VERTEX
  5
25C5
  8
0
 10
61.502156378444248
 20
30.64738459561724
 30
0.0
 70
    32
  0
VERTEX
  5
25C6
  8
0
 10
61.518352681448782
 20
30.5899954815782
 30
0.0
 70
    32
  0
VERTEX
  5
25C7
  8
0
 10
61.54904547600615
 20
30.476225523087471
 30
0.0
 70
    32
  0
VERTEX
  5
25C8
  8
0
 10
61.577501423161138
 20
30.36367454096839
 30
0.0
 70
    32
  0
VERTEX
  5
25C9
  8
0
 10
61.603750833760323
 20
30.252194378225141
 30
0.0
 70
    32
  0
VERTEX
  5
25CA
  8
0
 10
61.627818197083641
 20
30.14163892130486
 30
0.0
 70
    32
  0
VERTEX
  5
25CB
  8
0
 10
61.649722242751182
 20
30.031863453607968
 30
0.0
 70
    32
  0
VERTEX
  5
25CC
  8
0
 10
61.659867306082631
 20
29.977223215228548
 30
0.0
 70
    32
  0
VERTEX
  5
25CD
  8
0
 10
61.669475963975593
 20
29.922724011066521
 30
0.0
 70
    32
  0
VERTEX
  5
25CE
  8
0
 10
61.687086601797759
 20
29.81407673363378
 30
0.0
 70
    32
  0
VERTEX
  5
25CF
  8
0
 10
61.702555589435178
 20
29.705777206356149
 30
0.0
 70
    32
  0
VERTEX
  5
25D0
  8
0
 10
61.71587845533692
 20
29.597679783419331
 30
0.0
 70
    32
  0
VERTEX
  5
25D1
  8
0
 10
61.72704468296569
 20
29.489636888161979
 30
0.0
 70
    32
  0
VERTEX
  5
25D2
  8
0
 10
61.736037524702141
 20
29.38149828152152
 30
0.0
 70
    32
  0
VERTEX
  5
25D3
  8
0
 10
61.73971193159101
 20
29.327345219863791
 30
0.0
 70
    32
  0
VERTEX
  5
25D4
  8
0
 10
61.742833766573781
 20
29.27311029070157
 30
0.0
 70
    32
  0
VERTEX
  5
25D5
  8
0
 10
61.747403439734249
 20
29.164314989008201
 30
0.0
 70
    32
  0
VERTEX
  5
25D6
  8
0
 10
61.749709473736047
 20
29.054949316764692
 30
0.0
 70
    32
  0
VERTEX
  5
25D7
  8
0
 10
61.749999999999993
 20
29.0
 30
0.0
 70
    32
  0
SEQEND
  5
25D8
  8
0
  0
POLYLINE
  5
25D9
  8
0
 66
     1
 10
0.0
 20
0.0
 30
0.0
 70
     8
  0
VERTEX
  5
25DA
  8
0
 10
61.749999999999993
 20
29.0
 30
0.0
 70
    32
  0
VERTEX
  5
25DB
  8
0
 10
61.749709473736047
 20
28.945050683235049
 30
0.0
 70
    32
  0
VERTEX
  5
25DC
  8
0
 10
61.747403439734249
 20
28.835685010991028
 30
0.0
 70
    32
  0
VERTEX
  5
25DD
  8
0
 10
61.742833766573781
 20
28.726889709297271
 30
0.0
 70
    32
  0
VERTEX
  5
25DE
  8
0
 10
61.739711931591017
 20
28.672654780134909
 30
0.0
 70
    32
  0
VERTEX
  5
25DF
  8
0
 10
61.736037524702141
 20
28.61850171847701
 30
0.0
 70
    32
  0
VERTEX
  5
25E0
  8
0
 10
61.727044682965698
 20
28.510363111836259
 30
0.0
 70
    32
  0
VERTEX
  5
25E1
  8
0
 10
61.715878455336927
 20
28.402320216578719
 30
0.0
 70
    32
  0
VERTEX
  5
25E2
  8
0
 10
61.702555589435192
 20
28.294222793641751
 30
0.0
 70
    32
  0
VERTEX
  5
25E3
  8
0
 10
61.68708660179778
 20
28.18592326636406
 30
0.0
 70
    32
  0
VERTEX
  5
25E4
  8
0
 10
61.669475963975607
 20
28.077275988931259
 30
0.0
 70
    32
  0
VERTEX
  5
25E5
  8
0
 10
61.65986730608266
 20
28.022776784769238
 30
0.0
 70
    32
  0
VERTEX
  5
25E6
  8
0
 10
61.649722242751203
 20
27.96813654638985
 30
0.0
 70
    32
  0
VERTEX
  5
25E7
  8
0
 10
61.627818197083663
 20
27.85836107869304
 30
0.0
 70
    32
  0
VERTEX
  5
25E8
  8
0
 10
61.603750833760351
 20
27.747805621772901
 30
0.0
 70
    32
  0
VERTEX
  5
25E9
  8
0
 10
61.577501423161181
 20
27.63632545902982
 30
0.0
 70
    32
  0
VERTEX
  5
25EA
  8
0
 10
61.549045476006192
 20
27.52377447691098
 30
0.0
 70
    32
  0
VERTEX
  5
25EB
  8
0
 10
61.51835268144881
 20
27.410004518420521
 30
0.0
 70
    32
  0
VERTEX
  5
25EC
  8
0
 10
61.50215637844429
 20
27.352615404381631
 30
0.0
 70
    32
  0
VERTEX
  5
25ED
  8
0
 10
61.485386806383943
 20
27.294864728471509
 30
0.0
 70
    32
  0
VERTEX
  5
25EE
  8
0
 10
61.450105555352643
 20
27.178200884958191
 30
0.0
 70
    32
  0
VERTEX
  5
25EF
  8
0
 10
61.412460389932761
 20
27.05985470929588
 30
0.0
 70
    32
  0
VERTEX
  5
25F0
  8
0
 10
61.392734410091833
 20
27.0
 30
0.0
 70
    32
  0
SEQEND
  5
25F1
  8
0
  0
LINE
  5
25F2
  8
0
 10
56.749999999999993
 20
23.0
 30
0.0
 11
56.749999999999993
 21
31.0
 31
0.0
  0
LINE
  5
25F3
  8
0
 10
56.749999999999993
 20
23.0
 30
0.0
 11
61.749999999999993
 21
23.0
 31
0.0
  0
LINE
  5
25F4
  8
0
 10
61.392734410091833
 20
27.0
 30
0.0
 11
56.749999999999993
 21
27.0
 31
0.0
  0
POLYLINE
  5
25F5
  8
0
 66
     1
 10
0.0
 20
0.0
 30
0.0
 70
     8
  0
VERTEX
  5
25F6
  8
0
 10
61.392734410091833
 20
27.0
 30
0.0
 70
    32
  0
VERTEX
  5
25F7
  8
0
 10
61.412460389932747
 20
26.940145290703899
 30
0.0
 70
    32
  0
VERTEX
  5
25F8
  8
0
 10
61.450105555352621
 20
26.821799115041191
 30
0.0
 70
    32
  0
VERTEX
  5
25F9
  8
0
 10
61.485386806383922
 20
26.705135271527531
 30
0.0
 70
    32
  0
VERTEX
  5
25FA
  8
0
 10
61.502156378444248
 20
26.64738459561724
 30
0.0
 70
    32
  0
VERTEX
  5
25FB
  8
0
 10
61.518352681448782
 20
26.5899954815782
 30
0.0
 70
    32
  0
VERTEX
  5
25FC
  8
0
 10
61.54904547600615
 20
26.476225523087461
 30
0.0
 70
    32
  0
VERTEX
  5
25FD
  8
0
 10
61.577501423161138
 20
26.36367454096839
 30
0.0
 70
    32
  0
VERTEX
  5
25FE
  8
0
 10
61.603750833760323
 20
26.252194378225141
 30
0.0
 70
    32
  0
VERTEX
  5
25FF
  8
0
 10
61.627818197083641
 20
26.14163892130486
 30
0.0
 70
    32
  0
VERTEX
  5
2600
  8
0
 10
61.649722242751182
 20
26.031863453607968
 30
0.0
 70
    32
  0
VERTEX
  5
2601
  8
0
 10
61.659867306082631
 20
25.977223215228548
 30
0.0
 70
    32
  0
VERTEX
  5
2602
  8
0
 10
61.669475963975593
 20
25.922724011066521
 30
0.0
 70
    32
  0
VERTEX
  5
2603
  8
0
 10
61.687086601797759
 20
25.81407673363378
 30
0.0
 70
    32
  0
VERTEX
  5
2604
  8
0
 10
61.702555589435178
 20
25.705777206356149
 30
0.0
 70
    32
  0
VERTEX
  5
2605
  8
0
 10
61.71587845533692
 20
25.597679783419331
 30
0.0
 70
    32
  0
VERTEX
  5
2606
  8
0
 10
61.72704468296569
 20
25.489636888161979
 30
0.0
 70
    32
  0
VERTEX
  5
2607
  8
0
 10
61.736037524702141
 20
25.38149828152152
 30
0.0
 70
    32
  0
VERTEX
  5
2608
  8
0
 10
61.73971193159101
 20
25.327345219863759
 30
0.0
 70
    32
  0
VERTEX
  5
2609
  8
0
 10
61.742833766573781
 20
25.27311029070157
 30
0.0
 70
    32
  0
VERTEX
  5
260A
  8
0
 10
61.747403439734249
 20
25.164314989008201
 30
0.0
 70
    32
  0
VERTEX
  5
260B
  8
0
 10
61.749709473736047
 20
25.054949316764692
 30
0.0
 70
    32
  0
VERTEX
  5
260C
  8
0
 10
61.749999999999993
 20
25.0
 30
0.0
 70
    32
  0
SEQEND
  5
260D
  8
0
  0
POLYLINE
  5
260E
  8
0
 66
     1
 10
0.0
 20
0.0
 30
0.0
 70
     8
  0
VERTEX
  5
260F
  8
0
 10
61.749999999999993
 20
25.0
 30
0.0
 70
    32
  0
VERTEX
  5
2610
  8
0
 10
61.749709473736047
 20
24.945050683235049
 30
0.0
 70
    32
  0
VERTEX
  5
2611
  8
0
 10
61.747403439734249
 20
24.835685010991028
 30
0.0
 70
    32
  0
VERTEX
  5
2612
  8
0
 10
61.742833766573781
 20
24.726889709297271
 30
0.0
 70
    32
  0
VERTEX
  5
2613
  8
0
 10
61.73971193159101
 20
24.672654780134909
 30
0.0
 70
    32
  0
VERTEX
  5
2614
  8
0
 10
61.736037524702141
 20
24.61850171847701
 30
0.0
 70
    32
  0
VERTEX
  5
2615
  8
0
 10
61.727044682965698
 20
24.510363111836259
 30
0.0
 70
    32
  0
VERTEX
  5
2616
  8
0
 10
61.715878455336927
 20
24.402320216578719
 30
0.0
 70
    32
  0
VERTEX
  5
2617
  8
0
 10
61.702555589435192
 20
24.294222793641779
 30
0.0
 70
    32
  0
VERTEX
  5
2618
  8
0
 10
61.68708660179778
 20
24.18592326636406
 30
0.0
 70
    32
  0
VERTEX
  5
2619
  8
0
 10
61.669475963975607
 20
24.07727598893127
 30
0.0
 70
    32
  0
VERTEX
  5
261A
  8
0
 10
61.659867306082653
 20
24.022776784769238
 30
0.0
 70
    32
  0
VERTEX
  5
261B
  8
0
 10
61.649722242751203
 20
23.968136546389839
 30
0.0
 70
    32
  0
VERTEX
  5
261C
  8
0
 10
61.627818197083663
 20
23.85836107869304
 30
0.0
 70
    32
  0
VERTEX
  5
261D
  8
0
 10
61.603750833760351
 20
23.747805621772901
 30
0.0
 70
    32
  0
VERTEX
  5
261E
  8
0
 10
61.577501423161181
 20
23.63632545902982
 30
0.0
 70
    32
  0
VERTEX
  5
261F
  8
0
 10
61.549045476006192
 20
23.523774476910969
 30
0.0
 70
    32
  0
VERTEX
  5
2620
  8
0
 10
61.51835268144881
 20
23.410004518420521
 30
0.0
 70
    32
  0
VERTEX
  5
2621
  8
0
 10
61.50215637844429
 20
23.35261540438162
 30
0.0
 70
    32
  0
VERTEX
  5
2622
  8
0
 10
61.485386806383943
 20
23.294864728471509
 30
0.0
 70
    32
  0
VERTEX
  5
2623
  8
0
 10
61.450105555352643
 20
23.178200884958191
 30
0.0
 70
    32
  0
VERTEX
  5
2624
  8
0
 10
61.412460389932761
 20
23.059854709295909
 30
0.0
 70
    32
  0
VERTEX
  5
2625
  8
0
 10
61.392734410091833
 20
23.0
 30
0.0
 70
    32
  0
SEQEND
  5
2626
  8
0
  0
CIRCLE
  5
2645
  8
3
 10
20.0
 20
57.0
 30
0.0
 40
2.539999999999992
  0
ARC
  5
284F
  8
0
 10
50.25
 20
57.0
 30
0.0
 40
3.0
 50
156.90050479442351
 51
203.0994952055764
  0
LINE
  5
2B60
  8
0
 10
47.490525138289662
 20
28.176987037986741
 30
0.0
 11
47.490525138289669
 21
25.823012962013252
 31
0.0
  0
ARC
  5
2B61
  8
0
 10
50.249999999999993
 20
27.0
 30
0.0
 40
3.0
 50
156.90050479442351
 51
203.09949520557649
  0
CIRCLE
  5
2C0F
  8
0
 10
20.0
 20
57.0
 30
0.0
 40
1.177
  0
LINE
  5
2E3E
  8
3
 10
54.895334570342627
 20
59.458500000000079
 30
0.0
 11
51.008500000000048
 21
59.458500000000079
 31
0.0
  0
LINE
  5
2E3F
  8
3
 10
54.89533457024482
 20
54.541499999999907
 30
0.0
 11
51.008500000000048
 21
54.541499999999928
 31
0.0
  0
LINE
  5
3041
  8
0
 10
51.549999999999983
 20
60.0
 30
0.0
 11
50.749999999999972
 21
59.20000000000001
 31
0.0
  0
LINE
  5
3042
  8
0
 10
54.25
 20
60.0
 30
0.0
 11
51.549999999999983
 21
60.0
 31
0.0
  0
LINE
  5
3043
  8
0
 10
54.25
 20
54.0
 30
0.0
 11
55.036112448799969
 21
54.65962666599998
 31
0.0
  0
LINE
  5
3044
  8
0
 10
55.036112448799969
 20
59.340373334100001
 30
0.0
 11
54.25
 21
60.0
 31
0.0
  0
ARC
  5
3045
  8
0
 10
56.150000000000013
 20
54.199999999999989
 30
0.0
 40
0.5999999999999944
 50
0.0
 51
90.0
  0
ARC
  5
3046
  8
0
 10
56.150000000000013
 20
59.799999999999983
 30
0.0
 40
0.5999999999999944
 50
270.0
 51
0.0
  0
ARC
  5
3047
  8
0
 10
55.421785014599969
 20
54.199999999999989
 30
0.0
 40
0.5999999999999944
 50
90.0
 51
129.99999999999989
  0
ARC
  5
3048
  8
0
 10
55.421785014599969
 20
59.799999999999983
 30
0.0
 40
0.5999999999999944
 50
230.00000000000011
 51
270.0
  0
LINE
  5
3049
  8
0
 10
56.150000000000013
 20
59.20000000000001
 30
0.0
 11
55.421785014599969
 21
59.20000000000001
 31
0.0
  0
LINE
  5
304A
  8
0
 10
55.421785014599969
 20
54.800000000000011
 30
0.0
 11
56.150000000000013
 21
54.800000000000011
 31
0.0
  0
LINE
  5
304B
  8
0
 10
50.749999999999972
 20
59.20000000000001
 30
0.0
 11
50.749999999999972
 21
54.799999999999983
 31
0.0
  0
LINE
  5
304C
  8
0
 10
51.549999999999983
 20
60.0
 30
0.0
 11
51.549999999999983
 21
54.0
 31
0.0
  0
LINE
  5
304D
  8
0
 10
54.25
 20
60.0
 30
0.0
 11
54.25
 21
54.0
 31
0.0
  0
LINE
  5
304E
  8
0
 10
51.549999999999983
 20
54.0
 30
0.0
 11
50.749999999999972
 21
54.799999999999983
 31
0.0
  0
LINE
  5
304F
  8
0
 10
54.25
 20
54.0
 30
0.0
 11
51.549999999999983
 21
54.0
 31
0.0
  0
LINE
  5
3050
  8
3
 10
54.895334570342619
 20
29.45850000000009
 30
0.0
 11
51.008500000000041
 21
29.45850000000009
 31
0.0
  0
LINE
  5
3051
  8
3
 10
54.895334570244813
 20
24.54149999999991
 30
0.0
 11
51.008500000000041
 21
24.541499999999932
 31
0.0
  0
LINE
  5
3052
  8
0
 10
51.549999999999969
 20
30.0
 30
0.0
 11
50.749999999999957
 21
29.200000000000021
 31
0.0
  0
LINE
  5
3053
  8
0
 10
54.249999999999993
 20
30.0
 30
0.0
 11
51.549999999999969
 21
30.0
 31
0.0
  0
LINE
  5
3054
  8
0
 10
54.249999999999993
 20
24.0
 30
0.0
 11
55.036112448799962
 21
24.65962666599998
 31
0.0
  0
LINE
  5
3055
  8
0
 10
55.036112448799962
 20
29.340373334100011
 30
0.0
 11
54.249999999999993
 21
30.0
 31
0.0
  0
ARC
  5
3056
  8
0
 10
56.149999999999999
 20
24.199999999999989
 30
0.0
 40
0.5999999999999944
 50
0.0
 51
90.0
  0
ARC
  5
3057
  8
0
 10
56.149999999999999
 20
29.79999999999999
 30
0.0
 40
0.5999999999999944
 50
270.0
 51
0.0
  0
ARC
  5
3058
  8
0
 10
55.421785014599962
 20
24.199999999999989
 30
0.0
 40
0.5999999999999944
 50
90.0
 51
129.99999999999989
  0
ARC
  5
3059
  8
0
 10
55.421785014599962
 20
29.79999999999999
 30
0.0
 40
0.5999999999999944
 50
230.00000000000011
 51
270.0
  0
LINE
  5
305A
  8
0
 10
56.149999999999999
 20
29.200000000000021
 30
0.0
 11
55.421785014599962
 21
29.200000000000021
 31
0.0
  0
LINE
  5
305B
  8
0
 10
55.421785014599962
 20
24.800000000000011
 30
0.0
 11
56.149999999999999
 21
24.800000000000011
 31
0.0
  0
LINE
  5
305C
  8
0
 10
50.749999999999957
 20
29.200000000000021
 30
0.0
 11
50.749999999999957
 21
24.79999999999999
 31
0.0
  0
LINE
  5
305D
  8
0
 10
51.549999999999969
 20
30.0
 30
0.0
 11
51.549999999999969
 21
24.0
 31
0.0
  0
LINE
  5
305E
  8
0
 10
54.249999999999993
 20
30.0
 30
0.0
 11
54.249999999999993
 21
24.0
 31
0.0
  0
LINE
  5
305F
  8
0
 10
51.549999999999969
 20
24.0
 30
0.0
 11
50.749999999999957
 21
24.79999999999999
 31
0.0
  0
LINE
  5
3060
  8
0
 10
54.249999999999993
 20
24.0
 30
0.0
 11
51.549999999999969
 21
24.0
 31
0.0
  0
ENDSEC
  0
EOF
