  0
SECTION
  2
HEADER
  9
$ACADVER
  1
AC1009
  9
$INSBASE
 10
0.0
 20
0.0
 30
0.0
  9
$EXTMIN
 10
0.0
 20
-1.4802182810368341
 30
0.0
  9
$EXTMAX
 10
151.0000000158235
 20
86.00000000791178
 30
0.0
  9
$LIMMIN
 10
0.0
 20
0.0
  9
$LIMMAX
 10
187.5
 20
135.0
  9
$ORTHOMODE
 70
     1
  9
$REGENMODE
 70
     1
  9
$FILLMODE
 70
     1
  9
$QTEXTMODE
 70
     0
  9
$MIRRTEXT
 70
     0
  9
$DRAGMODE
 70
     2
  9
$LTSCALE
 40
5.0
  9
$OSMODE
 70
    37
  9
$ATTMODE
 70
     1
  9
$TEXTSIZE
 40
4.0
  9
$TRACEWID
 40
0.05
  9
$TEXTSTYLE
  7
STANDARD
  9
$CLAYER
  8
0
  9
$CELTYPE
  6
BYLAYER
  9
$CECOLOR
 62
   256
  9
$DIMSCALE
 40
0.5
  9
$DIMASZ
 40
3.0
  9
$DIMEXO
 40
2.0
  9
$DIMDLI
 40
0.38
  9
$DIMRND
 40
0.0
  9
$DIMDLE
 40
0.0
  9
$DIMEXE
 40
2.0
  9
$DIMTP
 40
0.0
  9
$DIMTM
 40
0.0
  9
$DIMTXT
 40
3.0
  9
$DIMCEN
 40
0.0
  9
$DIMTSZ
 40
0.0
  9
$DIMTOL
 70
     0
  9
$DIMLIM
 70
     0
  9
$DIMTIH
 70
     0
  9
$DIMTOH
 70
     0
  9
$DIMSE1
 70
     0
  9
$DIMSE2
 70
     0
  9
$DIMTAD
 70
     1
  9
$DIMZIN
 70
     0
  9
$DIMBLK
  1

  9
$DIMASO
 70
     0
  9
$DIMSHO
 70
     0
  9
$DIMPOST
  1

  9
$DIMAPOST
  1

  9
$DIMALT
 70
     0
  9
$DIMALTD
 70
     2
  9
$DIMALTF
 40
25.399999999999999
  9
$DIMLFAC
 40
1.0
  9
$DIMTOFL
 70
     0
  9
$DIMTVP
 40
1.6000000000000001
  9
$DIMTIX
 70
     1
  9
$DIMSOXD
 70
     0
  9
$DIMSAH
 70
     0
  9
$DIMBLK1
  1

  9
$DIMBLK2
  1

  9
$DIMSTYLE
  2
STANDARD
  9
$DIMCLRD
 70
     0
  9
$DIMCLRE
 70
     0
  9
$DIMCLRT
 70
     0
  9
$DIMTFAC
 40
1.0
  9
$DIMGAP
 40
0.09
  9
$LUNITS
 70
     2
  9
$LUPREC
 70
     4
  9
$SKETCHINC
 40
0.1
  9
$FILLETRAD
 40
1.0
  9
$AUNITS
 70
     0
  9
$AUPREC
 70
     0
  9
$MENU
  1
E:\r13\win\SUPPORT\ACAD
  9
$ELEVATION
 40
0.0
  9
$PELEVATION
 40
0.0
  9
$THICKNESS
 40
0.0
  9
$LIMCHECK
 70
     0
  9
$BLIPMODE
 70
     0
  9
$CHAMFERA
 40
0.0
  9
$CHAMFERB
 40
0.0
  9
$SKPOLY
 70
     0
  9
$TDCREATE
 40
2449840.6143865739
  9
$TDUPDATE
 40
2458249.5924189361
  9
$TDINDWG
 40
0.2508260069
  9
$TDUSRTIMER
 40
0.2508260069
  9
$USRTIMER
 70
     1
  9
$ANGBASE
 50
0.0
  9
$ANGDIR
 70
     0
  9
$PDMODE
 70
     0
  9
$PDSIZE
 40
0.0
  9
$PLINEWID
 40
0.0
  9
$COORDS
 70
     1
  9
$SPLFRAME
 70
     0
  9
$SPLINETYPE
 70
     6
  9
$SPLINESEGS
 70
     8
  9
$ATTDIA
 70
     0
  9
$ATTREQ
 70
     1
  9
$HANDLING
 70
     1
  9
$HANDSEED
  5
1CA1
  9
$SURFTAB1
 70
     6
  9
$SURFTAB2
 70
     6
  9
$SURFTYPE
 70
     6
  9
$SURFU
 70
     6
  9
$SURFV
 70
     6
  9
$UCSNAME
  2

  9
$UCSORG
 10
0.0
 20
0.0
 30
0.0
  9
$UCSXDIR
 10
1.0
 20
0.0
 30
0.0
  9
$UCSYDIR
 10
0.0
 20
1.0
 30
0.0
  9
$PUCSNAME
  2

  9
$PUCSORG
 10
0.0
 20
0.0
 30
0.0
  9
$PUCSXDIR
 10
1.0
 20
0.0
 30
0.0
  9
$PUCSYDIR
 10
0.0
 20
1.0
 30
0.0
  9
$USERI1
 70
     0
  9
$USERI2
 70
     1
  9
$USERI3
 70
     1
  9
$USERI4
 70
     0
  9
$USERI5
 70
     0
  9
$USERR1
 40
0.0
  9
$USERR2
 40
0.0
  9
$USERR3
 40
0.0
  9
$USERR4
 40
0.0
  9
$USERR5
 40
0.0
  9
$WORLDVIEW
 70
     1
  9
$SHADEDGE
 70
     3
  9
$SHADEDIF
 70
    70
  9
$TILEMODE
 70
     1
  9
$MAXACTVP
 70
    16
  9
$PLIMCHECK
 70
     0
  9
$PEXTMIN
 10
1.0000000000000000E+020
 20
1.0000000000000000E+020
 30
1.0000000000000000E+020
  9
$PEXTMAX
 10
-1.0000000000000000E+020
 20
-1.0000000000000000E+020
 30
-1.0000000000000000E+020
  9
$PLIMMIN
 10
0.0
 20
0.0
  9
$PLIMMAX
 10
12.0
 20
9.0
  9
$UNITMODE
 70
     0
  9
$VISRETAIN
 70
     0
  9
$PLINEGEN
 70
     0
  9
$PSLTSCALE
 70
     0
  0
ENDSEC
  0
SECTION
  2
TABLES
  0
TABLE
  2
VPORT
 70
     1
  0
VPORT
  2
*ACTIVE
 70
     0
 10
0.0
 20
0.0
 11
1.0
 21
1.0
 12
80.407244047976533
 22
42.256759135321673
 13
0.0
 23
0.0
 14
5.0
 24
5.0
 15
5.0
 25
5.0
 16
0.0
 26
0.0
 36
1.0
 17
0.0
 27
0.0
 37
0.0
 40
88.756413994291222
 41
2.0984455958549222
 42
50.0
 43
0.0
 44
0.0
 50
0.0
 51
0.0
 71
     0
 72
   100
 73
     1
 74
     0
 75
     0
 76
     0
 77
     0
 78
     0
  0
ENDTAB
  0
TABLE
  2
LTYPE
 70
     4
  0
LTYPE
  2
CONTINUOUS
 70
     0
  3
Solid Line
 72
    65
 73
     0
 40
0.0
  0
LTYPE
  2
CENTER
 70
     0
  3
____ _ ____ _ ____ _ ____ _ ____ _ ____ _ ____
 72
    65
 73
     4
 40
2.0
 49
1.25
 49
-0.25
 49
0.25
 49
-0.25
  0
LTYPE
  2
HIDDEN
 70
     0
  3
_ _ _ _ _ _ _ _ _ _ _ _ _ _ _ _ _ _ _ _ _ _ _
 72
    65
 73
     2
 40
0.375
 49
0.25
 49
-0.125
  0
LTYPE
  2
PHANTOM2
 70
     0
  3
___ _ _ ___ _ _ ___ _ _ ___ _ _
 72
    65
 73
     6
 40
1.25
 49
0.625
 49
-0.125
 49
0.125
 49
-0.125
 49
0.125
 49
-0.125
  0
ENDTAB
  0
TABLE
  2
LAYER
 70
     4
  0
LAYER
  2
0
 70
     0
 62
     7
  6
CONTINUOUS
  0
LAYER
  2
1
 70
     0
 62
     1
  6
CENTER
  0
LAYER
  2
3
 70
     0
 62
     3
  6
CONTINUOUS
  0
LAYER
  2
2
 70
     0
 62
     2
  6
HIDDEN
  0
ENDTAB
  0
TABLE
  2
STYLE
 70
     2
  0
STYLE
  2
STANDARD
 70
     0
 40
0.0
 41
1.0
 50
0.0
 71
     0
 42
4.0
  3
TXT
  4
BIGFONT
  0
STYLE
  2
STANDARD1
 70
     0
 40
0.0
 41
1.0
 50
0.0
 71
     0
 42
3.0
  3
txt
  4

  0
ENDTAB
  0
TABLE
  2
VIEW
 70
     1
  0
VIEW
  2
ALL
 70
     0
 40
179.66152299999999
 10
141.903918
 20
89.830760999999995
 41
0.0
 11
0.0
 21
0.0
 31
1.0
 12
0.0
 22
0.0
 32
0.0
 42
0.0
 43
0.0
 44
0.0
 50
0.0
 71
     0
  0
ENDTAB
  0
TABLE
  2
UCS
 70
     0
  0
ENDTAB
  0
TABLE
  2
APPID
 70
     5
  0
APPID
  2
ACAD
 70
     0
  0
APPID
  2
DCO15
 70
     0
  0
APPID
  2
ACAD_MLEADERVER
 70
     0
  0
APPID
  2
ACAD_EXEMPT_FROM_CAD_STANDARDS
 70
     0
  0
APPID
  2
ACAD_NAV_VCDISPLAY
 70
     0
  0
ENDTAB
  0
TABLE
  2
DIMSTYLE
 70
     2
  0
DIMSTYLE
  2
STANDARD
 70
     0
  3

  4

  5

  6

  7

 40
1.0
 41
0.18
 42
0.0625
 43
0.38
 44
0.18
 45
0.0
 46
0.0
 47
0.0
 48
0.0
140
0.18
141
0.09
142
0.0
143
25.399999999999999
144
1.0
145
0.0
146
1.0
147
0.09
 71
     0
 72
     0
 73
     1
 74
     1
 75
     0
 76
     0
 77
     0
 78
     0
170
     0
171
     2
172
     0
173
     0
174
     0
175
     0
176
     0
177
     0
178
     0
  0
DIMSTYLE
  2
ISO-25
 70
     0
  3

  4

  5

  6

  7

 40
1.0
 41
2.5
 42
0.625
 43
3.75
 44
1.25
 45
0.0
 46
0.0
 47
0.0
 48
0.0
140
2.5
141
2.5
142
0.0
143
0.0393700787
144
1.0
145
0.0
146
1.0
147
0.625
 71
     0
 72
     0
 73
     0
 74
     0
 75
     0
 76
     0
 77
     1
 78
     8
170
     0
171
     3
172
     1
173
     0
174
     0
175
     0
176
     0
177
     0
178
     0
  0
ENDTAB
  0
ENDSEC
  0
SECTION
  2
BLOCKS
  0
BLOCK
  8
0
  2
$MODEL_SPACE
 70
     0
 10
0.0
 20
0.0
 30
0.0
  3
$MODEL_SPACE
  1

  0
ENDBLK
  5
1BD
  8
0
  0
BLOCK
 67
     1
  8
0
  2
$PAPER_SPACE
 70
     0
 10
0.0
 20
0.0
 30
0.0
  3
$PAPER_SPACE
  1

  0
ENDBLK
  5
1BB
 67
     1
  8
0
  0
BLOCK
  8
0
  2
MN-M10-L
 70
     0
 10
0.0
 20
0.0
 30
0.0
  3
MN-M10-L
  1

  0
LINE
  5
18EE
  8
0
 10
5.0
 20
0.0
 30
0.0
 11
5.0
 21
10.0
 31
0.0
  0
LINE
  5
18EF
  8
3
 10
4.1880000000000868
 20
0.0
 30
0.0
 11
4.1880000000000868
 21
10.0
 31
0.0
  0
LINE
  5
18F0
  8
3
 10
-4.1880000000000868
 20
0.0
 30
0.0
 11
-4.1880000000000868
 21
10.0
 31
0.0
  0
LINE
  5
18F1
  8
0
 10
-5.0
 20
0.0
 30
0.0
 11
-5.0
 21
10.0
 31
0.0
  0
ENDBLK
  5
18F3
  8
0
  0
ENDSEC
  0
SECTION
  2
ENTITIES
  0
LINE
  5
13B3
  8
1
 10
102.75000000791169
 20
70.5
 30
0.0
 11
58.250000007911773
 21
70.5
 31
0.0
  0
LINE
  5
13BE
  8
0
 10
76.250000007911765
 20
62.99444650053487
 30
0.0
 11
76.250000007911765
 21
78.005553499465179
 31
0.0
  0
LINE
  5
13C2
  8
0
 10
68.250000007911765
 20
74.886500000000012
 30
0.0
 11
68.250000007911765
 21
66.113499999999974
 31
0.0
  0
LINE
  5
13C3
  8
0
 10
68.863500007911753
 20
75.5
 30
0.0
 11
68.863500007911753
 21
65.5
 31
0.0
  0
LINE
  5
13C5
  8
0
 10
64.550000007911777
 20
73.0
 30
0.0
 11
64.550000007911777
 21
68.0
 31
0.0
  0
LINE
  5
13C7
  8
0
 10
90.450000007911754
 20
77.0
 30
0.0
 11
90.450000007911754
 21
64.0
 31
0.0
  0
LINE
  5
13C8
  8
0
 10
95.955527689796455
 20
81.0
 30
0.0
 11
95.955527689796455
 21
60.0
 31
0.0
  0
LINE
  5
13C9
  8
0
 10
96.335762557804927
 20
81.0
 30
0.0
 11
96.335762557804927
 21
60.0
 31
0.0
  0
LINE
  5
13CA
  8
0
 10
97.750000007911765
 20
80.0
 30
0.0
 11
97.750000007911765
 21
61.0
 31
0.0
  0
LINE
  5
13CD
  8
0
 10
68.863500007911753
 20
75.5
 30
0.0
 11
68.250000007911765
 21
74.886500000000012
 31
0.0
  0
LINE
  5
13CE
  8
0
 10
68.250000007911765
 20
66.113499999999974
 30
0.0
 11
68.863500007911753
 21
65.5
 31
0.0
  0
LINE
  5
13CF
  8
0
 10
73.750000007911765
 20
75.5
 30
0.0
 11
68.863500007911753
 21
75.5
 31
0.0
  0
LINE
  5
13D0
  8
0
 10
68.863500007911753
 20
65.5
 30
0.0
 11
73.750000007911765
 21
65.5
 31
0.0
  0
LINE
  5
13D1
  8
0
 10
64.550000007911777
 20
73.0
 30
0.0
 11
63.661877475617757
 21
72.487242216906679
 31
0.0
  0
LINE
  5
13D2
  8
0
 10
63.661877475617757
 20
68.512757783093335
 30
0.0
 11
64.550000007911777
 21
68.0
 31
0.0
  0
LINE
  5
13D3
  8
0
 10
68.250000007911765
 20
73.0
 30
0.0
 11
64.550000007911777
 21
73.0
 31
0.0
  0
LINE
  5
13D4
  8
0
 10
64.550000007911777
 20
68.0
 30
0.0
 11
68.250000007911765
 21
68.0
 31
0.0
  0
LINE
  5
13D9
  8
0
 10
95.955527689796455
 20
81.0
 30
0.0
 11
90.450000007911754
 21
77.0
 31
0.0
  0
LINE
  5
13DA
  8
0
 10
90.450000007911754
 20
64.0
 30
0.0
 11
95.955527689796455
 21
60.0
 31
0.0
  0
LINE
  5
13DB
  8
0
 10
96.335762557804927
 20
81.0
 30
0.0
 11
95.955527689796455
 21
81.0
 31
0.0
  0
LINE
  5
13DC
  8
0
 10
95.955527689796455
 20
60.0
 30
0.0
 11
96.335762557804927
 21
60.0
 31
0.0
  0
ARC
  5
13DD
  8
0
 10
96.335916610953717
 20
61.499815914910023
 30
0.0
 40
1.499815922821756
 50
269.99411488090612
 51
340.53375205062008
  0
ARC
  5
13DE
  8
0
 10
96.335916610953717
 20
79.500184085089984
 30
0.0
 40
1.4998159228217589
 50
19.466247949380779
 51
90.005885119093904
  0
ARC
  5
13DF
  8
2
 10
108.8500000079118
 20
70.5
 30
0.0
 40
14.00000000000005
 50
142.45332336004881
 51
217.5466766399511
  0
CIRCLE
  5
13E0
  8
0
 10
135.50000000791169
 20
70.500000000000057
 30
0.0
 40
9.5000000000000018
  0
CIRCLE
  5
13E1
  8
0
 10
135.50000000791169
 20
70.500000000000057
 30
0.0
 40
8.5317055739166197
  0
CIRCLE
  5
13E2
  8
0
 10
135.50000000791169
 20
70.500000000000057
 30
0.0
 40
10.50000000791176
  0
CIRCLE
  5
13E3
  8
0
 10
25.500000007911719
 20
70.500000000000028
 30
0.0
 40
10.50000000791176
  0
CIRCLE
  5
13E5
  8
0
 10
25.500000007911719
 20
70.500000000000028
 30
0.0
 40
5.0
  0
CIRCLE
  5
13E6
  8
0
 10
25.500000007911719
 20
70.500000000000028
 30
0.0
 40
2.5
  0
CIRCLE
  5
13E7
  8
3
 10
25.500000007911719
 20
70.500000000000028
 30
0.0
 40
4.3865000000000052
  0
LINE
  5
13E8
  8
1
 10
25.500000007911719
 20
86.00000000791178
 30
0.0
 11
25.500000007911719
 21
54.99999999208822
 31
0.0
  0
LINE
  5
13E9
  8
1
 10
10.0
 20
70.500000000000028
 30
0.0
 11
41.000000015823503
 21
70.499999999999972
 31
0.0
  0
LINE
  5
13EA
  8
1
 10
120.0
 20
70.5
 30
0.0
 11
151.0000000158235
 21
70.5
 31
0.0
  0
LINE
  5
13EB
  8
1
 10
135.50000000791169
 20
86.000000007911737
 30
0.0
 11
135.50000000791169
 21
54.999999992088242
 31
0.0
  0
ARC
  5
13EC
  8
2
 10
108.8500000079118
 20
30.5
 30
0.0
 40
14.00000000000005
 50
142.45332336004881
 51
217.5466766399511
  0
ARC
  5
13ED
  8
0
 10
96.335916610953689
 20
39.500184085089991
 30
0.0
 40
1.4998159228217589
 50
19.466247949380779
 51
90.005885119093904
  0
ARC
  5
13EE
  8
0
 10
96.335916610953689
 20
21.49981591491002
 30
0.0
 40
1.499815922821756
 50
269.99411488090612
 51
340.53375205062008
  0
LINE
  5
13EF
  8
0
 10
95.95552768979644
 20
20.0
 30
0.0
 11
96.335762557804912
 21
20.0
 31
0.0
  0
LINE
  5
13F0
  8
0
 10
96.335762557804912
 20
41.0
 30
0.0
 11
95.95552768979644
 21
41.0
 31
0.0
  0
LINE
  5
13F1
  8
0
 10
90.450000007911754
 20
24.0
 30
0.0
 11
95.95552768979644
 21
20.0
 31
0.0
  0
LINE
  5
13F2
  8
0
 10
95.95552768979644
 20
41.0
 30
0.0
 11
90.450000007911754
 21
37.0
 31
0.0
  0
LINE
  5
13FB
  8
0
 10
68.250000007911751
 20
26.113499999999991
 30
0.0
 11
68.863500007911739
 21
25.5
 31
0.0
  0
LINE
  5
13FC
  8
0
 10
68.863500007911739
 20
35.5
 30
0.0
 11
68.250000007911751
 21
34.886500000000019
 31
0.0
  0
LINE
  5
13FD
  8
0
 10
97.750000007911751
 20
40.0
 30
0.0
 11
97.750000007911751
 21
21.0
 31
0.0
  0
LINE
  5
13FE
  8
0
 10
96.335762557804912
 20
41.0
 30
0.0
 11
96.335762557804912
 21
20.0
 31
0.0
  0
LINE
  5
13FF
  8
0
 10
95.95552768979644
 20
41.0
 30
0.0
 11
95.95552768979644
 21
20.0
 31
0.0
  0
LINE
  5
1400
  8
0
 10
90.450000007911754
 20
37.0
 30
0.0
 11
90.450000007911754
 21
24.0
 31
0.0
  0
LINE
  5
1404
  8
0
 10
68.863500007911739
 20
35.5
 30
0.0
 11
68.863500007911739
 21
25.5
 31
0.0
  0
LINE
  5
1405
  8
0
 10
68.250000007911751
 20
34.886500000000019
 30
0.0
 11
68.250000007911751
 21
26.113499999999991
 31
0.0
  0
LINE
  5
1406
  8
1
 10
102.75000000791169
 20
30.5
 30
0.0
 11
58.250000007911751
 21
30.5
 31
0.0
  0
LINE
  5
140A
  8
0
 10
76.250000007911751
 20
24.0
 30
0.0
 11
76.250000007911751
 21
37.0
 31
0.0
  0
LINE
  5
1490
  8
0
 10
75.850000007911788
 20
74.5
 30
0.0
 11
74.558290384777223
 21
74.499999999999943
 31
0.0
  0
LINE
  5
1491
  8
0
 10
73.750000007911765
 20
75.5
 30
0.0
 11
73.750000007911765
 21
65.5
 31
0.0
  0
LINE
  5
1492
  8
0
 10
73.750000007911765
 20
75.5
 30
0.0
 11
74.211880223263464
 21
74.699999999999974
 31
0.0
  0
ARC
  5
1493
  8
0
 10
75.850000007911746
 20
74.900000000000034
 30
0.0
 40
0.4
 50
270.00000000000142
 51
0.0
  0
ARC
  5
1494
  8
0
 10
74.558290384777223
 20
74.899999999999977
 30
0.0
 40
0.4
 50
210.00000000000091
 51
270.0
  0
ARC
  5
1495
  8
0
 10
74.558290384777223
 20
66.10000000000008
 30
0.0
 40
0.4
 50
90.0
 51
149.99999999999901
  0
ARC
  5
1496
  8
0
 10
75.850000007911746
 20
66.100000000000023
 30
0.0
 40
0.4
 50
0.0
 51
89.999999999998565
  0
LINE
  5
1497
  8
0
 10
73.750000007911765
 20
65.500000000000057
 30
0.0
 11
74.211880223263464
 21
66.300000000000054
 31
0.0
  0
LINE
  5
1498
  8
0
 10
75.850000007911788
 20
66.500000000000057
 30
0.0
 11
74.558290384777223
 21
66.500000000000057
 31
0.0
  0
LINE
  5
1499
  8
0
 10
75.850000007911746
 20
26.5
 30
0.0
 11
74.558290384777195
 21
26.50000000000006
 31
0.0
  0
LINE
  5
149A
  8
0
 10
73.750000007911751
 20
25.5
 30
0.0
 11
74.211880223263449
 21
26.300000000000011
 31
0.0
  0
ARC
  5
149B
  8
0
 10
75.850000007911717
 20
26.099999999999969
 30
0.0
 40
0.4
 50
0.0
 51
89.999999999998565
  0
ARC
  5
149C
  8
0
 10
74.558290384777195
 20
26.100000000000019
 30
0.0
 40
0.4
 50
90.0
 51
149.99999999999901
  0
LINE
  5
149D
  8
0
 10
73.750000007911751
 20
35.499999999999943
 30
0.0
 11
73.750000007911751
 21
25.49999999999994
 31
0.0
  0
LINE
  5
149E
  8
0
 10
68.863500007911739
 20
25.49999999999994
 30
0.0
 11
73.750000007911751
 21
25.49999999999994
 31
0.0
  0
ARC
  5
14A0
  8
0
 10
74.558290384777195
 20
34.89999999999992
 30
0.0
 40
0.4
 50
210.00000000000091
 51
270.0
  0
ARC
  5
14A1
  8
0
 10
75.850000007911717
 20
34.899999999999977
 30
0.0
 40
0.4
 50
270.00000000000142
 51
0.0
  0
LINE
  5
14A2
  8
0
 10
73.750000007911751
 20
35.499999999999943
 30
0.0
 11
74.211880223263449
 21
34.699999999999932
 31
0.0
  0
LINE
  5
14A3
  8
0
 10
75.850000007911746
 20
34.499999999999943
 30
0.0
 11
74.558290384777195
 21
34.499999999999943
 31
0.0
  0
LINE
  5
14A4
  8
0
 10
73.750000007911751
 20
35.499999999999943
 30
0.0
 11
68.863500007911739
 21
35.499999999999943
 31
0.0
  0
LINE
  5
15D8
  8
0
 10
32.000000002622528
 20
74.252776746679871
 30
0.0
 11
32.000000002622528
 21
66.74722324721543
 31
0.0
  0
LINE
  5
15D9
  8
0
 10
32.000000002615252
 20
66.747223253320868
 30
0.0
 11
25.500000002622532
 21
62.994446503586829
 31
0.0
  0
LINE
  5
15DA
  8
0
 10
25.500000007912149
 20
62.994446506646369
 30
0.0
 11
19.000000007912149
 21
66.74722325637768
 31
0.0
  0
LINE
  5
15DB
  8
0
 10
19.000000013209039
 20
66.747223253324506
 30
0.0
 11
19.000000013209039
 21
74.252776752788947
 31
0.0
  0
LINE
  5
15DC
  8
0
 10
19.000000013209039
 20
74.252776746678961
 30
0.0
 11
25.50000001320905
 21
78.005553496413
 31
0.0
  0
LINE
  5
15DD
  8
0
 10
25.500000007912149
 20
78.00555349335346
 30
0.0
 11
32.000000007912149
 21
74.25277674362215
 31
0.0
  0
ARC
  5
17E5
  8
0
 10
68.250000007911765
 20
70.5
 30
0.0
 40
5.0
 50
156.5812350446366
 51
203.4187649553634
  0
LINE
  5
17E7
  8
0
 10
63.661877475617771
 20
72.487242216906679
 30
0.0
 11
63.661877475617771
 21
68.512757783093321
 31
0.0
  0
CIRCLE
  5
17E9
  8
0
 10
25.500000007911719
 20
70.5
 30
0.0
 40
1.987242216906665
  0
LINE
  5
17EA
  8
0
 10
63.661877475617757
 20
32.487242216906672
 30
0.0
 11
63.661877475617757
 21
28.51275778309331
 31
0.0
  0
ARC
  5
17EB
  8
0
 10
68.250000007911751
 20
30.499999999999989
 30
0.0
 40
5.0
 50
156.5812350446366
 51
203.4187649553634
  0
LINE
  5
17EC
  8
0
 10
64.550000007911763
 20
27.999999999999989
 30
0.0
 11
68.250000007911751
 21
27.999999999999989
 31
0.0
  0
LINE
  5
17ED
  8
0
 10
63.661877475617743
 20
28.512757783093321
 30
0.0
 11
64.550000007911763
 21
27.999999999999989
 31
0.0
  0
LINE
  5
17EE
  8
0
 10
64.550000007911763
 20
32.999999999999993
 30
0.0
 11
64.550000007911763
 21
27.999999999999989
 31
0.0
  0
LINE
  5
17EF
  8
0
 10
68.250000007911751
 20
32.999999999999993
 30
0.0
 11
64.550000007911763
 21
32.999999999999993
 31
0.0
  0
LINE
  5
17F0
  8
0
 10
64.550000007911763
 20
32.999999999999993
 30
0.0
 11
63.661877475617743
 21
32.487242216906672
 31
0.0
  0
TEXT
  5
18A1
  8
0
 62
     3
 10
0.0
 20
0.0
 30
0.0
 40
5.0
  1
NDXCS10AL
  7
STANDARD1
  0
LINE
  5
18F6
  8
3
 10
74.219091328174713
 20
74.688000000000073
 30
0.0
 11
68.250000007911765
 21
74.688000000000073
 31
0.0
  0
LINE
  5
18F7
  8
3
 10
74.21909132817467
 20
66.311999999999912
 30
0.0
 11
68.250000007911765
 21
66.311999999999912
 31
0.0
  0
LINE
  5
18FB
  8
3
 10
74.219091328174699
 20
34.688000000000073
 30
0.0
 11
68.250000007911751
 21
34.688000000000088
 31
0.0
  0
LINE
  5
18FC
  8
3
 10
74.219091328174656
 20
26.311999999999909
 30
0.0
 11
68.250000007911751
 21
26.311999999999909
 31
0.0
  0
LINE
  5
1A7F
  8
0
 10
90.450000007911754
 20
77.0
 30
0.0
 11
83.750000007911765
 21
77.0
 31
0.0
  0
LINE
  5
1A80
  8
0
 10
83.750000007911765
 20
64.0
 30
0.0
 11
90.450000007911754
 21
64.0
 31
0.0
  0
LINE
  5
1A81
  8
0
 10
83.750000007911765
 20
77.0
 30
0.0
 11
83.250000007811749
 21
76.5
 31
0.0
  0
LINE
  5
1A82
  8
0
 10
83.250000007811749
 20
64.5
 30
0.0
 11
83.750000007911765
 21
64.0
 31
0.0
  0
LINE
  5
1A83
  8
0
 10
82.950000007911754
 20
77.312733176400002
 30
0.0
 11
82.550000007911777
 21
78.005553499499996
 31
0.0
  0
LINE
  5
1A84
  8
0
 10
82.550000007911777
 20
62.994446500499997
 30
0.0
 11
82.950000007911754
 21
63.687266823599998
 31
0.0
  0
LINE
  5
1A85
  8
0
 10
82.550000007911777
 20
78.005553499499996
 30
0.0
 11
76.250000007911765
 21
78.005553499499996
 31
0.0
  0
POLYLINE
  5
1A86
  8
0
 66
     1
 10
0.0
 20
0.0
 30
0.0
 70
   128
  0
VERTEX
  5
1C81
  8
0
 10
82.950000007911754
 20
77.149377520799987
 30
0.0
  0
VERTEX
  5
1C82
  8
0
 10
82.773824877311796
 20
77.579525376800007
 30
0.0
  0
VERTEX
  5
1C83
  8
0
 10
82.550000007911777
 20
78.005553499499996
 30
0.0
  0
SEQEND
  5
1C84
  8
0
  0
LINE
  5
1A87
  8
0
 10
82.950000007911754
 20
76.338133119699989
 30
0.0
 11
82.950000007911754
 21
77.312733176400002
 31
0.0
  0
LINE
  5
1A88
  8
0
 10
83.12280720461176
 20
76.33813310779999
 30
0.0
 11
82.950000007911754
 21
76.338133119699989
 31
0.0
  0
ARC
  5
1A89
  8
0
 10
79.424440552111761
 20
76.232655368300016
 30
0.0
 40
3.699870438470243
 50
327.64787742029949
 51
1.633637033400301
  0
LINE
  5
1A8A
  8
0
 10
82.550000020411758
 20
74.252776706399985
 30
0.0
 11
76.250000007911765
 21
74.25277674969999
 31
0.0
  0
LINE
  5
1A8B
  8
0
 10
83.750000007911765
 20
67.849555728000013
 30
0.0
 11
83.750000007911765
 21
64.0
 31
0.0
  0
LINE
  5
1A8C
  8
0
 10
77.950000007911754
 20
67.849555728000013
 30
0.0
 11
83.750000007911765
 21
67.849555728000013
 31
0.0
  0
LINE
  5
1A8D
  8
0
 10
77.950000007911754
 20
73.150444272000016
 30
0.0
 11
77.950000007911754
 21
67.849555728000013
 31
0.0
  0
LINE
  5
1A8E
  8
0
 10
83.750000007911765
 20
73.150444272000016
 30
0.0
 11
77.950000007911754
 21
73.150444272000016
 31
0.0
  0
LINE
  5
1A8F
  8
0
 10
83.750000007911765
 20
77.0
 30
0.0
 11
83.750000007911765
 21
73.150444272000016
 31
0.0
  0
POLYLINE
  5
1A91
  8
0
 66
     1
 10
0.0
 20
0.0
 30
0.0
 70
   128
  0
VERTEX
  5
1C85
  8
0
 10
82.751041803411752
 20
73.496247653500006
 30
0.0
  0
VERTEX
  5
1C86
  8
0
 10
82.995111396511746
 20
73.441098756700001
 30
0.0
  0
VERTEX
  5
1C87
  8
0
 10
83.250000007911765
 20
73.319827855200003
 30
0.0
  0
SEQEND
  5
1C88
  8
0
  0
LINE
  5
1A92
  8
0
 10
82.55000003291174
 20
74.252776663100008
 30
0.0
 11
82.751041798011727
 21
73.496247685599997
 31
0.0
  0
LINE
  5
1A93
  8
0
 10
83.250000007911765
 20
76.126002506299983
 30
0.0
 11
83.122807257111745
 21
76.33813302919998
 31
0.0
  0
LINE
  5
1A94
  8
0
 10
77.550000007911777
 20
73.496247653300003
 30
0.0
 11
82.751041801911754
 21
73.496247669499994
 31
0.0
  0
LINE
  5
1A95
  8
0
 10
77.550000007911777
 20
67.503752346699983
 30
0.0
 11
77.550000007911777
 21
73.496247653300003
 31
0.0
  0
LINE
  5
1A96
  8
0
 10
82.751041807511754
 20
67.503752353399989
 30
0.0
 11
77.550000007911777
 21
67.503752346699983
 31
0.0
  0
LINE
  5
1A97
  8
0
 10
82.550000007911777
 20
66.74722325030001
 30
0.0
 11
82.751041808811763
 21
67.503752359000003
 31
0.0
  0
LINE
  5
1A98
  8
0
 10
82.550000007911777
 20
66.74722325030001
 30
0.0
 11
76.250000007911765
 21
66.74722325030001
 31
0.0
  0
POLYLINE
  5
1A9A
  8
0
 66
     1
 10
0.0
 20
0.0
 30
0.0
 70
   128
  0
VERTEX
  5
1C89
  8
0
 10
83.250000007911765
 20
67.680172144799997
 30
0.0
  0
VERTEX
  5
1C8A
  8
0
 10
82.999424727311762
 20
67.560432290000023
 30
0.0
  0
VERTEX
  5
1C8B
  8
0
 10
82.751041848011766
 20
67.503752350599996
 30
0.0
  0
SEQEND
  5
1C8C
  8
0
  0
LINE
  5
1A9D
  8
0
 10
83.122807203711744
 20
64.661866880300011
 30
0.0
 11
83.250000007911765
 21
64.873997493699974
 31
0.0
  0
ARC
  5
1A9E
  8
0
 10
79.499709944011755
 20
64.788019637100007
 30
0.0
 40
3.6252928531856421
 50
358.00582177510017
 51
32.71266383900052
  0
LINE
  5
1A9F
  8
0
 10
82.550000007911777
 20
62.994446500499997
 30
0.0
 11
76.250000007911765
 21
62.994446500499997
 31
0.0
  0
LINE
  5
1AA0
  8
0
 10
82.950000007911754
 20
64.661866880300011
 30
0.0
 11
83.122807203711744
 21
64.661866880300011
 31
0.0
  0
LINE
  5
1AA1
  8
0
 10
82.950000007911754
 20
64.661866880300011
 30
0.0
 11
82.950000007911754
 21
63.687266823599998
 31
0.0
  0
POLYLINE
  5
1AA2
  8
0
 66
     1
 10
0.0
 20
0.0
 30
0.0
 70
   128
  0
VERTEX
  5
1C8D
  8
0
 10
82.550000007911777
 20
62.994446500499997
 30
0.0
  0
VERTEX
  5
1C8E
  8
0
 10
82.773217040111732
 20
63.419183399899993
 30
0.0
  0
VERTEX
  5
1C8F
  8
0
 10
82.950000007911754
 20
63.850622479199977
 30
0.0
  0
SEQEND
  5
1C90
  8
0
  0
LINE
  5
1AA4
  8
0
 10
83.250000007911765
 20
76.5
 30
0.0
 11
83.250000007016013
 21
73.15044427200003
 31
0.0
  0
LINE
  5
1AA5
  8
0
 10
83.250000007016013
 20
67.849555728000013
 30
0.0
 11
83.250000007911765
 21
64.5
 31
0.0
  0
LINE
  5
1AAF
  8
0
 10
82.550000007911791
 20
30.5
 30
0.0
 11
76.250000007911751
 21
30.5
 31
0.0
  0
POLYLINE
  5
1AB0
  8
0
 66
     1
 10
0.0
 20
0.0
 30
0.0
 70
   128
  0
VERTEX
  5
1C91
  8
0
 10
82.950000007911754
 20
29.017059704700038
 30
0.0
  0
VERTEX
  5
1C92
  8
0
 10
82.773824877311796
 20
29.762097646200001
 30
0.0
  0
VERTEX
  5
1C93
  8
0
 10
82.550000007911791
 20
30.5
 30
0.0
  0
SEQEND
  5
1C94
  8
0
  0
LINE
  5
1AB1
  8
0
 10
82.950000007911754
 20
27.61194318470007
 30
0.0
 11
82.950000007911754
 21
33.388056815400041
 31
0.0
  0
LINE
  5
1AB2
  8
0
 10
83.122807204611775
 20
27.611943164000081
 30
0.0
 11
82.950000007911754
 21
27.61194318470007
 31
0.0
  0
ARC
  5
1AB3
  8
0
 10
73.022524490111749
 20
27.362325068800029
 30
0.0
 40
10.103366746782431
 50
340.56164068929991
 51
1.415718059899578
  0
LINE
  5
1AB4
  8
0
 10
90.450000007911754
 20
24.0
 30
0.0
 11
76.250000007911751
 21
24.0
 31
0.0
  0
LINE
  5
1AB5
  8
0
 10
90.450000007911754
 20
37.000000000000007
 30
0.0
 11
76.25000000791178
 21
37.000000000000028
 31
0.0
  0
ARC
  5
1AB6
  8
0
 10
73.158823570011748
 20
33.659290124300043
 30
0.0
 40
9.9676746215253722
 50
358.44071531870031
 51
19.581926397300521
  0
LINE
  5
1AB7
  8
0
 10
82.950000007911754
 20
33.388056815400041
 30
0.0
 11
83.122807203711773
 21
33.388056815400041
 31
0.0
  0
POLYLINE
  5
1AB9
  8
0
 66
     1
 10
0.0
 20
0.0
 30
0.0
 70
   128
  0
VERTEX
  5
1C95
  8
0
 10
82.550000007911791
 20
30.5
 30
0.0
  0
VERTEX
  5
1C96
  8
0
 10
82.773217040111746
 20
31.2356658896
 30
0.0
  0
VERTEX
  5
1C97
  8
0
 10
82.950000007911754
 20
31.98294029530004
 30
0.0
  0
SEQEND
  5
1C98
  8
0
  0
LINE
  5
1ABC
  8
0
 10
83.75000000791178
 20
36.435077519400039
 30
0.0
 11
83.250000007911765
 21
35.950581395400043
 31
0.0
  0
LINE
  5
1ABD
  8
0
 10
83.75000000791178
 20
36.435077519400039
 30
0.0
 11
83.75000000791178
 21
24.56492248060005
 31
0.0
  0
LINE
  5
1ABE
  8
0
 10
83.75000000791178
 20
24.56492248060005
 30
0.0
 11
83.250000007911765
 21
25.049418604700008
 31
0.0
  0
LINE
  5
1ABF
  8
0
 10
83.067721378611765
 20
36.435077519400039
 30
0.0
 11
83.75000000791178
 21
36.435077519400039
 31
0.0
  0
LINE
  5
1AC0
  8
0
 10
83.75000000791178
 20
24.56492248060005
 30
0.0
 11
83.067825908611752
 21
24.56492248060005
 31
0.0
  0
LINE
  5
1AC1
  8
0
 10
83.122807203711773
 20
33.388056815400041
 30
0.0
 11
83.250000007911765
 21
33.319827855200032
 31
0.0
  0
LINE
  5
1AC4
  8
0
 10
83.250000007911765
 20
27.680172144899991
 30
0.0
 11
83.122807257111745
 21
27.611943210100041
 31
0.0
  0
POLYLINE
  5
1AC5
  8
0
 66
     1
 10
0.0
 20
0.0
 30
0.0
 70
   128
  0
VERTEX
  5
1C99
  8
0
 10
83.250000007911765
 20
36.12600250630004
 30
0.0
  0
VERTEX
  5
1C9A
  8
0
 10
82.999424727311776
 20
36.550882583800053
 30
0.0
  0
VERTEX
  5
1C9B
  8
0
 10
82.751041848011795
 20
36.999999921400047
 30
0.0
  0
SEQEND
  5
1C9C
  8
0
  0
LINE
  5
1AC7
  8
0
 10
83.250000007911765
 20
24.873997493800061
 30
0.0
 11
83.250000007911765
 21
36.12600250630004
 31
0.0
  0
POLYLINE
  5
1AC8
  8
0
 66
     1
 10
0.0
 20
0.0
 30
0.0
 70
   128
  0
VERTEX
  5
1C9D
  8
0
 10
82.751041803411766
 20
23.999999995600032
 30
0.0
  0
VERTEX
  5
1C9E
  8
0
 10
82.99511139651176
 20
24.441555663700001
 30
0.0
  0
VERTEX
  5
1C9F
  8
0
 10
83.250000007911765
 20
24.873997493800061
 30
0.0
  0
SEQEND
  5
1CA0
  8
0
  0
ENDSEC
  0
EOF
