  0
SECTION
  2
HEADER
  9
$ACADVER
  1
AC1009
  9
$INSBASE
 10
0.0
 20
0.0
 30
0.0
  9
$EXTMIN
 10
0.0
 20
-1.4802182810368341
 30
0.0
  9
$EXTMAX
 10
120.0
 20
72.000000000000014
 30
0.0
  9
$LIMMIN
 10
0.0
 20
0.0
  9
$LIMMAX
 10
385.0
 20
270.0
  9
$ORTHOMODE
 70
     1
  9
$REGENMODE
 70
     1
  9
$FILLMODE
 70
     1
  9
$QTEXTMODE
 70
     0
  9
$MIRRTEXT
 70
     0
  9
$DRAGMODE
 70
     2
  9
$LTSCALE
 40
5.0
  9
$OSMODE
 70
    37
  9
$ATTMODE
 70
     1
  9
$TEXTSIZE
 40
4.000000000000048
  9
$TRACEWID
 40
0.05
  9
$TEXTSTYLE
  7
STANDARD
  9
$CLAYER
  8
0
  9
$CELTYPE
  6
BYLAYER
  9
$CECOLOR
 62
   256
  9
$DIMSCALE
 40
1.0
  9
$DIMASZ
 40
3.0
  9
$DIMEXO
 40
2.0
  9
$DIMDLI
 40
0.38
  9
$DIMRND
 40
0.0
  9
$DIMDLE
 40
0.0
  9
$DIMEXE
 40
2.0
  9
$DIMTP
 40
0.0
  9
$DIMTM
 40
0.0
  9
$DIMTXT
 40
3.0
  9
$DIMCEN
 40
0.0
  9
$DIMTSZ
 40
0.0
  9
$DIMTOL
 70
     0
  9
$DIMLIM
 70
     0
  9
$DIMTIH
 70
     0
  9
$DIMTOH
 70
     0
  9
$DIMSE1
 70
     0
  9
$DIMSE2
 70
     0
  9
$DIMTAD
 70
     1
  9
$DIMZIN
 70
     0
  9
$DIMBLK
  1

  9
$DIMASO
 70
     0
  9
$DIMSHO
 70
     0
  9
$DIMPOST
  1

  9
$DIMAPOST
  1

  9
$DIMALT
 70
     0
  9
$DIMALTD
 70
     2
  9
$DIMALTF
 40
25.399999999999999
  9
$DIMLFAC
 40
1.0
  9
$DIMTOFL
 70
     1
  9
$DIMTVP
 40
1.6000000000000001
  9
$DIMTIX
 70
     1
  9
$DIMSOXD
 70
     0
  9
$DIMSAH
 70
     0
  9
$DIMBLK1
  1

  9
$DIMBLK2
  1

  9
$DIMSTYLE
  2
STANDARD
  9
$DIMCLRD
 70
     0
  9
$DIMCLRE
 70
     0
  9
$DIMCLRT
 70
     0
  9
$DIMTFAC
 40
1.0
  9
$DIMGAP
 40
1.0
  9
$LUNITS
 70
     2
  9
$LUPREC
 70
     4
  9
$SKETCHINC
 40
0.1
  9
$FILLETRAD
 40
0.0
  9
$AUNITS
 70
     0
  9
$AUPREC
 70
     4
  9
$MENU
  1
E:\r13\win\SUPPORT\ACAD
  9
$ELEVATION
 40
0.0
  9
$PELEVATION
 40
0.0
  9
$THICKNESS
 40
0.0
  9
$LIMCHECK
 70
     0
  9
$BLIPMODE
 70
     0
  9
$CHAMFERA
 40
0.0
  9
$CHAMFERB
 40
0.0
  9
$SKPOLY
 70
     0
  9
$TDCREATE
 40
2450280.598206134
  9
$TDUPDATE
 40
2458249.592333091
  9
$TDINDWG
 40
0.2226813194
  9
$TDUSRTIMER
 40
0.2226813194
  9
$USRTIMER
 70
     1
  9
$ANGBASE
 50
0.0
  9
$ANGDIR
 70
     0
  9
$PDMODE
 70
     0
  9
$PDSIZE
 40
0.0
  9
$PLINEWID
 40
0.0
  9
$COORDS
 70
     1
  9
$SPLFRAME
 70
     0
  9
$SPLINETYPE
 70
     6
  9
$SPLINESEGS
 70
     8
  9
$ATTDIA
 70
     0
  9
$ATTREQ
 70
     1
  9
$HANDLING
 70
     1
  9
$HANDSEED
  5
199D
  9
$SURFTAB1
 70
     6
  9
$SURFTAB2
 70
     6
  9
$SURFTYPE
 70
     6
  9
$SURFU
 70
     6
  9
$SURFV
 70
     6
  9
$UCSNAME
  2

  9
$UCSORG
 10
0.0
 20
0.0
 30
0.0
  9
$UCSXDIR
 10
1.0
 20
0.0
 30
0.0
  9
$UCSYDIR
 10
0.0
 20
1.0
 30
0.0
  9
$PUCSNAME
  2

  9
$PUCSORG
 10
0.0
 20
0.0
 30
0.0
  9
$PUCSXDIR
 10
1.0
 20
0.0
 30
0.0
  9
$PUCSYDIR
 10
0.0
 20
1.0
 30
0.0
  9
$USERI1
 70
     3
  9
$USERI2
 70
     1
  9
$USERI3
 70
     1
  9
$USERI4
 70
     0
  9
$USERI5
 70
     0
  9
$USERR1
 40
1.0
  9
$USERR2
 40
3.0
  9
$USERR3
 40
3.0
  9
$USERR4
 40
3.0
  9
$USERR5
 40
10.0
  9
$WORLDVIEW
 70
     1
  9
$SHADEDGE
 70
     3
  9
$SHADEDIF
 70
    70
  9
$TILEMODE
 70
     1
  9
$MAXACTVP
 70
    16
  9
$PLIMCHECK
 70
     0
  9
$PEXTMIN
 10
1.0000000000000000E+020
 20
1.0000000000000000E+020
 30
1.0000000000000000E+020
  9
$PEXTMAX
 10
-1.0000000000000000E+020
 20
-1.0000000000000000E+020
 30
-1.0000000000000000E+020
  9
$PLIMMIN
 10
0.0
 20
0.0
  9
$PLIMMAX
 10
12.0
 20
9.0
  9
$UNITMODE
 70
     0
  9
$VISRETAIN
 70
     0
  9
$PLINEGEN
 70
     0
  9
$PSLTSCALE
 70
     0
  0
ENDSEC
  0
SECTION
  2
TABLES
  0
TABLE
  2
VPORT
 70
     1
  0
VPORT
  2
*ACTIVE
 70
     0
 10
0.0
 20
0.0
 11
1.0
 21
1.0
 12
59.992689200167547
 22
36.278743840691888
 13
0.0
 23
0.0
 14
5.0
 24
5.0
 15
10.0
 25
10.0
 16
0.0
 26
0.0
 36
1.0
 17
0.0
 27
0.0
 37
0.0
 40
76.688189993255435
 41
2.0984455958549222
 42
50.0
 43
0.0
 44
0.0
 50
0.0
 51
0.0
 71
     0
 72
   500
 73
     1
 74
     0
 75
     0
 76
     0
 77
     0
 78
     2
  0
ENDTAB
  0
TABLE
  2
LTYPE
 70
     4
  0
LTYPE
  2
CONTINUOUS
 70
     0
  3
Solid Line
 72
    65
 73
     0
 40
0.0
  0
LTYPE
  2
CENTER
 70
     0
  3
____ _ ____ _ ____ _ ____ _ ____ _ ____ _ ____
 72
    65
 73
     4
 40
2.0
 49
1.25
 49
-0.25
 49
0.25
 49
-0.25
  0
LTYPE
  2
HIDDEN
 70
     0
  3
_ _ _ _ _ _ _ _ _ _ _ _ _ _ _ _ _ _ _ _ _ _ _
 72
    65
 73
     2
 40
0.375
 49
0.25
 49
-0.125
  0
LTYPE
  2
PHANTOM2
 70
     0
  3
___ _ _ ___ _ _ ___ _ _ ___ _ _
 72
    65
 73
     6
 40
1.25
 49
0.625
 49
-0.125
 49
0.125
 49
-0.125
 49
0.125
 49
-0.125
  0
ENDTAB
  0
TABLE
  2
LAYER
 70
     4
  0
LAYER
  2
0
 70
     0
 62
     7
  6
CONTINUOUS
  0
LAYER
  2
1
 70
     0
 62
     1
  6
CENTER
  0
LAYER
  2
3
 70
     0
 62
     3
  6
CONTINUOUS
  0
LAYER
  2
2
 70
     0
 62
     2
  6
HIDDEN
  0
ENDTAB
  0
TABLE
  2
STYLE
 70
     2
  0
STYLE
  2
STANDARD
 70
     0
 40
0.0
 41
1.0
 50
0.0
 71
     0
 42
4.000000000000048
  3
SIMPLEX
  4
BIGFONT
  0
STYLE
  2
STANDARD1
 70
     0
 40
0.0
 41
1.0
 50
0.0
 71
     0
 42
3.0
  3
txt
  4

  0
ENDTAB
  0
TABLE
  2
VIEW
 70
     0
  0
ENDTAB
  0
TABLE
  2
UCS
 70
     0
  0
ENDTAB
  0
TABLE
  2
APPID
 70
     4
  0
APPID
  2
ACAD
 70
     0
  0
APPID
  2
ACAD_MLEADERVER
 70
     0
  0
APPID
  2
ACAD_NAV_VCDISPLAY
 70
     0
  0
APPID
  2
ACAD_EXEMPT_FROM_CAD_STANDARDS
 70
     0
  0
ENDTAB
  0
TABLE
  2
DIMSTYLE
 70
     2
  0
DIMSTYLE
  2
STANDARD
 70
     0
  3

  4

  5

  6

  7

 40
1.0
 41
0.18
 42
0.0625
 43
0.38
 44
0.18
 45
0.0
 46
0.0
 47
0.0
 48
0.0
140
0.18
141
0.09
142
0.0
143
25.399999999999999
144
1.0
145
0.0
146
1.0
147
0.09
 71
     0
 72
     0
 73
     1
 74
     1
 75
     0
 76
     0
 77
     0
 78
     0
170
     0
171
     2
172
     0
173
     0
174
     0
175
     0
176
     0
177
     0
178
     0
  0
DIMSTYLE
  2
ISO-25
 70
     0
  3

  4

  5

  6

  7

 40
1.0
 41
2.5
 42
0.625
 43
3.75
 44
1.25
 45
0.0
 46
0.0
 47
0.0
 48
0.0
140
2.5
141
2.5
142
0.0
143
0.0393700787
144
1.0
145
0.0
146
1.0
147
0.625
 71
     0
 72
     0
 73
     0
 74
     0
 75
     0
 76
     0
 77
     1
 78
     8
170
     0
171
     3
172
     1
173
     0
174
     0
175
     0
176
     0
177
     0
178
     0
  0
ENDTAB
  0
ENDSEC
  0
SECTION
  2
BLOCKS
  0
BLOCK
  8
0
  2
$MODEL_SPACE
 70
     0
 10
0.0
 20
0.0
 30
0.0
  3
$MODEL_SPACE
  1

  0
ENDBLK
  5
175
  8
0
  0
BLOCK
 67
     1
  8
0
  2
$PAPER_SPACE
 70
     0
 10
0.0
 20
0.0
 30
0.0
  3
$PAPER_SPACE
  1

  0
ENDBLK
  5
173
 67
     1
  8
0
  0
ENDSEC
  0
SECTION
  2
ENTITIES
  0
TEXT
  5
99A
  8
0
 62
     3
 10
0.0
 20
0.0
 30
0.0
 40
5.0
  1
NDXC6-4ALW
  7
STANDARD1
  0
LINE
  5
C37
  8
0
 10
82.200000000000017
 20
72.000000000000014
 30
0.0
 11
81.800000000000054
 21
72.000000000000014
 31
0.0
  0
LINE
  5
C38
  8
0
 10
81.800000000000054
 20
57.99999999999995
 30
0.0
 11
82.200000000000017
 21
57.99999999999995
 31
0.0
  0
LINE
  5
C39
  8
0
 10
81.800000000000054
 20
72.000000000000014
 30
0.0
 11
77.670854238500013
 21
69.000000000000014
 31
0.0
  0
LINE
  5
C3A
  8
0
 10
77.670854238500013
 20
60.99999999999995
 30
0.0
 11
81.800000000000054
 21
57.99999999999995
 31
0.0
  0
ARC
  5
C3B
  8
0
 10
82.200000000000017
 20
58.799999999999962
 30
0.0
 40
0.8000000000000113
 50
270.0
 51
0.0
  0
ARC
  5
C3C
  8
0
 10
82.200000000000017
 20
71.200000000000003
 30
0.0
 40
0.7999999999999972
 50
0.0
 51
90.0
  0
LINE
  5
C41
  8
0
 10
51.81349999990001
 20
67.999999999999957
 30
0.0
 11
51.000000000000028
 21
67.38649999999997
 31
0.0
  0
LINE
  5
C42
  8
0
 10
51.000000000000028
 20
62.613500000000002
 30
0.0
 11
51.81349999990001
 21
61.99999999999995
 31
0.0
  0
LINE
  5
C45
  8
0
 10
71.942807577800039
 20
67.999999999999986
 30
0.0
 11
59.40674999994993
 21
67.999999999999957
 31
0.0
  0
LINE
  5
C46
  8
0
 10
51.81349999990001
 20
61.99999999999995
 30
0.0
 11
56.406749999949938
 21
61.999999999999929
 31
0.0
  0
LINE
  5
C4A
  8
0
 10
81.800000000000054
 20
57.99999999999995
 30
0.0
 11
81.800000000000054
 21
72.000000000000014
 31
0.0
  0
LINE
  5
C4B
  8
0
 10
77.670854238500013
 20
69.000000000000014
 30
0.0
 11
77.670854238500013
 21
60.99999999999995
 31
0.0
  0
LINE
  5
C4C
  8
0
 10
83.000000000000014
 20
71.200000000000003
 30
0.0
 11
83.000000000000014
 21
58.799999999999962
 31
0.0
  0
LINE
  5
C67
  8
0
 10
66.1524791386
 20
67.999999999999957
 30
0.0
 11
66.000000000000028
 21
67.46436507609998
 31
0.0
  0
LINE
  5
C6C
  8
0
 10
66.000000000000028
 20
65.535634923899991
 30
0.0
 11
66.1524791386
 21
64.999999999999943
 31
0.0
  0
LINE
  5
C6F
  8
0
 10
66.1524791386
 20
64.999999999999943
 30
0.0
 11
66.000000000000028
 21
64.464365076099966
 31
0.0
  0
LINE
  5
C73
  8
0
 10
66.000000000000028
 20
62.535634923899977
 30
0.0
 11
66.1524791386
 21
61.99999999999995
 31
0.0
  0
LINE
  5
C76
  8
0
 10
51.000000000000028
 20
62.613500000000002
 30
0.0
 11
51.000000000000028
 21
67.38649999999997
 31
0.0
  0
LINE
  5
C77
  8
0
 10
51.81349999990001
 20
67.999999999999957
 30
0.0
 11
51.81349999990001
 21
61.99999999999995
 31
0.0
  0
LINE
  5
C7D
  8
0
 10
66.0
 20
67.999999999999957
 30
0.0
 11
66.000000000000028
 21
61.99999999999995
 31
0.0
  0
LINE
  5
C80
  8
0
 10
82.200000000000017
 20
57.99999999999995
 30
0.0
 11
82.200000000000017
 21
72.000000000000014
 31
0.0
  0
CIRCLE
  5
C82
  8
0
 10
110.0
 20
30.0
 30
0.0
 40
7.0
  0
CIRCLE
  5
C84
  8
0
 10
20.0
 20
30.0
 30
0.0
 40
1.9999999999999849
  0
CIRCLE
  5
C86
  8
0
 10
20.0
 20
30.0
 30
0.0
 40
2.9999999999999929
  0
CIRCLE
  5
C99
  8
0
 10
20.0
 20
30.0
 30
0.0
 40
6.999999999999992
  0
LINE
  5
C9A
  8
0
 10
82.200000000000017
 20
36.99999999984999
 30
0.0
 11
81.800000000000054
 21
36.99999999984999
 31
0.0
  0
LINE
  5
C9B
  8
0
 10
81.800000000000054
 20
22.99999999984999
 30
0.0
 11
82.200000000000017
 21
22.99999999984999
 31
0.0
  0
LINE
  5
C9C
  8
0
 10
81.800000000000054
 20
36.99999999984999
 30
0.0
 11
77.670854238500013
 21
33.99999999984999
 31
0.0
  0
LINE
  5
C9D
  8
0
 10
77.670854238500013
 20
25.99999999984999
 30
0.0
 11
81.800000000000054
 21
22.99999999984999
 31
0.0
  0
ARC
  5
C9E
  8
0
 10
82.200000000000017
 20
23.799999999850002
 30
0.0
 40
0.7999999999999972
 50
270.0
 51
0.0
  0
ARC
  5
C9F
  8
0
 10
82.200000000000017
 20
36.199999999849979
 30
0.0
 40
0.7999999999999972
 50
0.0
 51
90.0
  0
LINE
  5
CA6
  8
0
 10
66.000000000000028
 20
32.99999999984999
 30
0.0
 11
59.40674999994993
 21
32.99999999984999
 31
0.0
  0
LINE
  5
CA7
  8
0
 10
51.81349999990001
 20
26.99999999984999
 30
0.0
 11
56.406749999949938
 21
26.99999999984999
 31
0.0
  0
LINE
  5
CA8
  8
0
 10
51.81349999990001
 20
32.99999999984999
 30
0.0
 11
51.000000000000028
 21
32.386499999850002
 31
0.0
  0
LINE
  5
CA9
  8
0
 10
51.000000000000028
 20
27.613499999849981
 30
0.0
 11
51.81349999990001
 21
26.99999999984999
 31
0.0
  0
ARC
  5
CAE
  8
0
 10
51.000000000000028
 20
29.99999999984999
 30
0.0
 40
4.0000000000000631
 50
156.09779148615951
 51
203.90220851384049
  0
LINE
  5
CAF
  8
0
 10
51.000000000000028
 20
31.99999999984999
 30
0.0
 11
48.000000860216318
 21
31.999999999850012
 31
0.0
  0
LINE
  5
CB0
  8
0
 10
48.000000860216339
 20
27.999999999850012
 30
0.0
 11
51.000000000000028
 21
27.99999999984999
 31
0.0
  0
LINE
  5
CB1
  8
0
 10
66.000000000000028
 20
26.799999999949989
 30
0.0
 11
66.1524791386
 21
26.535898384749999
 31
0.0
  0
LINE
  5
CB2
  8
0
 10
66.1524791386
 20
33.464101614949982
 30
0.0
 11
66.000000000000028
 21
33.199999999749991
 31
0.0
  0
LINE
  5
CB5
  8
0
 10
81.800000000000054
 20
22.99999999984999
 30
0.0
 11
81.800000000000054
 21
36.99999999984999
 31
0.0
  0
LINE
  5
CB6
  8
0
 10
77.670854238500013
 20
33.99999999984999
 30
0.0
 11
77.670854238500013
 21
25.99999999984999
 31
0.0
  0
LINE
  5
CB7
  8
0
 10
83.000000000000014
 20
36.199999999849979
 30
0.0
 11
83.000000000000014
 21
23.800000000150021
 31
0.0
  0
LINE
  5
CD0
  8
0
 10
66.1524791386
 20
33.464101614949982
 30
0.0
 11
71.700000000000017
 21
33.464101614949982
 31
0.0
  0
LINE
  5
CD4
  8
0
 10
66.000000000000028
 20
32.041299774949998
 30
0.0
 11
66.1524791386
 21
31.73205080744998
 31
0.0
  0
LINE
  5
CD6
  8
0
 10
51.81349999990001
 20
32.99999999984999
 30
0.0
 11
51.81349999990001
 21
26.99999999984999
 31
0.0
  0
LINE
  5
CD7
  8
0
 10
51.000000000000028
 20
27.613499999849981
 30
0.0
 11
51.000000000000028
 21
32.386499999850002
 31
0.0
  0
LINE
  5
CD8
  8
0
 10
66.1524791386
 20
31.732050807349989
 30
0.0
 11
66.000000000000028
 21
31.113552872349999
 31
0.0
  0
LINE
  5
CDC
  8
0
 10
66.000000000000028
 20
28.886447127250001
 30
0.0
 11
66.1524791386
 21
28.267949192250001
 31
0.0
  0
LINE
  5
CE1
  8
0
 10
66.1524791386
 20
28.267949192250001
 30
0.0
 11
66.000000000000028
 21
27.958700224749979
 31
0.0
  0
LINE
  5
CE4
  8
0
 10
66.1524791386
 20
26.535898384749999
 30
0.0
 11
71.700000000000017
 21
26.535898384799982
 31
0.0
  0
LINE
  5
CED
  8
0
 10
66.000000000000028
 20
26.799999999850002
 30
0.0
 11
66.000000000000028
 21
33.199999999749991
 31
0.0
  0
LINE
  5
CEF
  8
0
 10
82.200000000000017
 20
22.99999999984999
 30
0.0
 11
82.200000000000017
 21
36.99999999984999
 31
0.0
  0
LINE
  5
D4B
  8
0
 10
48.000000860216318
 20
27.99999999984999
 30
0.0
 11
48.000000860216318
 21
31.99999999984999
 31
0.0
  0
LINE
  5
D4C
  8
0
 10
48.000000860216318
 20
31.99999999984999
 30
0.0
 11
47.343046647867681
 21
31.620707308505249
 31
0.0
  0
LINE
  5
D4D
  8
0
 10
48.000000860216318
 20
27.99999999984999
 30
0.0
 11
47.343046647867681
 21
28.379292691194738
 31
0.0
  0
LINE
  5
D4E
  8
0
 10
47.343046647867709
 20
31.62070730850526
 30
0.0
 11
47.343046647867709
 21
28.379292691194721
 31
0.0
  0
ARC
  5
D4F
  8
0
 10
51.000000000000028
 20
64.999999999999972
 30
0.0
 40
4.0000000000000631
 50
156.09779148615951
 51
203.90220851384041
  0
LINE
  5
D50
  8
0
 10
51.000000000000028
 20
66.999999999999986
 30
0.0
 11
48.000000860216318
 21
66.999999999999986
 31
0.0
  0
LINE
  5
D51
  8
0
 10
48.000000860216367
 20
62.999999999999979
 30
0.0
 11
51.000000000000028
 21
62.999999999999979
 31
0.0
  0
LINE
  5
D52
  8
0
 10
48.000000860216318
 20
62.999999999999979
 30
0.0
 11
48.000000860216318
 21
66.999999999999986
 31
0.0
  0
LINE
  5
D53
  8
0
 10
48.000000860216318
 20
66.999999999999986
 30
0.0
 11
47.343046647867681
 21
66.620707308655241
 31
0.0
  0
LINE
  5
D54
  8
0
 10
48.000000860216318
 20
62.999999999999979
 30
0.0
 11
47.343046647867681
 21
63.379292691344723
 31
0.0
  0
LINE
  5
D55
  8
0
 10
47.34304664786773
 20
66.620707308655241
 30
0.0
 11
47.34304664786773
 21
63.379292691344723
 31
0.0
  0
LINE
  5
DA1
  8
0
 10
64.000000000000028
 20
67.999999999999957
 30
0.0
 11
64.000000000000028
 21
61.999999999999979
 31
0.0
  0
LINE
  5
DA2
  8
0
 10
64.000000000000028
 20
32.999999999850012
 30
0.0
 11
64.000000000000028
 21
26.99999999984999
 31
0.0
  0
LINE
  5
DBB
  8
3
 10
64.000000000000028
 20
32.458499999850112
 30
0.0
 11
64.937905512298414
 21
32.99999999984999
 31
0.0
  0
LINE
  5
DBC
  8
3
 10
64.000000000000028
 20
27.541499999849911
 30
0.0
 11
64.937905512298414
 21
26.999999999850019
 31
0.0
  0
LINE
  5
DBD
  8
3
 10
64.000000000000028
 20
27.541499999849911
 30
0.0
 11
59.40674999994993
 21
27.541499999849911
 31
0.0
  0
LINE
  5
DBE
  8
3
 10
64.000000000000028
 20
32.458499999850112
 30
0.0
 11
59.40674999994993
 21
32.458499999850098
 31
0.0
  0
LINE
  5
DC0
  8
3
 10
64.000000000000028
 20
67.458500000000058
 30
0.0
 11
59.40674999994993
 21
67.458500000000058
 31
0.0
  0
LINE
  5
DC2
  8
3
 10
64.000000000000028
 20
62.541499999999843
 30
0.0
 11
59.40674999994993
 21
62.541499999999857
 31
0.0
  0
LINE
  5
DC3
  8
3
 10
64.000000000000028
 20
67.458500000000058
 30
0.0
 11
64.937905512298443
 21
67.999999999999929
 31
0.0
  0
LINE
  5
DC4
  8
3
 10
64.000000000000028
 20
62.541499999999843
 30
0.0
 11
64.937905512298443
 21
61.999999999999979
 31
0.0
  0
CIRCLE
  5
E18
  8
3
 10
20.0
 20
30.0
 30
0.0
 40
2.4603530499953621
  0
CIRCLE
  5
E19
  8
0
 10
20.0
 20
30.0
 30
0.0
 40
1.1769870379867049
  0
LINE
  5
E22
  8
1
 10
10.0
 20
29.999999999999989
 30
0.0
 11
30.0
 21
29.999999999999989
 31
0.0
  0
LINE
  5
E23
  8
1
 10
20.0
 20
40.0
 30
0.0
 11
20.0
 21
20.0
 31
0.0
  0
LINE
  5
E24
  8
1
 10
100.0
 20
29.999999999999979
 30
0.0
 11
120.0
 21
29.999999999999979
 31
0.0
  0
LINE
  5
E25
  8
1
 10
110.0
 20
40.0
 30
0.0
 11
110.0
 21
19.999999999999989
 31
0.0
  0
LINE
  5
E28
  8
1
 10
86.000000000000028
 20
64.999999999999972
 30
0.0
 11
43.999999999999972
 21
64.999999999999972
 31
0.0
  0
LINE
  5
E29
  8
1
 10
86.000000000000028
 20
29.999999999999989
 30
0.0
 11
43.999999999999972
 21
29.999999999999972
 31
0.0
  0
CIRCLE
  5
F9D
  8
0
 10
20.0
 20
29.999999999999989
 30
0.0
 40
4.9999999999977263
  0
POLYLINE
  5
1061
  8
0
 66
     1
 10
0.0
 20
0.0
 30
0.0
  0
VERTEX
  5
1925
  8
0
 10
59.125218043974961
 20
64.999999999999972
 30
0.0
  0
VERTEX
  5
1926
  8
0
 10
59.211075221185602
 20
65.438723624133999
 30
0.0
  0
VERTEX
  5
1927
  8
0
 10
59.335324217522242
 20
66.274974184215154
 30
0.0
  0
VERTEX
  5
1928
  8
0
 10
59.398566211912708
 20
67.088885697107045
 30
0.0
  0
VERTEX
  5
1929
  8
0
 10
59.40674999994993
 20
67.499999999999986
 30
0.0
  0
SEQEND
  5
192A
  8
0
  0
POLYLINE
  5
1062
  8
0
 66
     1
 10
0.0
 20
0.0
 30
0.0
  0
VERTEX
  5
192B
  8
0
 10
56.406749999949938
 20
67.499999999999986
 30
0.0
  0
VERTEX
  5
192C
  8
0
 10
56.414933787987223
 20
67.08888569710642
 30
0.0
  0
VERTEX
  5
192D
  8
0
 10
56.47817578237769
 20
66.274974184214116
 30
0.0
  0
VERTEX
  5
192E
  8
0
 10
56.602424778714273
 20
65.438723624133445
 30
0.0
  0
VERTEX
  5
192F
  8
0
 10
56.688281955924957
 20
64.999999999999972
 30
0.0
  0
SEQEND
  5
1930
  8
0
  0
POLYLINE
  5
1063
  8
0
 66
     1
 10
0.0
 20
0.0
 30
0.0
  0
VERTEX
  5
1931
  8
0
 10
56.688281955924957
 20
69.999999999999986
 30
0.0
  0
VERTEX
  5
1932
  8
0
 10
56.602424778714273
 20
69.561276375865972
 30
0.0
  0
VERTEX
  5
1933
  8
0
 10
56.47817578237769
 20
68.725025815784804
 30
0.0
  0
VERTEX
  5
1934
  8
0
 10
56.414933787987223
 20
67.911114302892926
 30
0.0
  0
VERTEX
  5
1935
  8
0
 10
56.406749999949938
 20
67.499999999999986
 30
0.0
  0
SEQEND
  5
1936
  8
0
  0
POLYLINE
  5
1064
  8
0
 66
     1
 10
0.0
 20
0.0
 30
0.0
  0
VERTEX
  5
1937
  8
0
 10
59.40674999994993
 20
67.499999999999986
 30
0.0
  0
VERTEX
  5
1938
  8
0
 10
59.398566211912708
 20
67.911114302893552
 30
0.0
  0
VERTEX
  5
1939
  8
0
 10
59.335324217522242
 20
68.725025815785855
 30
0.0
  0
VERTEX
  5
193A
  8
0
 10
59.211075221185602
 20
69.561276375866512
 30
0.0
  0
VERTEX
  5
193B
  8
0
 10
59.125218043974961
 20
69.999999999999986
 30
0.0
  0
SEQEND
  5
193C
  8
0
  0
LINE
  5
1066
  8
0
 10
56.406749999949938
 20
69.999999999999986
 30
0.0
 11
59.40674999994993
 21
69.999999999999986
 31
0.0
  0
LINE
  5
1069
  8
0
 10
56.688281955924957
 20
64.999999999999972
 30
0.0
 11
59.125218043974961
 21
64.999999999999972
 31
0.0
  0
POLYLINE
  5
106D
  8
0
 66
     1
 10
0.0
 20
0.0
 30
0.0
  0
VERTEX
  5
193D
  8
0
 10
59.40674999994993
 20
62.499999999999979
 30
0.0
  0
VERTEX
  5
193E
  8
0
 10
59.398566211912708
 20
62.088885697106413
 30
0.0
  0
VERTEX
  5
193F
  8
0
 10
59.335324217522242
 20
61.274974184214109
 30
0.0
  0
VERTEX
  5
1940
  8
0
 10
59.211075221185602
 20
60.438723624133452
 30
0.0
  0
VERTEX
  5
1941
  8
0
 10
59.125218043974961
 20
60.0
 30
0.0
  0
SEQEND
  5
1942
  8
0
  0
POLYLINE
  5
106E
  8
0
 66
     1
 10
0.0
 20
0.0
 30
0.0
  0
VERTEX
  5
1943
  8
0
 10
59.125218043974961
 20
64.999999999999972
 30
0.0
  0
VERTEX
  5
1944
  8
0
 10
59.211075221185602
 20
64.561276375865958
 30
0.0
  0
VERTEX
  5
1945
  8
0
 10
59.335324217522242
 20
63.725025815784797
 30
0.0
  0
VERTEX
  5
1946
  8
0
 10
59.398566211912708
 20
62.911114302892919
 30
0.0
  0
VERTEX
  5
1947
  8
0
 10
59.40674999994993
 20
62.499999999999979
 30
0.0
  0
SEQEND
  5
1948
  8
0
  0
POLYLINE
  5
106F
  8
0
 66
     1
 10
0.0
 20
0.0
 30
0.0
  0
VERTEX
  5
1949
  8
0
 10
56.406749999949938
 20
62.499999999999979
 30
0.0
  0
VERTEX
  5
194A
  8
0
 10
56.414933787987223
 20
62.911114302893552
 30
0.0
  0
VERTEX
  5
194B
  8
0
 10
56.47817578237769
 20
63.725025815785848
 30
0.0
  0
VERTEX
  5
194C
  8
0
 10
56.602424778714273
 20
64.561276375866498
 30
0.0
  0
VERTEX
  5
194D
  8
0
 10
56.688281955924957
 20
64.999999999999972
 30
0.0
  0
SEQEND
  5
194E
  8
0
  0
POLYLINE
  5
1070
  8
0
 66
     1
 10
0.0
 20
0.0
 30
0.0
  0
VERTEX
  5
194F
  8
0
 10
56.688281955924957
 20
60.0
 30
0.0
  0
VERTEX
  5
1950
  8
0
 10
56.602424778714273
 20
60.43872362413402
 30
0.0
  0
VERTEX
  5
1951
  8
0
 10
56.47817578237769
 20
61.274974184215161
 30
0.0
  0
VERTEX
  5
1952
  8
0
 10
56.414933787987223
 20
62.088885697107038
 30
0.0
  0
VERTEX
  5
1953
  8
0
 10
56.406749999949938
 20
62.499999999999979
 30
0.0
  0
SEQEND
  5
1954
  8
0
  0
LINE
  5
1071
  8
0
 10
56.406749999949938
 20
60.0
 30
0.0
 11
59.40674999994993
 21
60.0
 31
0.0
  0
LINE
  5
1078
  8
0
 10
59.40674999994993
 20
69.999999999999986
 30
0.0
 11
59.40674999994993
 21
60.0
 31
0.0
  0
LINE
  5
1079
  8
0
 10
56.406749999949938
 20
69.999999999999986
 30
0.0
 11
56.406749999949938
 21
60.0
 31
0.0
  0
POLYLINE
  5
107A
  8
0
 66
     1
 10
0.0
 20
0.0
 30
0.0
  0
VERTEX
  5
1955
  8
0
 10
59.125218043974911
 20
24.226497308653691
 30
0.0
  0
VERTEX
  5
1956
  8
0
 10
59.211075221185602
 20
24.479794511147318
 30
0.0
  0
VERTEX
  5
1957
  8
0
 10
59.335324217522242
 20
24.962603997120159
 30
0.0
  0
VERTEX
  5
1958
  8
0
 10
59.398566211912652
 20
25.432516028184821
 30
0.0
  0
VERTEX
  5
1959
  8
0
 10
59.40674999994993
 20
25.669872981627758
 30
0.0
  0
SEQEND
  5
195A
  8
0
  0
LINE
  5
107B
  8
0
 10
56.688281955924957
 20
24.226497308653691
 30
0.0
 11
59.125218043974911
 21
24.226497308653691
 31
0.0
  0
POLYLINE
  5
107C
  8
0
 66
     1
 10
0.0
 20
0.0
 30
0.0
  0
VERTEX
  5
195B
  8
0
 10
56.406749999949938
 20
25.669872981627758
 30
0.0
  0
VERTEX
  5
195C
  8
0
 10
56.414933787987223
 20
25.43251602818448
 30
0.0
  0
VERTEX
  5
195D
  8
0
 10
56.478175782377633
 20
24.96260399711959
 30
0.0
  0
VERTEX
  5
195E
  8
0
 10
56.602424778714273
 20
24.479794511147031
 30
0.0
  0
VERTEX
  5
195F
  8
0
 10
56.688281955924957
 20
24.226497308653691
 30
0.0
  0
SEQEND
  5
1960
  8
0
  0
POLYLINE
  5
107D
  8
0
 66
     1
 10
0.0
 20
0.0
 30
0.0
  0
VERTEX
  5
1961
  8
0
 10
56.688281955924957
 20
27.113248654601829
 30
0.0
  0
VERTEX
  5
1962
  8
0
 10
56.602424778714273
 20
26.859951452108209
 30
0.0
  0
VERTEX
  5
1963
  8
0
 10
56.478175782377633
 20
26.377141966135369
 30
0.0
  0
VERTEX
  5
1964
  8
0
 10
56.414933787987223
 20
25.907229935070699
 30
0.0
  0
VERTEX
  5
1965
  8
0
 10
56.406749999949938
 20
25.669872981627758
 30
0.0
  0
SEQEND
  5
1966
  8
0
  0
POLYLINE
  5
107E
  8
0
 66
     1
 10
0.0
 20
0.0
 30
0.0
  0
VERTEX
  5
1967
  8
0
 10
59.40674999994993
 20
25.669872981627758
 30
0.0
  0
VERTEX
  5
1968
  8
0
 10
59.398566211912652
 20
25.907229935071101
 30
0.0
  0
VERTEX
  5
1969
  8
0
 10
59.335324217522242
 20
26.377141966135991
 30
0.0
  0
VERTEX
  5
196A
  8
0
 10
59.211075221185602
 20
26.85995145210855
 30
0.0
  0
VERTEX
  5
196B
  8
0
 10
59.125218043974911
 20
27.113248654601829
 30
0.0
  0
SEQEND
  5
196C
  8
0
  0
POLYLINE
  5
107F
  8
0
 66
     1
 10
0.0
 20
0.0
 30
0.0
  0
VERTEX
  5
196D
  8
0
 10
59.125218043974911
 20
32.886751346498123
 30
0.0
  0
VERTEX
  5
196E
  8
0
 10
59.211075221185602
 20
33.140048548991743
 30
0.0
  0
VERTEX
  5
196F
  8
0
 10
59.335324217522242
 20
33.62285803496458
 30
0.0
  0
VERTEX
  5
1970
  8
0
 10
59.398566211912652
 20
34.092770066029253
 30
0.0
  0
VERTEX
  5
1971
  8
0
 10
59.40674999994993
 20
34.330127019472187
 30
0.0
  0
SEQEND
  5
1972
  8
0
  0
POLYLINE
  5
1080
  8
0
 66
     1
 10
0.0
 20
0.0
 30
0.0
  0
VERTEX
  5
1973
  8
0
 10
56.406749999949938
 20
34.330127019472187
 30
0.0
  0
VERTEX
  5
1974
  8
0
 10
56.414933787987223
 20
34.092770066028848
 30
0.0
  0
VERTEX
  5
1975
  8
0
 10
56.478175782377633
 20
33.622858034963961
 30
0.0
  0
VERTEX
  5
1976
  8
0
 10
56.602424778714273
 20
33.140048548991402
 30
0.0
  0
VERTEX
  5
1977
  8
0
 10
56.688281955924957
 20
32.886751346498123
 30
0.0
  0
SEQEND
  5
1978
  8
0
  0
POLYLINE
  5
1081
  8
0
 66
     1
 10
0.0
 20
0.0
 30
0.0
  0
VERTEX
  5
1979
  8
0
 10
56.688281955924957
 20
35.773502692446257
 30
0.0
  0
VERTEX
  5
197A
  8
0
 10
56.602424778714273
 20
35.52020548995263
 30
0.0
  0
VERTEX
  5
197B
  8
0
 10
56.478175782377633
 20
35.037396003979801
 30
0.0
  0
VERTEX
  5
197C
  8
0
 10
56.414933787987223
 20
34.567483972915127
 30
0.0
  0
VERTEX
  5
197D
  8
0
 10
56.406749999949938
 20
34.330127019472187
 30
0.0
  0
SEQEND
  5
197E
  8
0
  0
LINE
  5
1082
  8
0
 10
56.688281955924957
 20
35.773502692446257
 30
0.0
 11
59.125218043974911
 21
35.773502692446257
 31
0.0
  0
POLYLINE
  5
1083
  8
0
 66
     1
 10
0.0
 20
0.0
 30
0.0
  0
VERTEX
  5
197F
  8
0
 10
59.40674999994993
 20
34.330127019472187
 30
0.0
  0
VERTEX
  5
1980
  8
0
 10
59.398566211912652
 20
34.567483972915468
 30
0.0
  0
VERTEX
  5
1981
  8
0
 10
59.335324217522242
 20
35.037396003980369
 30
0.0
  0
VERTEX
  5
1982
  8
0
 10
59.211075221185602
 20
35.520205489952922
 30
0.0
  0
VERTEX
  5
1983
  8
0
 10
59.125218043974911
 20
35.773502692446257
 30
0.0
  0
SEQEND
  5
1984
  8
0
  0
POLYLINE
  5
1084
  8
0
 66
     1
 10
0.0
 20
0.0
 30
0.0
  0
VERTEX
  5
1985
  8
0
 10
59.125218043974911
 20
27.113248654601829
 30
0.0
  0
VERTEX
  5
1986
  8
0
 10
59.211075221185602
 20
27.61984305958909
 30
0.0
  0
VERTEX
  5
1987
  8
0
 10
59.335324217522242
 20
28.58546203153476
 30
0.0
  0
VERTEX
  5
1988
  8
0
 10
59.398566211912652
 20
29.525286093664089
 30
0.0
  0
VERTEX
  5
1989
  8
0
 10
59.40674999994993
 20
30.000000000549981
 30
0.0
  0
SEQEND
  5
198A
  8
0
  0
POLYLINE
  5
1085
  8
0
 66
     1
 10
0.0
 20
0.0
 30
0.0
  0
VERTEX
  5
198B
  8
0
 10
56.406749999949938
 20
30.000000000549981
 30
0.0
  0
VERTEX
  5
198C
  8
0
 10
56.414933787987223
 20
29.525286093663361
 30
0.0
  0
VERTEX
  5
198D
  8
0
 10
56.478175782377633
 20
28.58546203153357
 30
0.0
  0
VERTEX
  5
198E
  8
0
 10
56.602424778714273
 20
27.619843059588462
 30
0.0
  0
VERTEX
  5
198F
  8
0
 10
56.688281955924957
 20
27.113248654601829
 30
0.0
  0
SEQEND
  5
1990
  8
0
  0
POLYLINE
  5
1086
  8
0
 66
     1
 10
0.0
 20
0.0
 30
0.0
  0
VERTEX
  5
1991
  8
0
 10
56.688281955924957
 20
32.886751346498123
 30
0.0
  0
VERTEX
  5
1992
  8
0
 10
56.602424778714273
 20
32.380156941510862
 30
0.0
  0
VERTEX
  5
1993
  8
0
 10
56.478175782377633
 20
31.414537969565188
 30
0.0
  0
VERTEX
  5
1994
  8
0
 10
56.414933787987223
 20
30.474713907435859
 30
0.0
  0
VERTEX
  5
1995
  8
0
 10
56.406749999949938
 20
30.000000000549981
 30
0.0
  0
SEQEND
  5
1996
  8
0
  0
POLYLINE
  5
1087
  8
0
 66
     1
 10
0.0
 20
0.0
 30
0.0
  0
VERTEX
  5
1997
  8
0
 10
59.40674999994993
 20
30.000000000549981
 30
0.0
  0
VERTEX
  5
1998
  8
0
 10
59.398566211912652
 20
30.474713907436591
 30
0.0
  0
VERTEX
  5
1999
  8
0
 10
59.335324217522242
 20
31.414537969566378
 30
0.0
  0
VERTEX
  5
199A
  8
0
 10
59.211075221185602
 20
32.380156941511487
 30
0.0
  0
VERTEX
  5
199B
  8
0
 10
59.125218043974911
 20
32.886751346498123
 30
0.0
  0
SEQEND
  5
199C
  8
0
  0
LINE
  5
108C
  8
0
 10
56.688281955924957
 20
32.886751346498123
 30
0.0
 11
59.125218043974911
 21
32.886751346498123
 31
0.0
  0
LINE
  5
1091
  8
0
 10
56.688281955924957
 20
27.113248654601829
 30
0.0
 11
59.125218043974911
 21
27.113248654601829
 31
0.0
  0
LINE
  5
1096
  8
0
 10
59.40674999994993
 20
35.000000000549981
 30
0.0
 11
59.40674999994993
 21
25.000000000549981
 31
0.0
  0
LINE
  5
1097
  8
0
 10
56.406749999949938
 20
35.000000000549981
 30
0.0
 11
56.406749999949938
 21
25.000000000549981
 31
0.0
  0
LINE
  5
1098
  8
0
 10
59.125218043974911
 20
24.226497308653691
 30
0.0
 11
59.40674999994993
 21
25.000000000549981
 31
0.0
  0
LINE
  5
1099
  8
0
 10
59.40674999994993
 20
35.000000000549981
 30
0.0
 11
59.125218043974911
 21
35.773502692446257
 31
0.0
  0
LINE
  5
109A
  8
0
 10
56.406749999949938
 20
25.000000000549981
 30
0.0
 11
56.688281955924957
 21
24.226497308653691
 31
0.0
  0
LINE
  5
109B
  8
0
 10
56.688281955924957
 20
35.773502692446257
 30
0.0
 11
56.406749999949938
 21
35.000000000549981
 31
0.0
  0
LINE
  5
1122
  8
0
 10
56.406749999949938
 20
32.99999999984999
 30
0.0
 11
51.81349999990001
 21
32.99999999984999
 31
0.0
  0
LINE
  5
1123
  8
3
 10
56.406749999949938
 20
32.45849999985009
 30
0.0
 11
51.095471882629028
 21
32.45849999985009
 31
0.0
  0
LINE
  5
1124
  8
0
 10
59.40674999994993
 20
26.99999999984999
 30
0.0
 11
66.000000000000028
 21
26.99999999984999
 31
0.0
  0
LINE
  5
1125
  8
3
 10
56.406749999949938
 20
27.541499999849911
 30
0.0
 11
51.095471882628971
 21
27.541499999849911
 31
0.0
  0
LINE
  5
1126
  8
0
 10
59.40674999994993
 20
61.999999999999929
 30
0.0
 11
71.942807628300017
 21
62.000000081799989
 31
0.0
  0
LINE
  5
1127
  8
3
 10
56.406749999949938
 20
62.541499999999857
 30
0.0
 11
51.095471882628971
 21
62.541499999999843
 31
0.0
  0
LINE
  5
1128
  8
3
 10
56.406749999949938
 20
67.458500000000058
 30
0.0
 11
51.095471882629028
 21
67.458500000000058
 31
0.0
  0
LINE
  5
1129
  8
0
 10
56.406749999949938
 20
67.999999999999957
 30
0.0
 11
51.81349999990001
 21
67.999999999999957
 31
0.0
  0
LINE
  5
13B7
  8
0
 10
77.670854238500013
 20
68.999999999999986
 30
0.0
 11
67.700000000000017
 21
68.999999999999986
 31
0.0
  0
LINE
  5
13B8
  8
0
 10
67.700000000000017
 20
61.000000000000007
 30
0.0
 11
77.670854238500013
 21
60.999999999999972
 31
0.0
  0
LINE
  5
13BE
  8
0
 10
67.700000000000017
 20
68.607954545500021
 30
0.0
 11
72.300000000000026
 21
68.607954545500021
 31
0.0
  0
LINE
  5
13C1
  8
0
 10
67.700000000000017
 20
61.392045454600009
 30
0.0
 11
72.300000000000026
 21
61.392045454599987
 31
0.0
  0
LINE
  5
13C2
  8
0
 10
72.300000000000026
 20
68.607954545500021
 30
0.0
 11
72.300000000000026
 21
61.392045454599987
 31
0.0
  0
LINE
  5
13C3
  8
0
 10
72.300000000000026
 20
61.392045454599987
 30
0.0
 11
72.000000000000014
 21
61.654545454599969
 31
0.0
  0
LINE
  5
13C4
  8
0
 10
72.000000000000014
 20
61.654545454599969
 30
0.0
 11
72.000000000000014
 21
68.345454545500004
 31
0.0
  0
LINE
  5
13C5
  8
0
 10
72.000000000000014
 20
68.345454545500004
 30
0.0
 11
72.300000000000026
 21
68.607954545500021
 31
0.0
  0
LINE
  5
13CB
  8
0
 10
66.152479138600015
 20
65.0
 30
0.0
 11
71.700000000000017
 21
64.999999999999972
 31
0.0
  0
LINE
  5
13CC
  8
0
 10
71.700000000000017
 20
63.821809332599997
 30
0.0
 11
71.700000000000017
 21
66.178190667400017
 31
0.0
  0
LINE
  5
13CD
  8
0
 10
72.000000000000014
 20
63.821809332599997
 30
0.0
 11
71.700000000000017
 21
63.821809332599997
 31
0.0
  0
LINE
  5
13CE
  8
0
 10
71.876847394300029
 20
61.999999999999979
 30
0.0
 11
72.000000000000014
 21
62.535634923900012
 31
0.0
  0
LINE
  5
13D4
  8
0
 10
72.000000000000014
 20
67.464365076100009
 30
0.0
 11
71.876847385400055
 21
68.000000033199996
 31
0.0
  0
LINE
  5
13D5
  8
0
 10
71.700000000000017
 20
66.178190667400017
 30
0.0
 11
72.000000000000014
 21
66.178190667400017
 31
0.0
  0
LINE
  5
13DD
  8
0
 10
72.000000000000014
 20
67.909090909099973
 30
0.0
 11
71.942807577800039
 21
67.999999999999986
 31
0.0
  0
LINE
  5
13DE
  8
0
 10
71.942807628300017
 20
62.000000081799989
 30
0.0
 11
72.000000000000014
 21
62.09090909089997
 31
0.0
  0
LINE
  5
13E0
  8
0
 10
67.700000000000017
 20
61.000000000000007
 30
0.0
 11
67.700000000000017
 21
62.000000000000007
 31
0.0
  0
LINE
  5
13E1
  8
0
 10
67.700000000000017
 20
67.999999999999986
 30
0.0
 11
67.700000000000017
 21
68.999999999999986
 31
0.0
  0
LINE
  5
13E9
  8
0
 10
77.670854238500013
 20
33.999999999999993
 30
0.0
 11
72.300000000000026
 21
33.999999999999993
 31
0.0
  0
LINE
  5
13EA
  8
0
 10
72.300000000000026
 20
25.999999999999979
 30
0.0
 11
77.670854238500013
 21
25.999999999999979
 31
0.0
  0
LINE
  5
13EB
  8
0
 10
72.000000000000014
 20
26.299999999999969
 30
0.0
 11
72.300000000000026
 21
25.999999999999979
 31
0.0
  0
LINE
  5
13EC
  8
0
 10
72.300000000000026
 20
33.999999999999993
 30
0.0
 11
72.000000000000014
 21
33.699999999999967
 31
0.0
  0
LINE
  5
13F4
  8
0
 10
72.300000000000026
 20
28.272960915899979
 30
0.0
 11
72.300000000000026
 21
25.999999999999979
 31
0.0
  0
LINE
  5
13F5
  8
0
 10
67.700000000000017
 20
28.272960915900011
 30
0.0
 11
72.300000000000026
 21
28.272960915899979
 31
0.0
  0
LINE
  5
13F6
  8
0
 10
67.700000000000017
 20
28.272960915900011
 30
0.0
 11
67.700000000000017
 21
31.72703908410001
 31
0.0
  0
LINE
  5
13F7
  8
0
 10
67.700000000000017
 20
31.72703908410001
 30
0.0
 11
72.300000000000026
 21
31.727039084099982
 31
0.0
  0
LINE
  5
13F8
  8
0
 10
72.300000000000026
 20
33.999999999999993
 30
0.0
 11
72.300000000000026
 21
31.727039084099982
 31
0.0
  0
LINE
  5
13F9
  8
0
 10
72.000000000000014
 20
26.299999999999969
 30
0.0
 11
72.000000000000014
 21
28.272960915899979
 31
0.0
  0
LINE
  5
13FA
  8
0
 10
72.000000000000014
 20
31.727039084099982
 30
0.0
 11
72.000000000000014
 21
33.699999999999967
 31
0.0
  0
LINE
  5
13FB
  8
0
 10
71.87793565740003
 20
28.272960915899979
 30
0.0
 11
71.876847499900038
 21
28.26794964559998
 31
0.0
  0
LINE
  5
13FC
  8
0
 10
72.000000000000014
 20
27.958700224899971
 30
0.0
 11
71.876847385400055
 21
28.267949211599969
 31
0.0
  0
LINE
  5
1401
  8
0
 10
71.876847394300029
 20
31.732050807499981
 30
0.0
 11
66.152479138600015
 21
31.73205080750002
 31
0.0
  0
LINE
  5
1402
  8
0
 10
71.877935650200044
 20
31.727039084099982
 30
0.0
 11
71.876847394300029
 21
31.732050807499981
 31
0.0
  0
LINE
  5
1403
  8
0
 10
67.300000000000026
 20
31.428285685700001
 30
0.0
 11
67.700000000000017
 21
31.428285685700001
 31
0.0
  0
LINE
  5
1404
  8
0
 10
67.300000000000026
 20
28.571714314299989
 30
0.0
 11
67.300000000000026
 21
31.428285685700001
 31
0.0
  0
LINE
  5
1405
  8
0
 10
67.700000000000017
 20
28.571714314299989
 30
0.0
 11
67.300000000000026
 21
28.571714314299989
 31
0.0
  0
LINE
  5
1406
  8
0
 10
66.152479138600015
 20
28.267949192399989
 30
0.0
 11
71.87684738980002
 21
28.267949201999969
 31
0.0
  0
LINE
  5
140B
  8
0
 10
71.700000000000017
 20
27.216127083799972
 30
0.0
 11
72.000000000000014
 21
27.216127083799972
 31
0.0
  0
LINE
  5
140C
  8
0
 10
71.700000000000017
 20
27.216127083799972
 30
0.0
 11
71.700000000000017
 21
26.535898384799982
 31
0.0
  0
LINE
  5
1411
  8
0
 10
71.876847394300029
 20
31.732050807499981
 30
0.0
 11
72.000000000000014
 21
32.041299774999963
 31
0.0
  0
LINE
  5
1415
  8
0
 10
71.700000000000017
 20
32.78387291609998
 30
0.0
 11
71.700000000000017
 21
33.464101615099977
 31
0.0
  0
LINE
  5
1416
  8
0
 10
72.000000000000014
 20
32.78387291609998
 30
0.0
 11
71.700000000000017
 21
32.78387291609998
 31
0.0
  0
ARC
  5
1610
  8
2
 10
24.400000000000009
 20
30.0
 30
0.0
 40
1.9000000000000099
 50
222.5368983634599
 51
245.36311571590031
  0
ARC
  5
1611
  8
2
 10
24.400000000000009
 20
30.0
 30
0.0
 40
1.9000000000000059
 50
114.63688428409959
 51
137.46310163654039
  0
ARC
  5
1612
  8
2
 10
15.60000000000001
 20
30.0
 30
0.0
 40
1.8999999999999999
 50
42.536898363460139
 51
65.363115715900349
  0
ARC
  5
1613
  8
2
 10
15.60000000000001
 20
30.0
 30
0.0
 40
1.8999999999999959
 50
294.63688428409972
 51
317.46310163653988
  0
ARC
  5
1614
  8
2
 10
20.0
 20
30.0
 30
0.0
 40
3.6999999999903621
 50
25.287346953900169
 51
154.71265304609989
  0
ARC
  5
1615
  8
2
 10
20.0
 20
30.0
 30
0.0
 40
3.699999999990351
 50
205.28734695390011
 51
334.71265304609977
  0
CIRCLE
  5
1616
  8
2
 10
20.0
 20
30.0
 30
0.0
 40
3.99999999999944
  0
LINE
  5
1736
  8
2
 10
20.0
 20
33.464101614400001
 30
0.0
 11
16.99999999998937
 21
31.73205080682499
 31
0.0
  0
LINE
  5
1737
  8
2
 10
16.99999999998937
 20
31.73205080682499
 30
0.0
 11
16.99999999998937
 21
28.26794919167498
 31
0.0
  0
LINE
  5
1738
  8
2
 10
16.99999999998937
 20
28.26794919167498
 30
0.0
 11
20.0
 21
26.535898384099969
 31
0.0
  0
LINE
  5
1739
  8
2
 10
20.0
 20
26.535898384099969
 30
0.0
 11
23.00000000001063
 21
28.267949191674969
 31
0.0
  0
LINE
  5
173A
  8
2
 10
23.00000000001063
 20
28.267949191674969
 30
0.0
 11
23.00000000001063
 21
31.732050806824979
 31
0.0
  0
LINE
  5
173B
  8
2
 10
23.00000000001063
 20
31.732050806824979
 30
0.0
 11
20.0
 21
33.464101614400001
 31
0.0
  0
LINE
  5
173C
  8
0
 10
20.000000000099991
 20
35.773502691899957
 30
0.0
 11
15.000000000115049
 21
32.886751346018258
 31
0.0
  0
LINE
  5
173D
  8
0
 10
15.000000000115049
 20
32.886751346018258
 30
0.0
 11
15.000000000065061
 21
27.11324865416826
 31
0.0
  0
LINE
  5
173E
  8
0
 10
15.000000000065061
 20
27.11324865416826
 30
0.0
 11
20.0
 21
24.226497308199971
 31
0.0
  0
LINE
  5
173F
  8
0
 10
20.0
 20
24.226497308199971
 30
0.0
 11
24.99999999998494
 21
27.113248654081669
 31
0.0
  0
LINE
  5
1740
  8
0
 10
24.99999999998494
 20
27.113248654081669
 30
0.0
 11
25.00000000003493
 21
32.886751345931657
 31
0.0
  0
LINE
  5
1741
  8
0
 10
25.00000000003493
 20
32.886751345931657
 30
0.0
 11
20.000000000099991
 21
35.773502691899957
 31
0.0
  0
ENDSEC
  0
EOF
