  0
SECTION
  2
HEADER
  9
$ACADVER
  1
AC1009
  9
$INSBASE
 10
0.0
 20
0.0
 30
0.0
  9
$EXTMIN
 10
0.0
 20
-1.4802182810368341
 30
0.0
  9
$EXTMAX
 10
110.0
 20
67.0
 30
0.0
  9
$LIMMIN
 10
0.0
 20
0.0
  9
$LIMMAX
 10
385.0
 20
270.0
  9
$ORTHOMODE
 70
     1
  9
$REGENMODE
 70
     1
  9
$FILLMODE
 70
     1
  9
$QTEXTMODE
 70
     0
  9
$MIRRTEXT
 70
     0
  9
$DRAGMODE
 70
     2
  9
$LTSCALE
 40
5.0
  9
$OSMODE
 70
    37
  9
$ATTMODE
 70
     1
  9
$TEXTSIZE
 40
4.000000000000048
  9
$TRACEWID
 40
0.05
  9
$TEXTSTYLE
  7
STANDARD
  9
$CLAYER
  8
0
  9
$CELTYPE
  6
BYLAYER
  9
$CECOLOR
 62
   256
  9
$DIMSCALE
 40
1.0
  9
$DIMASZ
 40
3.0
  9
$DIMEXO
 40
2.0
  9
$DIMDLI
 40
0.38
  9
$DIMRND
 40
0.0
  9
$DIMDLE
 40
0.0
  9
$DIMEXE
 40
2.0
  9
$DIMTP
 40
0.0
  9
$DIMTM
 40
0.0
  9
$DIMTXT
 40
3.0
  9
$DIMCEN
 40
0.0
  9
$DIMTSZ
 40
0.0
  9
$DIMTOL
 70
     0
  9
$DIMLIM
 70
     0
  9
$DIMTIH
 70
     0
  9
$DIMTOH
 70
     0
  9
$DIMSE1
 70
     0
  9
$DIMSE2
 70
     0
  9
$DIMTAD
 70
     1
  9
$DIMZIN
 70
     0
  9
$DIMBLK
  1

  9
$DIMASO
 70
     0
  9
$DIMSHO
 70
     0
  9
$DIMPOST
  1

  9
$DIMAPOST
  1

  9
$DIMALT
 70
     0
  9
$DIMALTD
 70
     2
  9
$DIMALTF
 40
25.399999999999999
  9
$DIMLFAC
 40
1.0
  9
$DIMTOFL
 70
     1
  9
$DIMTVP
 40
1.6000000000000001
  9
$DIMTIX
 70
     1
  9
$DIMSOXD
 70
     0
  9
$DIMSAH
 70
     0
  9
$DIMBLK1
  1

  9
$DIMBLK2
  1

  9
$DIMSTYLE
  2
STANDARD
  9
$DIMCLRD
 70
     0
  9
$DIMCLRE
 70
     0
  9
$DIMCLRT
 70
     0
  9
$DIMTFAC
 40
1.0
  9
$DIMGAP
 40
1.0
  9
$LUNITS
 70
     2
  9
$LUPREC
 70
     4
  9
$SKETCHINC
 40
0.1
  9
$FILLETRAD
 40
0.0
  9
$AUNITS
 70
     0
  9
$AUPREC
 70
     4
  9
$MENU
  1
E:\r13\win\SUPPORT\ACAD
  9
$ELEVATION
 40
0.0
  9
$PELEVATION
 40
0.0
  9
$THICKNESS
 40
0.0
  9
$LIMCHECK
 70
     0
  9
$BLIPMODE
 70
     0
  9
$CHAMFERA
 40
0.0
  9
$CHAMFERB
 40
0.0
  9
$SKPOLY
 70
     0
  9
$TDCREATE
 40
2450280.598206134
  9
$TDUPDATE
 40
2458249.5922332178
  9
$TDINDWG
 40
0.2153841088
  9
$TDUSRTIMER
 40
0.2153841088
  9
$USRTIMER
 70
     1
  9
$ANGBASE
 50
0.0
  9
$ANGDIR
 70
     0
  9
$PDMODE
 70
     0
  9
$PDSIZE
 40
0.0
  9
$PLINEWID
 40
0.0
  9
$COORDS
 70
     1
  9
$SPLFRAME
 70
     0
  9
$SPLINETYPE
 70
     6
  9
$SPLINESEGS
 70
     8
  9
$ATTDIA
 70
     0
  9
$ATTREQ
 70
     1
  9
$HANDLING
 70
     1
  9
$HANDSEED
  5
1587
  9
$SURFTAB1
 70
     6
  9
$SURFTAB2
 70
     6
  9
$SURFTYPE
 70
     6
  9
$SURFU
 70
     6
  9
$SURFV
 70
     6
  9
$UCSNAME
  2

  9
$UCSORG
 10
0.0
 20
0.0
 30
0.0
  9
$UCSXDIR
 10
1.0
 20
0.0
 30
0.0
  9
$UCSYDIR
 10
0.0
 20
1.0
 30
0.0
  9
$PUCSNAME
  2

  9
$PUCSORG
 10
0.0
 20
0.0
 30
0.0
  9
$PUCSXDIR
 10
1.0
 20
0.0
 30
0.0
  9
$PUCSYDIR
 10
0.0
 20
1.0
 30
0.0
  9
$USERI1
 70
     3
  9
$USERI2
 70
     1
  9
$USERI3
 70
     1
  9
$USERI4
 70
     0
  9
$USERI5
 70
     0
  9
$USERR1
 40
1.0
  9
$USERR2
 40
3.0
  9
$USERR3
 40
3.0
  9
$USERR4
 40
3.0
  9
$USERR5
 40
10.0
  9
$WORLDVIEW
 70
     1
  9
$SHADEDGE
 70
     3
  9
$SHADEDIF
 70
    70
  9
$TILEMODE
 70
     1
  9
$MAXACTVP
 70
    16
  9
$PLIMCHECK
 70
     0
  9
$PEXTMIN
 10
1.0000000000000000E+020
 20
1.0000000000000000E+020
 30
1.0000000000000000E+020
  9
$PEXTMAX
 10
-1.0000000000000000E+020
 20
-1.0000000000000000E+020
 30
-1.0000000000000000E+020
  9
$PLIMMIN
 10
0.0
 20
0.0
  9
$PLIMMAX
 10
12.0
 20
9.0
  9
$UNITMODE
 70
     0
  9
$VISRETAIN
 70
     0
  9
$PLINEGEN
 70
     0
  9
$PSLTSCALE
 70
     0
  0
ENDSEC
  0
SECTION
  2
TABLES
  0
TABLE
  2
VPORT
 70
     1
  0
VPORT
  2
*ACTIVE
 70
     0
 10
0.0
 20
0.0
 11
1.0
 21
1.0
 12
54.99916948090555
 22
33.713605296213181
 13
0.0
 23
0.0
 14
5.0
 24
5.0
 15
10.0
 25
10.0
 16
0.0
 26
0.0
 36
1.0
 17
0.0
 27
0.0
 37
0.0
 40
71.479100356910834
 41
2.0984455958549222
 42
50.0
 43
0.0
 44
0.0
 50
0.0
 51
0.0
 71
     0
 72
   500
 73
     1
 74
     0
 75
     0
 76
     0
 77
     0
 78
     2
  0
ENDTAB
  0
TABLE
  2
LTYPE
 70
     4
  0
LTYPE
  2
CONTINUOUS
 70
     0
  3
Solid Line
 72
    65
 73
     0
 40
0.0
  0
LTYPE
  2
CENTER
 70
     0
  3
____ _ ____ _ ____ _ ____ _ ____ _ ____ _ ____
 72
    65
 73
     4
 40
2.0
 49
1.25
 49
-0.25
 49
0.25
 49
-0.25
  0
LTYPE
  2
HIDDEN
 70
     0
  3
_ _ _ _ _ _ _ _ _ _ _ _ _ _ _ _ _ _ _ _ _ _ _
 72
    65
 73
     2
 40
0.375
 49
0.25
 49
-0.125
  0
LTYPE
  2
PHANTOM2
 70
     0
  3
___ _ _ ___ _ _ ___ _ _ ___ _ _
 72
    65
 73
     6
 40
1.25
 49
0.625
 49
-0.125
 49
0.125
 49
-0.125
 49
0.125
 49
-0.125
  0
ENDTAB
  0
TABLE
  2
LAYER
 70
     4
  0
LAYER
  2
0
 70
     0
 62
     7
  6
CONTINUOUS
  0
LAYER
  2
1
 70
     0
 62
     1
  6
CENTER
  0
LAYER
  2
3
 70
     0
 62
     3
  6
CONTINUOUS
  0
LAYER
  2
2
 70
     0
 62
     2
  6
HIDDEN
  0
ENDTAB
  0
TABLE
  2
STYLE
 70
     2
  0
STYLE
  2
STANDARD
 70
     0
 40
0.0
 41
1.0
 50
0.0
 71
     0
 42
4.000000000000048
  3
SIMPLEX
  4
BIGFONT
  0
STYLE
  2
STANDARD1
 70
     0
 40
0.0
 41
1.0
 50
0.0
 71
     0
 42
3.0
  3
txt
  4

  0
ENDTAB
  0
TABLE
  2
VIEW
 70
     0
  0
ENDTAB
  0
TABLE
  2
UCS
 70
     0
  0
ENDTAB
  0
TABLE
  2
APPID
 70
     4
  0
APPID
  2
ACAD
 70
     0
  0
APPID
  2
ACAD_MLEADERVER
 70
     0
  0
APPID
  2
ACAD_NAV_VCDISPLAY
 70
     0
  0
APPID
  2
ACAD_EXEMPT_FROM_CAD_STANDARDS
 70
     0
  0
ENDTAB
  0
TABLE
  2
DIMSTYLE
 70
     2
  0
DIMSTYLE
  2
STANDARD
 70
     0
  3

  4

  5

  6

  7

 40
1.0
 41
0.18
 42
0.0625
 43
0.38
 44
0.18
 45
0.0
 46
0.0
 47
0.0
 48
0.0
140
0.18
141
0.09
142
0.0
143
25.399999999999999
144
1.0
145
0.0
146
1.0
147
0.09
 71
     0
 72
     0
 73
     1
 74
     1
 75
     0
 76
     0
 77
     0
 78
     0
170
     0
171
     2
172
     0
173
     0
174
     0
175
     0
176
     0
177
     0
178
     0
  0
DIMSTYLE
  2
ISO-25
 70
     0
  3

  4

  5

  6

  7

 40
1.0
 41
2.5
 42
0.625
 43
3.75
 44
1.25
 45
0.0
 46
0.0
 47
0.0
 48
0.0
140
2.5
141
2.5
142
0.0
143
0.0393700787
144
1.0
145
0.0
146
1.0
147
0.625
 71
     0
 72
     0
 73
     0
 74
     0
 75
     0
 76
     0
 77
     1
 78
     8
170
     0
171
     3
172
     1
173
     0
174
     0
175
     0
176
     0
177
     0
178
     0
  0
ENDTAB
  0
ENDSEC
  0
SECTION
  2
BLOCKS
  0
BLOCK
  8
0
  2
$MODEL_SPACE
 70
     0
 10
0.0
 20
0.0
 30
0.0
  3
$MODEL_SPACE
  1

  0
ENDBLK
  5
175
  8
0
  0
BLOCK
 67
     1
  8
0
  2
$PAPER_SPACE
 70
     0
 10
0.0
 20
0.0
 30
0.0
  3
$PAPER_SPACE
  1

  0
ENDBLK
  5
173
 67
     1
  8
0
  0
ENDSEC
  0
SECTION
  2
ENTITIES
  0
TEXT
  5
99A
  8
0
 62
     3
 10
0.0
 20
0.0
 30
0.0
 40
5.0
  1
NDXC6-3AW
  7
STANDARD1
  0
LINE
  5
AC1
  8
0
 10
74.949999999999946
 20
66.999999999999986
 30
0.0
 11
74.54999999999994
 21
66.999999999999986
 31
0.0
  0
LINE
  5
AC2
  8
0
 10
74.54999999999994
 20
52.999999999999979
 30
0.0
 11
74.949999999999946
 21
52.999999999999979
 31
0.0
  0
LINE
  5
AC3
  8
0
 10
74.54999999999994
 20
66.999999999999986
 30
0.0
 11
70.420854238599944
 21
63.999999999999979
 31
0.0
  0
LINE
  5
AC4
  8
0
 10
70.420854238599944
 20
55.999999999999979
 30
0.0
 11
74.54999999999994
 21
52.999999999999979
 31
0.0
  0
ARC
  5
AC5
  8
0
 10
74.949999999999946
 20
53.79999999999999
 30
0.0
 40
0.8000000000000113
 50
270.0
 51
0.0
  0
ARC
  5
AC6
  8
0
 10
74.949999999999946
 20
66.200000000000003
 30
0.0
 40
0.7999999999999972
 50
0.0
 51
90.0
  0
LINE
  5
AC7
  8
0
 10
70.420854238599944
 20
63.999999999999979
 30
0.0
 11
65.04999999999994
 21
63.999999999999979
 31
0.0
  0
LINE
  5
AC8
  8
0
 10
65.04999999999994
 20
55.999999999999979
 30
0.0
 11
70.420854238599944
 21
55.999999999999979
 31
0.0
  0
LINE
  5
AC9
  8
0
 10
65.04999999999994
 20
63.999999999999979
 30
0.0
 11
64.749999999999957
 21
63.700000000000003
 31
0.0
  0
LINE
  5
ACA
  8
0
 10
64.749999999999957
 20
56.299999999899981
 30
0.0
 11
65.04999999999994
 21
55.999999999999979
 31
0.0
  0
LINE
  5
ACB
  8
0
 10
48.563499999999927
 20
62.999999999999979
 30
0.0
 11
47.74999999999995
 21
62.386499999899982
 31
0.0
  0
LINE
  5
ACC
  8
0
 10
47.74999999999995
 20
57.613500000000002
 30
0.0
 11
48.563499999999927
 21
56.999999999999993
 31
0.0
  0
LINE
  5
ACD
  8
0
 10
64.749999999999957
 20
62.999999999999979
 30
0.0
 11
54.741379559535957
 21
62.999999999999979
 31
0.0
  0
LINE
  5
ACE
  8
0
 10
54.741379559535957
 20
56.999999999999993
 30
0.0
 11
64.749999999999957
 21
56.999999999999993
 31
0.0
  0
LINE
  5
ACF
  8
0
 10
51.741379559535957
 20
62.999999999999979
 30
0.0
 11
48.563499999999927
 21
62.999999999999979
 31
0.0
  0
LINE
  5
AD0
  8
0
 10
48.563499999999927
 20
56.999999999999993
 30
0.0
 11
51.741379559535957
 21
56.999999999999972
 31
0.0
  0
LINE
  5
AD4
  8
0
 10
74.54999999999994
 20
52.999999999999979
 30
0.0
 11
74.54999999999994
 21
66.999999999999986
 31
0.0
  0
LINE
  5
AD5
  8
0
 10
70.420854238599944
 20
63.999999999999979
 30
0.0
 11
70.420854238599944
 21
55.999999999999979
 31
0.0
  0
LINE
  5
AD6
  8
0
 10
75.749999999999943
 20
66.200000000000003
 30
0.0
 11
75.749999999999943
 21
53.79999999999999
 31
0.0
  0
LINE
  5
AED
  8
0
 10
65.04999999999994
 20
63.999999999999979
 30
0.0
 11
65.04999999999994
 21
55.999999999999979
 31
0.0
  0
LINE
  5
AEF
  8
0
 10
64.749999999999957
 20
56.299999999899981
 30
0.0
 11
64.749999999999957
 21
63.700000000000003
 31
0.0
  0
LINE
  5
AF0
  8
0
 10
64.626847394299944
 20
59.999999999999993
 30
0.0
 11
64.749999999999957
 21
60.535634923899991
 31
0.0
  0
LINE
  5
AF1
  8
0
 10
64.626847394299944
 20
59.999999999999993
 30
0.0
 11
64.749999999999957
 21
59.464365076100009
 31
0.0
  0
LINE
  5
AF3
  8
0
 10
59.902479138599929
 20
62.999999999899991
 30
0.0
 11
59.749999999999957
 21
62.464365075999993
 31
0.0
  0
LINE
  5
AF5
  8
0
 10
64.626847394299944
 20
62.999999999999979
 30
0.0
 11
64.749999999999957
 21
62.464365076100009
 31
0.0
  0
LINE
  5
AF6
  8
0
 10
59.902479138599929
 20
59.999999999999993
 30
0.0
 11
64.626847394299944
 21
59.999999999999993
 31
0.0
  0
LINE
  5
AF7
  8
0
 10
59.749999999999957
 20
60.535634923899991
 30
0.0
 11
59.902479138599929
 21
59.999999999999993
 31
0.0
  0
LINE
  5
AFA
  8
0
 10
59.902479138599929
 20
59.999999999899991
 30
0.0
 11
59.749999999999957
 21
59.464365075999993
 31
0.0
  0
LINE
  5
AFB
  8
0
 10
64.626847394299944
 20
56.999999999999993
 30
0.0
 11
64.749999999999957
 21
57.535634923899991
 31
0.0
  0
LINE
  5
AFD
  8
0
 10
59.749999999999957
 20
57.535634923899991
 30
0.0
 11
59.902479138599929
 21
56.999999999999993
 31
0.0
  0
LINE
  5
B00
  8
0
 10
47.74999999999995
 20
57.613500000000002
 30
0.0
 11
47.74999999999995
 21
62.386499999899982
 31
0.0
  0
LINE
  5
B01
  8
0
 10
48.563499999999927
 20
62.999999999999979
 30
0.0
 11
48.563499999999927
 21
56.999999999999993
 31
0.0
  0
LINE
  5
B05
  8
0
 10
59.749999999999957
 20
63.0
 30
0.0
 11
59.749999999999957
 21
56.999999999999993
 31
0.0
  0
LINE
  5
B0A
  8
0
 10
74.949999999999946
 20
52.999999999999979
 30
0.0
 11
74.949999999999946
 21
66.999999999999986
 31
0.0
  0
LINE
  5
B0B
  8
0
 10
74.949999999999932
 20
36.999999999299988
 30
0.0
 11
74.549999999999926
 21
36.999999999299988
 31
0.0
  0
LINE
  5
B0C
  8
0
 10
74.549999999999926
 20
22.99999999929998
 30
0.0
 11
74.949999999999932
 21
22.99999999929998
 31
0.0
  0
LINE
  5
B0D
  8
0
 10
74.549999999999926
 20
36.999999999299988
 30
0.0
 11
70.420854238599929
 21
33.999999999299988
 31
0.0
  0
LINE
  5
B0E
  8
0
 10
70.420854238599929
 20
25.999999999299991
 30
0.0
 11
74.549999999999926
 21
22.99999999929998
 31
0.0
  0
ARC
  5
B0F
  8
0
 10
74.949999999999932
 20
23.799999999299992
 30
0.0
 40
0.7999999999999972
 50
270.0
 51
0.0
  0
ARC
  5
B10
  8
0
 10
74.949999999999932
 20
36.199999999299997
 30
0.0
 40
0.7999999999999972
 50
0.0
 51
90.0
  0
LINE
  5
B11
  8
0
 10
70.420854238599929
 20
33.999999999299988
 30
0.0
 11
65.049999999999926
 21
33.999999999299988
 31
0.0
  0
LINE
  5
B12
  8
0
 10
65.049999999999926
 20
25.999999999299991
 30
0.0
 11
70.420854238599929
 21
25.999999999299991
 31
0.0
  0
LINE
  5
B13
  8
0
 10
65.049999999999926
 20
33.999999999299988
 30
0.0
 11
64.749999999999943
 21
33.699999999299997
 31
0.0
  0
LINE
  5
B14
  8
0
 10
64.749999999999943
 20
26.299999999299999
 30
0.0
 11
65.049999999999926
 21
25.999999999299991
 31
0.0
  0
LINE
  5
B15
  8
0
 10
59.749999999999943
 20
32.999999999299988
 30
0.0
 11
54.741379559535957
 21
32.999999999299988
 31
0.0
  0
LINE
  5
B16
  8
0
 10
54.741379559535957
 20
26.99999999929998
 30
0.0
 11
59.749999999999943
 21
26.99999999929998
 31
0.0
  0
LINE
  5
B17
  8
0
 10
51.741379559535957
 20
32.999999999299988
 30
0.0
 11
48.563499999999912
 21
32.999999999299988
 31
0.0
  0
LINE
  5
B18
  8
0
 10
48.563499999999912
 20
26.99999999929998
 30
0.0
 11
51.741379559535957
 21
26.999999999299991
 31
0.0
  0
LINE
  5
B19
  8
0
 10
48.563499999999912
 20
32.999999999299988
 30
0.0
 11
47.749999999999943
 21
32.386499999199977
 31
0.0
  0
LINE
  5
B1A
  8
0
 10
47.749999999999943
 20
27.6134999993
 30
0.0
 11
48.563499999999912
 21
26.99999999929998
 31
0.0
  0
ARC
  5
B1F
  8
0
 10
47.249999999999943
 20
29.999999999299991
 30
0.0
 40
2.9999999999999161
 50
156.9005047944234
 51
203.09949520557649
  0
LINE
  5
B20
  8
0
 10
47.749999999999943
 20
31.499999999299991
 30
0.0
 11
45.05000000000004
 21
31.499999999299991
 31
0.0
  0
LINE
  5
B21
  8
0
 10
45.05000000000004
 20
28.49999999929997
 30
0.0
 11
47.749999999999943
 21
28.499999999299991
 31
0.0
  0
LINE
  5
B22
  8
0
 10
59.749999999999943
 20
26.799999999299999
 30
0.0
 11
59.902479138599922
 21
26.53589838409998
 31
0.0
  0
LINE
  5
B23
  8
0
 10
59.902479138599922
 20
33.464101614400008
 30
0.0
 11
59.749999999999943
 21
33.199999999300012
 31
0.0
  0
LINE
  5
B24
  8
0
 10
64.626847394299944
 20
26.53589838409998
 30
0.0
 11
64.749999999999943
 21
26.799999999299999
 31
0.0
  0
LINE
  5
B25
  8
0
 10
64.749999999999943
 20
33.199999999300012
 30
0.0
 11
64.626847394299944
 21
33.464101614400008
 31
0.0
  0
LINE
  5
B26
  8
0
 10
74.549999999999926
 20
22.99999999929998
 30
0.0
 11
74.549999999999926
 21
36.999999999299988
 31
0.0
  0
LINE
  5
B27
  8
0
 10
70.420854238599929
 20
33.999999999299988
 30
0.0
 11
70.420854238599929
 21
25.999999999299991
 31
0.0
  0
LINE
  5
B28
  8
0
 10
75.749999999999943
 20
36.199999999299997
 30
0.0
 11
75.749999999999943
 21
23.800000000699988
 31
0.0
  0
LINE
  5
B3D
  8
0
 10
65.049999999999926
 20
33.999999999299988
 30
0.0
 11
65.049999999999926
 21
25.999999999299991
 31
0.0
  0
LINE
  5
B3E
  8
0
 10
64.749999999999943
 20
26.299999999299999
 30
0.0
 11
64.749999999999943
 21
33.699999999299997
 31
0.0
  0
LINE
  5
B41
  8
0
 10
59.902479138599922
 20
33.464101614400008
 30
0.0
 11
64.626847394299944
 21
33.464101614400008
 31
0.0
  0
LINE
  5
B43
  8
0
 10
64.626847394299944
 20
31.73205080679999
 30
0.0
 11
64.749999999999943
 21
32.041299774299993
 31
0.0
  0
LINE
  5
B44
  8
0
 10
59.902479138599922
 20
31.73205080679999
 30
0.0
 11
64.626847394299944
 21
31.73205080679999
 31
0.0
  0
LINE
  5
B45
  8
0
 10
59.749999999999943
 20
32.041299774299993
 30
0.0
 11
59.902479138599922
 21
31.73205080679999
 31
0.0
  0
LINE
  5
B47
  8
0
 10
48.563499999999912
 20
32.999999999299988
 30
0.0
 11
48.563499999999912
 21
26.99999999929998
 31
0.0
  0
LINE
  5
B48
  8
0
 10
47.749999999999943
 20
27.6134999993
 30
0.0
 11
47.749999999999943
 21
32.386499999199977
 31
0.0
  0
LINE
  5
B49
  8
0
 10
59.902479138599922
 20
31.73205080679999
 30
0.0
 11
59.749999999999943
 21
31.113552871799989
 31
0.0
  0
LINE
  5
B4A
  8
0
 10
64.626847394299944
 20
31.73205080679999
 30
0.0
 11
64.749999999999943
 21
31.113552871799989
 31
0.0
  0
LINE
  5
B4B
  8
0
 10
64.626847394299944
 20
28.267949191700001
 30
0.0
 11
64.749999999999943
 21
28.886447126699991
 31
0.0
  0
LINE
  5
B4C
  8
0
 10
59.902479138599922
 20
28.267949191700001
 30
0.0
 11
64.626847394299944
 21
28.267949191700001
 31
0.0
  0
LINE
  5
B4D
  8
0
 10
59.749999999999943
 20
28.886447126699991
 30
0.0
 11
59.902479138599922
 21
28.267949191700001
 31
0.0
  0
LINE
  5
B51
  8
0
 10
64.626847394299944
 20
28.267949191700001
 30
0.0
 11
64.749999999999943
 21
27.958700224200001
 31
0.0
  0
LINE
  5
B52
  8
0
 10
59.902479138599922
 20
28.267949191700001
 30
0.0
 11
59.749999999999943
 21
27.958700224200001
 31
0.0
  0
LINE
  5
B55
  8
0
 10
59.902479138599922
 20
26.53589838409998
 30
0.0
 11
64.626847394299944
 21
26.53589838409998
 31
0.0
  0
LINE
  5
B57
  8
0
 10
59.749999999999943
 20
26.799999999299999
 30
0.0
 11
59.749999999999943
 21
33.199999999300012
 31
0.0
  0
LINE
  5
B60
  8
0
 10
74.949999999999932
 20
22.99999999929998
 30
0.0
 11
74.949999999999932
 21
36.999999999299988
 31
0.0
  0
CIRCLE
  5
B62
  8
0
 10
100.0
 20
29.999999999999972
 30
0.0
 40
6.9999999999999716
  0
CIRCLE
  5
B64
  8
0
 10
20.0
 20
30.0
 30
0.0
 40
1.4999999999999849
  0
CIRCLE
  5
B66
  8
0
 10
20.0
 20
30.0
 30
0.0
 40
3.0
  0
CIRCLE
  5
B79
  8
0
 10
20.0
 20
30.0
 30
0.0
 40
6.999999999999992
  0
LINE
  5
D38
  8
0
 10
45.050000000000011
 20
28.49999999929997
 30
0.0
 11
45.050000000000011
 21
31.499999999299991
 31
0.0
  0
LINE
  5
D39
  8
0
 10
45.050000000000011
 20
31.499999999299991
 30
0.0
 11
44.490525138289691
 21
31.17698703728669
 31
0.0
  0
LINE
  5
D3A
  8
0
 10
45.050000000000011
 20
28.499999999299991
 30
0.0
 11
44.490525138289691
 21
28.823012961313282
 31
0.0
  0
LINE
  5
D42
  8
0
 10
44.490525138289691
 20
31.17698703728669
 30
0.0
 11
44.490525138289691
 21
28.823012961313282
 31
0.0
  0
ARC
  5
D43
  8
0
 10
47.249999999999957
 20
59.999999999999993
 30
0.0
 40
2.9999999999999161
 50
156.90050479442351
 51
203.09949520557649
  0
LINE
  5
D44
  8
0
 10
47.74999999999995
 20
61.499999999999979
 30
0.0
 11
45.050000000000047
 21
61.499999999999979
 31
0.0
  0
LINE
  5
D45
  8
0
 10
45.050000000000047
 20
58.499999999999979
 30
0.0
 11
47.74999999999995
 21
58.499999999999979
 31
0.0
  0
LINE
  5
D46
  8
0
 10
45.050000000000033
 20
58.499999999999979
 30
0.0
 11
45.050000000000033
 21
61.499999999999979
 31
0.0
  0
LINE
  5
D47
  8
0
 10
45.050000000000033
 20
61.499999999999979
 30
0.0
 11
44.490525138289712
 21
61.176987037986677
 31
0.0
  0
LINE
  5
D48
  8
0
 10
45.050000000000033
 20
58.499999999999979
 30
0.0
 11
44.490525138289712
 21
58.823012962013301
 31
0.0
  0
LINE
  5
D49
  8
0
 10
44.490525138289712
 20
61.176987037986677
 30
0.0
 11
44.490525138289712
 21
58.823012962013301
 31
0.0
  0
LINE
  5
DA5
  8
0
 10
57.74999999999995
 20
62.999999999999979
 30
0.0
 11
57.74999999999995
 21
56.999999999999993
 31
0.0
  0
LINE
  5
DA6
  8
0
 10
57.74999999999995
 20
32.999999999300051
 30
0.0
 11
57.74999999999995
 21
26.99999999930003
 31
0.0
  0
LINE
  5
DC5
  8
3
 10
57.74999999999995
 20
62.458500000000079
 30
0.0
 11
54.741379559535957
 21
62.458500000000008
 31
0.0
  0
LINE
  5
DC6
  8
3
 10
51.741379559535957
 20
62.458500000000029
 30
0.0
 11
47.84547188264068
 21
62.458500000000058
 31
0.0
  0
LINE
  5
DC7
  8
3
 10
57.74999999999995
 20
57.541499999999878
 30
0.0
 11
54.741379559535957
 21
57.541499999999921
 31
0.0
  0
LINE
  5
DC8
  8
3
 10
51.741379559535957
 20
57.541499999999829
 30
0.0
 11
47.845471882640616
 21
57.541499999999878
 31
0.0
  0
LINE
  5
DC9
  8
3
 10
57.74999999999995
 20
62.458500000000079
 30
0.0
 11
58.687905512298343
 21
62.999999999999979
 31
0.0
  0
LINE
  5
DCA
  8
3
 10
57.74999999999995
 20
57.541499999999878
 30
0.0
 11
58.687905512298343
 21
56.999999999999993
 31
0.0
  0
LINE
  5
DCB
  8
3
 10
57.74999999999995
 20
32.458499999300138
 30
0.0
 11
54.741379559535957
 21
32.458499999300138
 31
0.0
  0
LINE
  5
DCD
  8
3
 10
57.74999999999995
 20
27.541499999299941
 30
0.0
 11
54.741379559535957
 21
27.541499999299941
 31
0.0
  0
LINE
  5
DCF
  8
3
 10
57.74999999999995
 20
32.458499999300138
 30
0.0
 11
58.687905512298329
 21
32.99999999930003
 31
0.0
  0
LINE
  5
DD0
  8
3
 10
57.74999999999995
 20
27.541499999299941
 30
0.0
 11
58.687905512298329
 21
26.999999999300051
 31
0.0
  0
LINE
  5
DD1
  8
3
 10
51.741379559535957
 20
32.45849999930013
 30
0.0
 11
47.845471882640659
 21
32.45849999930013
 31
0.0
  0
LINE
  5
DD3
  8
3
 10
51.741379559535957
 20
27.54149999929993
 30
0.0
 11
47.845471882640609
 21
27.541499999299941
 31
0.0
  0
CIRCLE
  5
E16
  8
3
 10
20.0
 20
30.0
 30
0.0
 40
2.4603530499953621
  0
CIRCLE
  5
E17
  8
0
 10
20.0
 20
30.0
 30
0.0
 40
1.1769870379867049
  0
LINE
  5
E1E
  8
1
 10
10.0
 20
29.999999999999989
 30
0.0
 11
30.0
 21
29.999999999999989
 31
0.0
  0
LINE
  5
E1F
  8
1
 10
20.0
 20
40.0
 30
0.0
 11
20.0
 21
20.0
 31
0.0
  0
LINE
  5
E20
  8
1
 10
90.0
 20
29.999999999999972
 30
0.0
 11
110.0
 21
29.999999999999972
 31
0.0
  0
LINE
  5
E21
  8
1
 10
100.0
 20
39.999999999999993
 30
0.0
 11
100.0
 21
19.999999999999979
 31
0.0
  0
LINE
  5
E26
  8
1
 10
78.749999999999972
 20
59.999999999999993
 30
0.0
 11
41.250000000000043
 21
59.999999999999993
 31
0.0
  0
LINE
  5
E27
  8
1
 10
78.749999999999957
 20
29.999999999999979
 30
0.0
 11
41.250000000000021
 21
29.999999999999979
 31
0.0
  0
CIRCLE
  5
F9C
  8
0
 10
20.0
 20
30.0
 30
0.0
 40
4.9999999999693037
  0
POLYLINE
  5
116B
  8
0
 66
     1
 10
0.0
 20
0.0
 30
0.0
  0
VERTEX
  5
150F
  8
0
 10
54.459847603560988
 20
59.999999999299988
 30
0.0
  0
VERTEX
  5
1510
  8
0
 10
54.545704780771629
 20
60.438723623434001
 30
0.0
  0
VERTEX
  5
1511
  8
0
 10
54.669953777108262
 20
61.274974183515162
 30
0.0
  0
VERTEX
  5
1512
  8
0
 10
54.733195771498721
 20
62.088885696407047
 30
0.0
  0
VERTEX
  5
1513
  8
0
 10
54.741379559535957
 20
62.499999999299988
 30
0.0
  0
SEQEND
  5
1514
  8
0
  0
POLYLINE
  5
116C
  8
0
 66
     1
 10
0.0
 20
0.0
 30
0.0
  0
VERTEX
  5
1515
  8
0
 10
51.741379559535957
 20
62.499999999299988
 30
0.0
  0
VERTEX
  5
1516
  8
0
 10
51.749563347573243
 20
62.088885696406422
 30
0.0
  0
VERTEX
  5
1517
  8
0
 10
51.81280534196371
 20
61.274974183514118
 30
0.0
  0
VERTEX
  5
1518
  8
0
 10
51.937054338300292
 20
60.438723623433461
 30
0.0
  0
VERTEX
  5
1519
  8
0
 10
52.022911515510977
 20
59.999999999299988
 30
0.0
  0
SEQEND
  5
151A
  8
0
  0
POLYLINE
  5
116D
  8
0
 66
     1
 10
0.0
 20
0.0
 30
0.0
  0
VERTEX
  5
151B
  8
0
 10
52.022911515510977
 20
64.999999999299988
 30
0.0
  0
VERTEX
  5
151C
  8
0
 10
51.937054338300292
 20
64.561276375165974
 30
0.0
  0
VERTEX
  5
151D
  8
0
 10
51.81280534196371
 20
63.725025815084813
 30
0.0
  0
VERTEX
  5
151E
  8
0
 10
51.749563347573243
 20
62.911114302192921
 30
0.0
  0
VERTEX
  5
151F
  8
0
 10
51.741379559535957
 20
62.499999999299988
 30
0.0
  0
SEQEND
  5
1520
  8
0
  0
POLYLINE
  5
116E
  8
0
 66
     1
 10
0.0
 20
0.0
 30
0.0
  0
VERTEX
  5
1521
  8
0
 10
54.741379559535957
 20
62.499999999299988
 30
0.0
  0
VERTEX
  5
1522
  8
0
 10
54.733195771498721
 20
62.91111430219356
 30
0.0
  0
VERTEX
  5
1523
  8
0
 10
54.669953777108262
 20
63.725025815085857
 30
0.0
  0
VERTEX
  5
1524
  8
0
 10
54.545704780771629
 20
64.561276375166514
 30
0.0
  0
VERTEX
  5
1525
  8
0
 10
54.459847603560988
 20
64.999999999299988
 30
0.0
  0
SEQEND
  5
1526
  8
0
  0
LINE
  5
1170
  8
0
 10
51.741379559535957
 20
64.999999999299988
 30
0.0
 11
54.741379559535957
 21
64.999999999299988
 31
0.0
  0
LINE
  5
1173
  8
0
 10
52.022911515510977
 20
59.999999999299988
 30
0.0
 11
54.459847603560988
 21
59.999999999299988
 31
0.0
  0
POLYLINE
  5
1177
  8
0
 66
     1
 10
0.0
 20
0.0
 30
0.0
  0
VERTEX
  5
1527
  8
0
 10
54.741379559535957
 20
57.499999999299988
 30
0.0
  0
VERTEX
  5
1528
  8
0
 10
54.733195771498721
 20
57.088885696406422
 30
0.0
  0
VERTEX
  5
1529
  8
0
 10
54.669953777108262
 20
56.274974183514118
 30
0.0
  0
VERTEX
  5
152A
  8
0
 10
54.545704780771629
 20
55.438723623433461
 30
0.0
  0
VERTEX
  5
152B
  8
0
 10
54.459847603560988
 20
54.999999999300009
 30
0.0
  0
SEQEND
  5
152C
  8
0
  0
POLYLINE
  5
1178
  8
0
 66
     1
 10
0.0
 20
0.0
 30
0.0
  0
VERTEX
  5
152D
  8
0
 10
54.459847603560988
 20
59.999999999299988
 30
0.0
  0
VERTEX
  5
152E
  8
0
 10
54.545704780771629
 20
59.561276375165981
 30
0.0
  0
VERTEX
  5
152F
  8
0
 10
54.669953777108262
 20
58.725025815084813
 30
0.0
  0
VERTEX
  5
1530
  8
0
 10
54.733195771498721
 20
57.911114302192921
 30
0.0
  0
VERTEX
  5
1531
  8
0
 10
54.741379559535957
 20
57.499999999299988
 30
0.0
  0
SEQEND
  5
1532
  8
0
  0
POLYLINE
  5
1179
  8
0
 66
     1
 10
0.0
 20
0.0
 30
0.0
  0
VERTEX
  5
1533
  8
0
 10
51.741379559535957
 20
57.499999999299988
 30
0.0
  0
VERTEX
  5
1534
  8
0
 10
51.749563347573243
 20
57.91111430219356
 30
0.0
  0
VERTEX
  5
1535
  8
0
 10
51.81280534196371
 20
58.725025815085857
 30
0.0
  0
VERTEX
  5
1536
  8
0
 10
51.937054338300292
 20
59.561276375166507
 30
0.0
  0
VERTEX
  5
1537
  8
0
 10
52.022911515510977
 20
59.999999999299988
 30
0.0
  0
SEQEND
  5
1538
  8
0
  0
POLYLINE
  5
117A
  8
0
 66
     1
 10
0.0
 20
0.0
 30
0.0
  0
VERTEX
  5
1539
  8
0
 10
52.022911515510977
 20
54.999999999300009
 30
0.0
  0
VERTEX
  5
153A
  8
0
 10
51.937054338300292
 20
55.438723623434029
 30
0.0
  0
VERTEX
  5
153B
  8
0
 10
51.81280534196371
 20
56.274974183515162
 30
0.0
  0
VERTEX
  5
153C
  8
0
 10
51.749563347573243
 20
57.088885696407047
 30
0.0
  0
VERTEX
  5
153D
  8
0
 10
51.741379559535957
 20
57.499999999299988
 30
0.0
  0
SEQEND
  5
153E
  8
0
  0
LINE
  5
117B
  8
0
 10
51.741379559535957
 20
54.999999999300009
 30
0.0
 11
54.741379559535957
 21
54.999999999300009
 31
0.0
  0
LINE
  5
1182
  8
0
 10
54.741379559535957
 20
64.999999999299988
 30
0.0
 11
54.741379559535957
 21
54.999999999300009
 31
0.0
  0
LINE
  5
1183
  8
0
 10
51.741379559535957
 20
64.999999999299988
 30
0.0
 11
51.741379559535957
 21
54.999999999300009
 31
0.0
  0
POLYLINE
  5
1184
  8
0
 66
     1
 10
0.0
 20
0.0
 30
0.0
  0
VERTEX
  5
153F
  8
0
 10
54.459847603560931
 20
24.226497307403701
 30
0.0
  0
VERTEX
  5
1540
  8
0
 10
54.545704780771629
 20
24.479794509897332
 30
0.0
  0
VERTEX
  5
1541
  8
0
 10
54.669953777108262
 20
24.962603995870172
 30
0.0
  0
VERTEX
  5
1542
  8
0
 10
54.733195771498671
 20
25.432516026934831
 30
0.0
  0
VERTEX
  5
1543
  8
0
 10
54.741379559535957
 20
25.669872980377772
 30
0.0
  0
SEQEND
  5
1544
  8
0
  0
LINE
  5
1185
  8
0
 10
52.022911515510977
 20
24.226497307403701
 30
0.0
 11
54.459847603560931
 21
24.226497307403701
 31
0.0
  0
POLYLINE
  5
1186
  8
0
 66
     1
 10
0.0
 20
0.0
 30
0.0
  0
VERTEX
  5
1545
  8
0
 10
51.741379559535957
 20
25.669872980377772
 30
0.0
  0
VERTEX
  5
1546
  8
0
 10
51.749563347573243
 20
25.43251602693449
 30
0.0
  0
VERTEX
  5
1547
  8
0
 10
51.812805341963653
 20
24.9626039958696
 30
0.0
  0
VERTEX
  5
1548
  8
0
 10
51.937054338300292
 20
24.47979450989704
 30
0.0
  0
VERTEX
  5
1549
  8
0
 10
52.022911515510977
 20
24.226497307403701
 30
0.0
  0
SEQEND
  5
154A
  8
0
  0
POLYLINE
  5
1187
  8
0
 66
     1
 10
0.0
 20
0.0
 30
0.0
  0
VERTEX
  5
154B
  8
0
 10
52.022911515510977
 20
27.113248653351839
 30
0.0
  0
VERTEX
  5
154C
  8
0
 10
51.937054338300292
 20
26.859951450858219
 30
0.0
  0
VERTEX
  5
154D
  8
0
 10
51.812805341963653
 20
26.377141964885379
 30
0.0
  0
VERTEX
  5
154E
  8
0
 10
51.749563347573243
 20
25.907229933820709
 30
0.0
  0
VERTEX
  5
154F
  8
0
 10
51.741379559535957
 20
25.669872980377772
 30
0.0
  0
SEQEND
  5
1550
  8
0
  0
POLYLINE
  5
1188
  8
0
 66
     1
 10
0.0
 20
0.0
 30
0.0
  0
VERTEX
  5
1551
  8
0
 10
54.741379559535957
 20
25.669872980377772
 30
0.0
  0
VERTEX
  5
1552
  8
0
 10
54.733195771498671
 20
25.90722993382111
 30
0.0
  0
VERTEX
  5
1553
  8
0
 10
54.669953777108262
 20
26.377141964886
 30
0.0
  0
VERTEX
  5
1554
  8
0
 10
54.545704780771629
 20
26.85995145085856
 30
0.0
  0
VERTEX
  5
1555
  8
0
 10
54.459847603560931
 20
27.113248653351839
 30
0.0
  0
SEQEND
  5
1556
  8
0
  0
POLYLINE
  5
1189
  8
0
 66
     1
 10
0.0
 20
0.0
 30
0.0
  0
VERTEX
  5
1557
  8
0
 10
54.459847603560931
 20
32.886751345248129
 30
0.0
  0
VERTEX
  5
1558
  8
0
 10
54.545704780771629
 20
33.140048547741763
 30
0.0
  0
VERTEX
  5
1559
  8
0
 10
54.669953777108262
 20
33.622858033714593
 30
0.0
  0
VERTEX
  5
155A
  8
0
 10
54.733195771498671
 20
34.092770064779259
 30
0.0
  0
VERTEX
  5
155B
  8
0
 10
54.741379559535957
 20
34.3301270182222
 30
0.0
  0
SEQEND
  5
155C
  8
0
  0
POLYLINE
  5
118A
  8
0
 66
     1
 10
0.0
 20
0.0
 30
0.0
  0
VERTEX
  5
155D
  8
0
 10
51.741379559535957
 20
34.3301270182222
 30
0.0
  0
VERTEX
  5
155E
  8
0
 10
51.749563347573243
 20
34.092770064778861
 30
0.0
  0
VERTEX
  5
155F
  8
0
 10
51.812805341963653
 20
33.622858033713968
 30
0.0
  0
VERTEX
  5
1560
  8
0
 10
51.937054338300292
 20
33.140048547741422
 30
0.0
  0
VERTEX
  5
1561
  8
0
 10
52.022911515510977
 20
32.886751345248129
 30
0.0
  0
SEQEND
  5
1562
  8
0
  0
POLYLINE
  5
118B
  8
0
 66
     1
 10
0.0
 20
0.0
 30
0.0
  0
VERTEX
  5
1563
  8
0
 10
52.022911515510977
 20
35.773502691196271
 30
0.0
  0
VERTEX
  5
1564
  8
0
 10
51.937054338300292
 20
35.520205488702643
 30
0.0
  0
VERTEX
  5
1565
  8
0
 10
51.812805341963653
 20
35.037396002729807
 30
0.0
  0
VERTEX
  5
1566
  8
0
 10
51.749563347573243
 20
34.567483971665141
 30
0.0
  0
VERTEX
  5
1567
  8
0
 10
51.741379559535957
 20
34.3301270182222
 30
0.0
  0
SEQEND
  5
1568
  8
0
  0
LINE
  5
118C
  8
0
 10
52.022911515510977
 20
35.773502691196271
 30
0.0
 11
54.459847603560931
 21
35.773502691196271
 31
0.0
  0
POLYLINE
  5
118D
  8
0
 66
     1
 10
0.0
 20
0.0
 30
0.0
  0
VERTEX
  5
1569
  8
0
 10
54.741379559535957
 20
34.3301270182222
 30
0.0
  0
VERTEX
  5
156A
  8
0
 10
54.733195771498671
 20
34.567483971665482
 30
0.0
  0
VERTEX
  5
156B
  8
0
 10
54.669953777108262
 20
35.037396002730382
 30
0.0
  0
VERTEX
  5
156C
  8
0
 10
54.545704780771629
 20
35.520205488702928
 30
0.0
  0
VERTEX
  5
156D
  8
0
 10
54.459847603560931
 20
35.773502691196271
 30
0.0
  0
SEQEND
  5
156E
  8
0
  0
POLYLINE
  5
118E
  8
0
 66
     1
 10
0.0
 20
0.0
 30
0.0
  0
VERTEX
  5
156F
  8
0
 10
54.459847603560931
 20
27.113248653351839
 30
0.0
  0
VERTEX
  5
1570
  8
0
 10
54.545704780771629
 20
27.6198430583391
 30
0.0
  0
VERTEX
  5
1571
  8
0
 10
54.669953777108262
 20
28.58546203028477
 30
0.0
  0
VERTEX
  5
1572
  8
0
 10
54.733195771498671
 20
29.525286092414099
 30
0.0
  0
VERTEX
  5
1573
  8
0
 10
54.741379559535957
 20
29.999999999299991
 30
0.0
  0
SEQEND
  5
1574
  8
0
  0
POLYLINE
  5
118F
  8
0
 66
     1
 10
0.0
 20
0.0
 30
0.0
  0
VERTEX
  5
1575
  8
0
 10
51.741379559535957
 20
29.999999999299991
 30
0.0
  0
VERTEX
  5
1576
  8
0
 10
51.749563347573243
 20
29.525286092413371
 30
0.0
  0
VERTEX
  5
1577
  8
0
 10
51.812805341963653
 20
28.58546203028358
 30
0.0
  0
VERTEX
  5
1578
  8
0
 10
51.937054338300292
 20
27.619843058338471
 30
0.0
  0
VERTEX
  5
1579
  8
0
 10
52.022911515510977
 20
27.113248653351839
 30
0.0
  0
SEQEND
  5
157A
  8
0
  0
POLYLINE
  5
1190
  8
0
 66
     1
 10
0.0
 20
0.0
 30
0.0
  0
VERTEX
  5
157B
  8
0
 10
52.022911515510977
 20
32.886751345248129
 30
0.0
  0
VERTEX
  5
157C
  8
0
 10
51.937054338300292
 20
32.380156940260882
 30
0.0
  0
VERTEX
  5
157D
  8
0
 10
51.812805341963653
 20
31.414537968315202
 30
0.0
  0
VERTEX
  5
157E
  8
0
 10
51.749563347573243
 20
30.474713906185869
 30
0.0
  0
VERTEX
  5
157F
  8
0
 10
51.741379559535957
 20
29.999999999299991
 30
0.0
  0
SEQEND
  5
1580
  8
0
  0
POLYLINE
  5
1191
  8
0
 66
     1
 10
0.0
 20
0.0
 30
0.0
  0
VERTEX
  5
1581
  8
0
 10
54.741379559535957
 20
29.999999999299991
 30
0.0
  0
VERTEX
  5
1582
  8
0
 10
54.733195771498671
 20
30.474713906186611
 30
0.0
  0
VERTEX
  5
1583
  8
0
 10
54.669953777108262
 20
31.414537968316392
 30
0.0
  0
VERTEX
  5
1584
  8
0
 10
54.545704780771629
 20
32.3801569402615
 30
0.0
  0
VERTEX
  5
1585
  8
0
 10
54.459847603560931
 20
32.886751345248129
 30
0.0
  0
SEQEND
  5
1586
  8
0
  0
LINE
  5
1196
  8
0
 10
52.022911515510977
 20
32.886751345248129
 30
0.0
 11
54.459847603560931
 21
32.886751345248129
 31
0.0
  0
LINE
  5
119B
  8
0
 10
52.022911515510977
 20
27.113248653351839
 30
0.0
 11
54.459847603560931
 21
27.113248653351839
 31
0.0
  0
LINE
  5
11A0
  8
0
 10
54.741379559535957
 20
34.999999999299988
 30
0.0
 11
54.741379559535957
 21
24.999999999299991
 31
0.0
  0
LINE
  5
11A1
  8
0
 10
51.741379559535957
 20
34.999999999299988
 30
0.0
 11
51.741379559535957
 21
24.999999999299991
 31
0.0
  0
LINE
  5
11A2
  8
0
 10
54.459847603560931
 20
24.226497307403701
 30
0.0
 11
54.741379559535957
 21
24.999999999299991
 31
0.0
  0
LINE
  5
11A3
  8
0
 10
54.741379559535957
 20
34.999999999299988
 30
0.0
 11
54.459847603560931
 21
35.773502691196271
 31
0.0
  0
LINE
  5
11A4
  8
0
 10
51.741379559535957
 20
24.999999999299991
 30
0.0
 11
52.022911515510977
 21
24.226497307403701
 31
0.0
  0
LINE
  5
11A5
  8
0
 10
52.022911515510977
 20
35.773502691196271
 30
0.0
 11
51.741379559535957
 21
34.999999999299988
 31
0.0
  0
CIRCLE
  5
1351
  8
2
 10
20.0
 20
29.999999999299991
 30
0.0
 40
4.0
  0
LINE
  5
13EE
  8
0
 10
20.000000000099991
 20
35.773502691899978
 30
0.0
 11
15.000000000115049
 21
32.886751346018272
 31
0.0
  0
LINE
  5
13EF
  8
0
 10
15.000000000115049
 20
32.886751346018272
 30
0.0
 11
15.000000000065061
 21
27.113248654168281
 31
0.0
  0
LINE
  5
13F0
  8
0
 10
15.000000000065061
 20
27.113248654168281
 30
0.0
 11
20.0
 21
24.226497308199981
 31
0.0
  0
LINE
  5
13F1
  8
0
 10
20.0
 20
24.226497308199981
 30
0.0
 11
24.99999999998494
 21
27.11324865408168
 31
0.0
  0
LINE
  5
13F2
  8
0
 10
24.99999999998494
 20
27.11324865408168
 30
0.0
 11
25.00000000003493
 21
32.886751345931671
 31
0.0
  0
LINE
  5
13F3
  8
0
 10
25.00000000003493
 20
32.886751345931671
 30
0.0
 11
20.000000000099991
 21
35.773502691899978
 31
0.0
  0
LINE
  5
13F4
  8
2
 10
20.0
 20
33.464101614400008
 30
0.0
 11
16.999999999989381
 21
31.732050806825001
 31
0.0
  0
LINE
  5
13F5
  8
2
 10
16.999999999989381
 20
31.732050806825001
 30
0.0
 11
16.999999999989381
 21
28.26794919167499
 31
0.0
  0
LINE
  5
13F6
  8
2
 10
16.999999999989381
 20
28.26794919167499
 30
0.0
 11
20.0
 21
26.53589838409998
 31
0.0
  0
LINE
  5
13F7
  8
2
 10
20.0
 20
26.53589838409998
 30
0.0
 11
23.000000000010619
 21
28.26794919167499
 31
0.0
  0
LINE
  5
13F8
  8
2
 10
23.000000000010619
 20
28.26794919167499
 30
0.0
 11
23.000000000010619
 21
31.732050806825001
 31
0.0
  0
LINE
  5
13F9
  8
2
 10
23.000000000010619
 20
31.732050806825001
 30
0.0
 11
20.0
 21
33.464101614400008
 31
0.0
  0
ENDSEC
  0
EOF
