  0
SECTION
  2
HEADER
  9
$ACADVER
  1
AC1009
  9
$INSBASE
 10
0.0
 20
0.0
 30
0.0
  9
$EXTMIN
 10
0.0
 20
-1.4802182810368341
 30
0.0
  9
$EXTMAX
 10
158.0
 20
87.999999998799979
 30
0.0
  9
$LIMMIN
 10
0.0
 20
0.0
  9
$LIMMAX
 10
385.0
 20
270.0
  9
$ORTHOMODE
 70
     1
  9
$REGENMODE
 70
     1
  9
$FILLMODE
 70
     1
  9
$QTEXTMODE
 70
     0
  9
$MIRRTEXT
 70
     0
  9
$DRAGMODE
 70
     2
  9
$LTSCALE
 40
5.0
  9
$OSMODE
 70
    37
  9
$ATTMODE
 70
     1
  9
$TEXTSIZE
 40
4.000000000000048
  9
$TRACEWID
 40
0.05
  9
$TEXTSTYLE
  7
STANDARD
  9
$CLAYER
  8
0
  9
$CELTYPE
  6
BYLAYER
  9
$CECOLOR
 62
   256
  9
$DIMSCALE
 40
1.0
  9
$DIMASZ
 40
3.0
  9
$DIMEXO
 40
2.0
  9
$DIMDLI
 40
0.38
  9
$DIMRND
 40
0.0
  9
$DIMDLE
 40
0.0
  9
$DIMEXE
 40
2.0
  9
$DIMTP
 40
0.0
  9
$DIMTM
 40
0.0
  9
$DIMTXT
 40
3.0
  9
$DIMCEN
 40
0.0
  9
$DIMTSZ
 40
0.0
  9
$DIMTOL
 70
     0
  9
$DIMLIM
 70
     0
  9
$DIMTIH
 70
     0
  9
$DIMTOH
 70
     0
  9
$DIMSE1
 70
     0
  9
$DIMSE2
 70
     0
  9
$DIMTAD
 70
     1
  9
$DIMZIN
 70
     0
  9
$DIMBLK
  1

  9
$DIMASO
 70
     0
  9
$DIMSHO
 70
     0
  9
$DIMPOST
  1

  9
$DIMAPOST
  1

  9
$DIMALT
 70
     0
  9
$DIMALTD
 70
     2
  9
$DIMALTF
 40
25.399999999999999
  9
$DIMLFAC
 40
1.0
  9
$DIMTOFL
 70
     1
  9
$DIMTVP
 40
1.6000000000000001
  9
$DIMTIX
 70
     1
  9
$DIMSOXD
 70
     0
  9
$DIMSAH
 70
     0
  9
$DIMBLK1
  1

  9
$DIMBLK2
  1

  9
$DIMSTYLE
  2
STANDARD
  9
$DIMCLRD
 70
     0
  9
$DIMCLRE
 70
     0
  9
$DIMCLRT
 70
     0
  9
$DIMTFAC
 40
1.0
  9
$DIMGAP
 40
1.0
  9
$LUNITS
 70
     2
  9
$LUPREC
 70
     4
  9
$SKETCHINC
 40
0.1
  9
$FILLETRAD
 40
0.0
  9
$AUNITS
 70
     0
  9
$AUPREC
 70
     4
  9
$MENU
  1
E:\r13\win\SUPPORT\ACAD
  9
$ELEVATION
 40
0.0
  9
$PELEVATION
 40
0.0
  9
$THICKNESS
 40
0.0
  9
$LIMCHECK
 70
     0
  9
$BLIPMODE
 70
     0
  9
$CHAMFERA
 40
0.0
  9
$CHAMFERB
 40
0.0
  9
$SKPOLY
 70
     0
  9
$TDCREATE
 40
2450280.598206134
  9
$TDUPDATE
 40
2458249.5922824312
  9
$TDINDWG
 40
0.0965691667
  9
$TDUSRTIMER
 40
0.0965691667
  9
$USRTIMER
 70
     1
  9
$ANGBASE
 50
0.0
  9
$ANGDIR
 70
     0
  9
$PDMODE
 70
     0
  9
$PDSIZE
 40
0.0
  9
$PLINEWID
 40
0.0
  9
$COORDS
 70
     1
  9
$SPLFRAME
 70
     0
  9
$SPLINETYPE
 70
     6
  9
$SPLINESEGS
 70
     8
  9
$ATTDIA
 70
     0
  9
$ATTREQ
 70
     1
  9
$HANDLING
 70
     1
  9
$HANDSEED
  5
C36
  9
$SURFTAB1
 70
     6
  9
$SURFTAB2
 70
     6
  9
$SURFTYPE
 70
     6
  9
$SURFU
 70
     6
  9
$SURFV
 70
     6
  9
$UCSNAME
  2

  9
$UCSORG
 10
0.0
 20
0.0
 30
0.0
  9
$UCSXDIR
 10
1.0
 20
0.0
 30
0.0
  9
$UCSYDIR
 10
0.0
 20
1.0
 30
0.0
  9
$PUCSNAME
  2

  9
$PUCSORG
 10
0.0
 20
0.0
 30
0.0
  9
$PUCSXDIR
 10
1.0
 20
0.0
 30
0.0
  9
$PUCSYDIR
 10
0.0
 20
1.0
 30
0.0
  9
$USERI1
 70
     3
  9
$USERI2
 70
     1
  9
$USERI3
 70
     1
  9
$USERI4
 70
     0
  9
$USERI5
 70
     0
  9
$USERR1
 40
1.0
  9
$USERR2
 40
3.0
  9
$USERR3
 40
3.0
  9
$USERR4
 40
3.0
  9
$USERR5
 40
10.0
  9
$WORLDVIEW
 70
     1
  9
$SHADEDGE
 70
     3
  9
$SHADEDIF
 70
    70
  9
$TILEMODE
 70
     1
  9
$MAXACTVP
 70
    16
  9
$PLIMCHECK
 70
     0
  9
$PEXTMIN
 10
1.0000000000000000E+020
 20
1.0000000000000000E+020
 30
1.0000000000000000E+020
  9
$PEXTMAX
 10
-1.0000000000000000E+020
 20
-1.0000000000000000E+020
 30
-1.0000000000000000E+020
  9
$PLIMMIN
 10
0.0
 20
0.0
  9
$PLIMMAX
 10
12.0
 20
9.0
  9
$UNITMODE
 70
     0
  9
$VISRETAIN
 70
     0
  9
$PLINEGEN
 70
     0
  9
$PSLTSCALE
 70
     0
  0
ENDSEC
  0
SECTION
  2
TABLES
  0
TABLE
  2
VPORT
 70
     1
  0
VPORT
  2
*ACTIVE
 70
     0
 10
0.0
 20
0.0
 11
1.0
 21
1.0
 12
78.99481593687787
 22
43.541304702294021
 13
0.0
 23
0.0
 14
5.0
 24
5.0
 15
10.0
 25
10.0
 16
0.0
 26
0.0
 36
1.0
 17
0.0
 27
0.0
 37
0.0
 40
91.345341415562245
 41
2.0984455958549222
 42
50.0
 43
0.0
 44
0.0
 50
0.0
 51
0.0
 71
     0
 72
   500
 73
     1
 74
     0
 75
     0
 76
     0
 77
     0
 78
     2
  0
ENDTAB
  0
TABLE
  2
LTYPE
 70
     4
  0
LTYPE
  2
CONTINUOUS
 70
     0
  3
Solid Line
 72
    65
 73
     0
 40
0.0
  0
LTYPE
  2
CENTER
 70
     0
  3
____ _ ____ _ ____ _ ____ _ ____ _ ____ _ ____
 72
    65
 73
     4
 40
2.0
 49
1.25
 49
-0.25
 49
0.25
 49
-0.25
  0
LTYPE
  2
HIDDEN
 70
     0
  3
_ _ _ _ _ _ _ _ _ _ _ _ _ _ _ _ _ _ _ _ _ _ _
 72
    65
 73
     2
 40
0.375
 49
0.25
 49
-0.125
  0
LTYPE
  2
PHANTOM2
 70
     0
  3
___ _ _ ___ _ _ ___ _ _ ___ _ _
 72
    65
 73
     6
 40
1.25
 49
0.625
 49
-0.125
 49
0.125
 49
-0.125
 49
0.125
 49
-0.125
  0
ENDTAB
  0
TABLE
  2
LAYER
 70
     4
  0
LAYER
  2
0
 70
     0
 62
     7
  6
CONTINUOUS
  0
LAYER
  2
1
 70
     0
 62
     1
  6
CENTER
  0
LAYER
  2
3
 70
     0
 62
     3
  6
CONTINUOUS
  0
LAYER
  2
2
 70
     0
 62
     2
  6
HIDDEN
  0
ENDTAB
  0
TABLE
  2
STYLE
 70
     2
  0
STYLE
  2
STANDARD
 70
     0
 40
0.0
 41
1.0
 50
0.0
 71
     0
 42
4.000000000000048
  3
SIMPLEX
  4
BIGFONT
  0
STYLE
  2
STANDARD1
 70
     0
 40
0.0
 41
1.0
 50
0.0
 71
     0
 42
3.0
  3
txt
  4

  0
ENDTAB
  0
TABLE
  2
VIEW
 70
     0
  0
ENDTAB
  0
TABLE
  2
UCS
 70
     0
  0
ENDTAB
  0
TABLE
  2
APPID
 70
     4
  0
APPID
  2
ACAD
 70
     0
  0
APPID
  2
ACAD_MLEADERVER
 70
     0
  0
APPID
  2
ACAD_NAV_VCDISPLAY
 70
     0
  0
APPID
  2
ACAD_EXEMPT_FROM_CAD_STANDARDS
 70
     0
  0
ENDTAB
  0
TABLE
  2
DIMSTYLE
 70
     2
  0
DIMSTYLE
  2
STANDARD
 70
     0
  3

  4

  5

  6

  7

 40
1.0
 41
0.18
 42
0.0625
 43
0.38
 44
0.18
 45
0.0
 46
0.0
 47
0.0
 48
0.0
140
0.18
141
0.09
142
0.0
143
25.399999999999999
144
1.0
145
0.0
146
1.0
147
0.09
 71
     0
 72
     0
 73
     1
 74
     1
 75
     0
 76
     0
 77
     0
 78
     0
170
     0
171
     2
172
     0
173
     0
174
     0
175
     0
176
     0
177
     0
178
     0
  0
DIMSTYLE
  2
ISO-25
 70
     0
  3

  4

  5

  6

  7

 40
1.0
 41
2.5
 42
0.625
 43
3.75
 44
1.25
 45
0.0
 46
0.0
 47
0.0
 48
0.0
140
2.5
141
2.5
142
0.0
143
0.0393700787
144
1.0
145
0.0
146
1.0
147
0.625
 71
     0
 72
     0
 73
     0
 74
     0
 75
     0
 76
     0
 77
     1
 78
     8
170
     0
171
     3
172
     1
173
     0
174
     0
175
     0
176
     0
177
     0
178
     0
  0
ENDTAB
  0
ENDSEC
  0
SECTION
  2
BLOCKS
  0
BLOCK
  8
0
  2
$MODEL_SPACE
 70
     0
 10
0.0
 20
0.0
 30
0.0
  3
$MODEL_SPACE
  1

  0
ENDBLK
  5
175
  8
0
  0
BLOCK
 67
     1
  8
0
  2
$PAPER_SPACE
 70
     0
 10
0.0
 20
0.0
 30
0.0
  3
$PAPER_SPACE
  1

  0
ENDBLK
  5
173
 67
     1
  8
0
  0
ENDSEC
  0
SECTION
  2
ENTITIES
  0
TEXT
  5
36B
  8
0
 62
     3
 10
0.0
 20
0.0
 30
0.0
 40
5.0
  1
NDXC10-6ALW
  7
STANDARD1
  0
LINE
  5
4A6
  8
0
 10
106.25
 20
87.999999998799979
 30
0.0
 11
100.74447231810009
 21
83.99999999879995
 31
0.0
  0
LINE
  5
4A7
  8
0
 10
100.74447231810009
 20
73.99999999879995
 30
0.0
 11
106.25
 21
69.999999998799979
 31
0.0
  0
LINE
  5
4A8
  8
0
 10
106.75
 20
87.999999998799979
 30
0.0
 11
106.25
 21
87.999999998799979
 31
0.0
  0
LINE
  5
4A9
  8
0
 10
106.25
 20
69.999999998799979
 30
0.0
 11
106.75
 21
69.999999998799979
 31
0.0
  0
ARC
  5
4AA
  8
0
 10
106.75
 20
70.999999998799964
 30
0.0
 40
1.0
 50
270.0
 51
0.0
  0
ARC
  5
4AB
  8
0
 10
106.75
 20
86.999999998799964
 30
0.0
 40
1.0
 50
0.0
 51
90.0
  0
LINE
  5
4B0
  8
0
 10
100.74447231810009
 20
83.999999998799979
 30
0.0
 11
78.750000000000028
 21
83.99999999879995
 31
0.0
  0
LINE
  5
4B1
  8
0
 10
78.750000000000028
 20
73.99999999879995
 30
0.0
 11
100.74447231810009
 21
73.99999999879995
 31
0.0
  0
LINE
  5
4B2
  8
0
 10
73.750000000000028
 20
83.99999999879995
 30
0.0
 11
67.370000000000033
 21
83.99999999879995
 31
0.0
  0
LINE
  5
4B3
  8
0
 10
67.370000000000033
 20
73.99999999879995
 30
0.0
 11
73.750000000000028
 21
73.99999999879995
 31
0.0
  0
LINE
  5
4B4
  8
0
 10
67.370000000000033
 20
83.99999999879995
 30
0.0
 11
66.250000000000028
 21
83.07999999889995
 31
0.0
  0
LINE
  5
4B5
  8
0
 10
66.250000000000028
 20
74.91999999869995
 30
0.0
 11
67.370000000000033
 21
73.99999999879995
 31
0.0
  0
ARC
  5
4B6
  8
0
 10
66.250000000000028
 20
78.99999999879995
 30
0.0
 40
6.0000000000000524
 50
158.4627507536234
 51
201.53724924637649
  0
LINE
  5
4B7
  8
0
 10
66.250000000000028
 20
81.99999999879995
 30
0.0
 11
62.049999999999969
 21
81.99999999879995
 31
0.0
  0
LINE
  5
4B8
  8
0
 10
62.049999999999947
 20
75.99999999879995
 30
0.0
 11
66.250000000000028
 21
75.99999999879995
 31
0.0
  0
ARC
  5
4B9
  8
0
 10
65.391867871100061
 20
83.443392420399931
 30
0.0
 40
13.3595319753755
 50
340.57328427719921
 51
359.17055802569831
  0
ARC
  5
4BB
  8
0
 10
65.373291851400069
 20
74.553289243299957
 30
0.0
 40
13.37815443226118
 50
0.8425005334007423
 51
19.413658114898581
  0
LINE
  5
4BC
  8
0
 10
77.990810616600044
 20
79.000000013199951
 30
0.0
 11
74.509189378600041
 21
78.99999999879995
 31
0.0
  0
ARC
  5
4BD
  8
0
 10
65.391867871100061
 20
74.943392420399931
 30
0.0
 40
13.35953197537567
 50
340.57328427719921
 51
359.17055802569831
  0
ARC
  5
4BF
  8
0
 10
87.108132208100102
 20
74.943392430199935
 30
0.0
 40
13.35953205469762
 50
180.82944201160001
 51
199.42671598879991
  0
ARC
  5
4C0
  8
0
 10
87.126708606200083
 20
74.553289213499937
 30
0.0
 40
13.378154890243
 50
160.58634263169921
 51
179.1574993678984
  0
ARC
  5
4C2
  8
0
 10
65.373292275200043
 20
83.053289279699953
 30
0.0
 40
13.378154007975899
 50
0.8425004040003646
 51
19.413658419401042
  0
ARC
  5
4C3
  8
0
 10
87.108132208100102
 20
83.443392430199935
 30
0.0
 40
13.359532054697709
 50
180.82944201160001
 51
199.42671598879991
  0
ARC
  5
4C4
  8
0
 10
87.126708606200083
 20
83.053289213499937
 30
0.0
 40
13.37815489024262
 50
160.58634263169921
 51
179.1574993678984
  0
LINE
  5
4C6
  8
0
 10
100.74447231810009
 20
83.99999999879995
 30
0.0
 11
100.74447231810009
 21
73.99999999879995
 31
0.0
  0
LINE
  5
4C7
  8
0
 10
106.25
 20
69.999999998799979
 30
0.0
 11
106.25
 21
87.999999998799979
 31
0.0
  0
LINE
  5
4C8
  8
0
 10
107.75
 20
86.999999998799964
 30
0.0
 11
107.75
 21
70.999999998799964
 31
0.0
  0
LINE
  5
4CB
  8
0
 10
78.750000000000028
 20
70.499999998799979
 30
0.0
 11
73.750000000000028
 21
70.499999998799979
 31
0.0
  0
LINE
  5
4CC
  8
0
 10
73.750000000000028
 20
87.499999998799979
 30
0.0
 11
73.750000000000028
 21
70.499999998799979
 31
0.0
  0
LINE
  5
4CE
  8
0
 10
78.750000000000028
 20
87.499999998799979
 30
0.0
 11
78.750000000000028
 21
70.499999998799979
 31
0.0
  0
LINE
  5
4CF
  8
0
 10
73.750000000000028
 20
87.499999998799979
 30
0.0
 11
78.750000000000028
 21
87.499999998799979
 31
0.0
  0
LINE
  5
4D2
  8
0
 10
86.250000000000028
 20
82.736931686499958
 30
0.0
 11
86.581111908600107
 21
83.999999923799933
 31
0.0
  0
LINE
  5
4D8
  8
0
 10
86.581111937200063
 20
79.000000015299946
 30
0.0
 11
86.250000000000028
 21
80.263068311099943
 31
0.0
  0
LINE
  5
4DB
  8
0
 10
86.250000000000028
 20
77.736931686499943
 30
0.0
 11
86.581111925500096
 21
78.999999974499929
 31
0.0
  0
LINE
  5
4E1
  8
0
 10
86.581111965800034
 20
73.999999994299941
 30
0.0
 11
86.250000000000028
 21
75.263068311099943
 31
0.0
  0
LINE
  5
4E5
  8
0
 10
67.370000000000033
 20
83.99999999879995
 30
0.0
 11
67.370000000000033
 21
73.99999999879995
 31
0.0
  0
LINE
  5
4E6
  8
0
 10
66.250000000000028
 20
74.91999999869995
 30
0.0
 11
66.250000000000028
 21
83.07999999889995
 31
0.0
  0
LINE
  5
4E8
  8
0
 10
86.250000000000028
 20
73.99999999879995
 30
0.0
 11
86.250000000000057
 21
83.99999999879995
 31
0.0
  0
LINE
  5
4F1
  8
0
 10
106.75
 20
69.999999998799979
 30
0.0
 11
106.75
 21
87.999999998799979
 31
0.0
  0
CIRCLE
  5
4F3
  8
0
 10
144.0
 20
33.999999999999993
 30
0.0
 40
9.0
  0
LINE
  5
4F5
  8
0
 10
143.9999999835
 20
43.814954545100008
 30
0.0
 11
142.23714936639999
 21
42.797172288400013
 31
0.0
  0
LINE
  5
4F6
  8
0
 10
145.74194704249999
 20
42.809240982399999
 30
0.0
 11
144.00000002589999
 21
43.814954561300048
 31
0.0
  0
POLYLINE
  5
4F7
  8
0
 66
     1
 10
0.0
 20
0.0
 30
0.0
 70
   128
  0
VERTEX
  5
C22
  8
0
 10
135.5000000375
 20
38.907477314899999
 30
0.0
  0
VERTEX
  5
C23
  8
0
 10
135.5
 20
37.71554432300001
 30
0.0
  0
VERTEX
  5
C24
  8
0
 10
135.5
 20
36.918910115700037
 30
0.0
  0
SEQEND
  5
C25
  8
0
  0
LINE
  5
4F8
  8
0
 10
137.25484335589999
 20
39.920636572100022
 30
0.0
 11
135.500000075
 21
38.90747733149999
 31
0.0
  0
LINE
  5
4F9
  8
0
 10
152.49999999999989
 20
36.911798109999999
 30
0.0
 11
152.49999999999989
 21
38.907477201499987
 31
0.0
  0
POLYLINE
  5
4FA
  8
0
 66
     1
 10
0.0
 20
0.0
 30
0.0
 70
   128
  0
VERTEX
  5
C26
  8
0
 10
152.50000000439991
 20
38.90747724230004
 30
0.0
  0
VERTEX
  5
C27
  8
0
 10
151.46775577259999
 20
39.503443770700059
 30
0.0
  0
VERTEX
  5
C28
  8
0
 10
150.74159359699999
 20
39.922693698300002
 30
0.0
  0
SEQEND
  5
C29
  8
0
  0
LINE
  5
4FB
  8
0
 10
150.73662474909989
 20
28.074437536100039
 30
0.0
 11
152.49999992499991
 21
29.092522668600051
 31
0.0
  0
POLYLINE
  5
4FC
  8
0
 66
     1
 10
0.0
 20
0.0
 30
0.0
 70
   128
  0
VERTEX
  5
C2A
  8
0
 10
152.49999996249991
 20
29.092522685200031
 30
0.0
  0
VERTEX
  5
C2B
  8
0
 10
152.49999999999989
 20
30.28445567710002
 30
0.0
  0
VERTEX
  5
C2C
  8
0
 10
152.49999999999989
 20
31.053595992700021
 30
0.0
  0
SEQEND
  5
C2D
  8
0
  0
POLYLINE
  5
4FD
  8
0
 66
     1
 10
0.0
 20
0.0
 30
0.0
 70
   128
  0
VERTEX
  5
C2E
  8
0
 10
135.49999999560001
 20
29.092522757799991
 30
0.0
  0
VERTEX
  5
C2F
  8
0
 10
136.53224422740001
 20
28.496556229400021
 30
0.0
  0
VERTEX
  5
C30
  8
0
 10
137.24239386400001
 20
28.086551145500032
 30
0.0
  0
SEQEND
  5
C31
  8
0
  0
LINE
  5
4FE
  8
0
 10
135.5
 20
31.113261669200021
 30
0.0
 11
135.5
 21
29.09252279860004
 31
0.0
  0
POLYLINE
  5
4FF
  8
0
 66
     1
 10
0.0
 20
0.0
 30
0.0
 70
   128
  0
VERTEX
  5
C32
  8
0
 10
143.99999995810001
 20
24.18504544289998
 30
0.0
  0
VERTEX
  5
C33
  8
0
 10
145.03224422740001
 20
24.7810119064
 30
0.0
  0
VERTEX
  5
C34
  8
0
 10
145.76007482590001
 20
25.201225098300021
 30
0.0
  0
SEQEND
  5
C35
  8
0
  0
LINE
  5
500
  8
0
 10
142.29549761739989
 20
25.169140333200058
 30
0.0
 11
143.999999925
 21
24.18504546710005
 31
0.0
  0
CIRCLE
  5
501
  8
0
 10
24.0
 20
34.0
 30
0.0
 40
3.0
  0
CIRCLE
  5
503
  8
0
 10
24.0
 20
34.0
 30
0.0
 40
5.0
  0
ARC
  5
516
  8
0
 10
24.0
 20
34.0
 30
0.0
 40
9.0000000000000089
 50
281.18903210000133
 51
318.70199234840112
  0
ARC
  5
517
  8
0
 10
24.0
 20
34.0
 30
0.0
 40
8.9999999999999876
 50
341.08690363610009
 51
19.11933889509935
  0
ARC
  5
518
  8
0
 10
24.0
 20
34.0
 30
0.0
 40
9.0000000000000053
 50
41.33526522849963
 51
78.686160974698637
  0
ARC
  5
519
  8
0
 10
24.0
 20
34.0
 30
0.0
 40
9.0000000000000249
 50
100.92651680350031
 51
138.81506998430069
  0
ARC
  5
51A
  8
0
 10
24.0
 20
34.0
 30
0.0
 40
9.0000000000000089
 50
161.2383981738999
 51
198.94935572519961
  0
ARC
  5
51B
  8
0
 10
24.0
 20
34.0
 30
0.0
 40
9.0000000000000089
 50
221.2782295661008
 51
258.66950228189933
  0
LINE
  5
51C
  8
0
 10
106.75
 20
43.000000001200007
 30
0.0
 11
106.25
 21
43.000000001200007
 31
0.0
  0
LINE
  5
51D
  8
0
 10
106.25
 20
25.000000001199961
 30
0.0
 11
106.75
 21
25.000000001199961
 31
0.0
  0
LINE
  5
51E
  8
0
 10
106.25
 20
43.000000001200007
 30
0.0
 11
100.74447231809999
 21
39.000000001200021
 31
0.0
  0
LINE
  5
51F
  8
0
 10
100.74447231809999
 20
29.000000001200021
 30
0.0
 11
106.25
 21
25.000000001199961
 31
0.0
  0
ARC
  5
520
  8
0
 10
106.75
 20
26.000000001199961
 30
0.0
 40
1.0
 50
270.0
 51
0.0
  0
ARC
  5
521
  8
0
 10
106.75
 20
42.000000001200007
 30
0.0
 40
1.0
 50
0.0
 51
90.0
  0
LINE
  5
524
  8
0
 10
67.370000000000033
 20
39.000000001200021
 30
0.0
 11
66.250000000000028
 21
38.080000001299993
 31
0.0
  0
LINE
  5
525
  8
0
 10
66.250000000000028
 20
29.920000001099989
 30
0.0
 11
67.370000000000033
 21
29.000000001200021
 31
0.0
  0
LINE
  5
526
  8
0
 10
86.250000000000028
 20
39.000000001200021
 30
0.0
 11
78.750000000000028
 21
39.000000001200021
 31
0.0
  0
LINE
  5
527
  8
0
 10
78.750000000000028
 20
29.000000001200021
 30
0.0
 11
86.250000000000028
 21
29.000000001200021
 31
0.0
  0
LINE
  5
52A
  8
0
 10
73.750000000000028
 20
39.000000001200021
 30
0.0
 11
67.370000000000033
 21
39.000000001200021
 31
0.0
  0
LINE
  5
52B
  8
0
 10
67.370000000000033
 20
29.000000001200021
 30
0.0
 11
73.750000000000028
 21
29.000000001200021
 31
0.0
  0
LINE
  5
52C
  8
0
 10
73.750000000000028
 20
25.500000001199961
 30
0.0
 11
74.509189378600041
 21
24.185045424999991
 31
0.0
  0
LINE
  5
52D
  8
0
 10
77.990810625300043
 20
24.185045431699962
 30
0.0
 11
78.750000000000028
 21
25.500000001199961
 31
0.0
  0
LINE
  5
52E
  8
0
 10
74.509189378600041
 20
43.81495457739998
 30
0.0
 11
73.750000000000028
 21
42.500000001200007
 31
0.0
  0
LINE
  5
52F
  8
0
 10
78.750000000000028
 20
42.500000001200007
 30
0.0
 11
77.990810616600044
 21
43.81495458579996
 31
0.0
  0
LINE
  5
533
  8
0
 10
86.250000000000028
 20
28.80000000130002
 30
0.0
 11
86.581111938400028
 21
28.226497300999991
 31
0.0
  0
LINE
  5
534
  8
0
 10
86.581111929700015
 20
39.773502686400029
 30
0.0
 11
86.250000000000028
 21
39.200000001199939
 31
0.0
  0
LINE
  5
537
  8
0
 10
106.25
 20
25.000000001199961
 30
0.0
 11
106.25
 21
43.000000001200007
 31
0.0
  0
LINE
  5
538
  8
0
 10
100.74447231809999
 20
39.000000001200021
 30
0.0
 11
100.74447231809999
 21
29.000000001200021
 31
0.0
  0
LINE
  5
539
  8
0
 10
107.75
 20
41.999999996399978
 30
0.0
 11
107.75
 21
26.000000001199961
 31
0.0
  0
LINE
  5
53A
  8
0
 10
77.990810616600044
 20
29.09252272140003
 30
0.0
 11
74.509189378600041
 21
29.092522713099971
 31
0.0
  0
ARC
  5
53B
  8
0
 10
73.818348441200015
 20
26.457242088499981
 30
0.0
 40
4.9349918529250631
 50
2.1081973459999581
 51
32.27605089330109
  0
ARC
  5
53C
  8
0
 10
73.829219859000062
 20
26.816962416899958
 30
0.0
 40
4.924004947163362
 50
327.68949078319997
 51
357.9262619196989
  0
LINE
  5
53D
  8
0
 10
77.990810625300043
 20
24.185045431699962
 30
0.0
 11
74.509189378600041
 21
24.185045424999991
 31
0.0
  0
ARC
  5
53E
  8
0
 10
78.670780155700044
 20
26.816962420099969
 30
0.0
 40
4.9240049619503283
 50
182.07373811069809
 51
212.31050935729891
  0
ARC
  5
53F
  8
0
 10
78.681651611800049
 20
26.4572420778
 30
0.0
 40
4.9349919062348722
 50
147.7239499800005
 51
177.8918025518991
  0
ARC
  5
540
  8
0
 10
61.192888942300023
 20
34.203632391999967
 30
0.0
 40
17.55829191131248
 50
343.07654951779972
 51
359.33549697289902
  0
LINE
  5
542
  8
0
 10
74.509189378600041
 20
38.907477289299941
 30
0.0
 11
77.990810616600044
 21
38.907477305999969
 31
0.0
  0
ARC
  5
543
  8
0
 10
61.168041266400017
 20
33.792523583399991
 30
0.0
 40
17.58318285674185
 50
0.6760891390996811
 51
16.911865276800199
  0
ARC
  5
544
  8
0
 10
91.307111154800097
 20
34.20363240239999
 30
0.0
 40
17.55829200857151
 50
180.66450305729751
 51
196.92345071660111
  0
ARC
  5
545
  8
0
 10
91.331960197400036
 20
33.792523439799993
 30
0.0
 40
17.583184322109179
 50
163.08813577690211
 51
179.3239104491
  0
ARC
  5
547
  8
0
 10
73.829219886800075
 20
41.539394275300012
 30
0.0
 40
4.9240049191473112
 50
327.68949104940128
 51
357.92626197729879
  0
ARC
  5
549
  8
0
 10
78.670780155700101
 20
41.539394284399961
 30
0.0
 40
4.9240049619503132
 50
182.07373811069809
 51
212.31050935729891
  0
LINE
  5
54B
  8
0
 10
77.990810616600044
 20
43.81495458579996
 30
0.0
 11
74.509189378600041
 21
43.81495457739998
 31
0.0
  0
ARC
  5
54C
  8
0
 10
73.818349059800056
 20
41.179674074499978
 30
0.0
 40
4.9349912301895973
 50
2.1081961989976961
 51
32.276052897199591
  0
ARC
  5
54D
  8
0
 10
78.681651611800049
 20
41.179673942100003
 30
0.0
 40
4.934991906235016
 50
147.7239499800005
 51
177.8918025518991
  0
LINE
  5
54F
  8
0
 10
86.250000000000028
 20
35.428285686899983
 30
0.0
 11
86.581111908600036
 21
36.886751260599958
 31
0.0
  0
LINE
  5
550
  8
0
 10
86.581111938400028
 20
36.886751338800018
 30
0.0
 11
93.982571302800039
 21
36.886751347199997
 31
0.0
  0
LINE
  5
554
  8
0
 10
93.982571313400015
 20
31.113248700599961
 30
0.0
 11
86.581111925900046
 21
31.113248617
 31
0.0
  0
LINE
  5
555
  8
0
 10
86.250000000000028
 20
32.571714315500003
 30
0.0
 11
86.581111942400057
 21
31.113248624799951
 31
0.0
  0
LINE
  5
558
  8
0
 10
86.581111965800034
 20
36.886751301299959
 30
0.0
 11
86.250000000000028
 21
37.615984177299993
 31
0.0
  0
LINE
  5
55B
  8
0
 10
93.949999999900044
 20
39.773502670569982
 30
0.0
 11
86.581111929700015
 21
39.773502686400029
 31
0.0
  0
LINE
  5
561
  8
0
 10
86.250000000000028
 20
30.38401582509999
 30
0.0
 11
86.581111908600036
 21
31.11324861199995
 31
0.0
  0
LINE
  5
565
  8
0
 10
93.949999999900044
 20
28.22649731583439
 30
0.0
 11
86.581111938400028
 21
28.226497300999991
 31
0.0
  0
LINE
  5
569
  8
0
 10
66.250000000000028
 20
29.920000001099989
 30
0.0
 11
66.250000000000028
 21
38.080000001299993
 31
0.0
  0
LINE
  5
56A
  8
0
 10
67.370000000000033
 20
39.000000001200021
 30
0.0
 11
67.370000000000033
 21
29.000000001200021
 31
0.0
  0
LINE
  5
56E
  8
0
 10
73.750000000000028
 20
42.500000001200007
 30
0.0
 11
73.750000000000028
 21
25.500000001199961
 31
0.0
  0
LINE
  5
56F
  8
0
 10
78.750000000000028
 20
42.500000001200007
 30
0.0
 11
78.750000000000028
 21
25.500000001199961
 31
0.0
  0
LINE
  5
573
  8
0
 10
86.250000000000028
 20
28.800000001199969
 30
0.0
 11
86.250000000000028
 21
39.200000001199939
 31
0.0
  0
LINE
  5
577
  8
0
 10
106.75
 20
25.000000001199961
 30
0.0
 11
106.75
 21
43.000000001200007
 31
0.0
  0
LINE
  5
591
  8
1
 10
55.249999999999972
 20
34.000000001200021
 30
0.0
 11
112.75
 21
33.999999998799971
 31
0.0
  0
LINE
  5
592
  8
1
 10
130.0
 20
33.999999999999993
 30
0.0
 11
158.0
 21
33.999999999999993
 31
0.0
  0
LINE
  5
593
  8
1
 10
144.0
 20
47.999999999999993
 30
0.0
 11
144.0
 21
19.999999999999989
 31
0.0
  0
LINE
  5
594
  8
1
 10
10.0
 20
34.0
 30
0.0
 11
38.0
 21
34.0
 31
0.0
  0
LINE
  5
595
  8
1
 10
24.0
 20
48.0
 30
0.0
 11
24.0
 21
20.0
 31
0.0
  0
LINE
  5
596
  8
1
 10
55.249999999999972
 20
79.000000001200021
 30
0.0
 11
112.75
 21
78.999999998799979
 31
0.0
  0
LINE
  5
5A2
  8
3
 10
83.250000000000043
 20
83.187999998800038
 30
0.0
 11
78.750000000000028
 21
83.187999998800038
 31
0.0
  0
LINE
  5
5A3
  8
3
 10
83.250000000000014
 20
74.811999998799877
 30
0.0
 11
78.750000000000014
 21
74.811999998799877
 31
0.0
  0
LINE
  5
5A5
  8
0
 10
83.250000000000014
 20
73.99999999879995
 30
0.0
 11
83.250000000000043
 21
83.99999999879995
 31
0.0
  0
LINE
  5
5A6
  8
3
 10
83.250000000000043
 20
83.187999998800038
 30
0.0
 11
84.656425255745845
 21
83.99999999879995
 31
0.0
  0
LINE
  5
5A7
  8
3
 10
83.249999999650413
 20
74.812000001262533
 30
0.0
 11
84.656425255328443
 21
74.000000001145224
 31
0.0
  0
LINE
  5
5A8
  8
3
 10
73.750000000000043
 20
83.187999998800038
 30
0.0
 11
66.381478260762265
 21
83.187999998800038
 31
0.0
  0
LINE
  5
5A9
  8
3
 10
73.750000000000028
 20
74.811999998799877
 30
0.0
 11
66.381478260762222
 21
74.811999998799877
 31
0.0
  0
LINE
  5
5B3
  8
0
 10
62.049999999999947
 20
75.99999999879995
 30
0.0
 11
62.049999999999969
 21
81.99999999879995
 31
0.0
  0
LINE
  5
5B4
  8
0
 10
62.049999999999969
 20
81.99999999879995
 30
0.0
 11
60.668925394802137
 21
81.202636203718043
 31
0.0
  0
LINE
  5
5B5
  8
0
 10
62.049999999999969
 20
75.99999999879995
 30
0.0
 11
60.668925394802137
 21
76.797363793881885
 31
0.0
  0
LINE
  5
5B6
  8
0
 10
60.668925394802137
 20
81.202636203718043
 30
0.0
 11
60.66892539480213
 21
76.797363793881885
 31
0.0
  0
ARC
  5
5B7
  8
0
 10
66.250000000000028
 20
33.999999998799957
 30
0.0
 40
6.0000000000000524
 50
158.46275075362311
 51
201.5372492463764
  0
LINE
  5
5B8
  8
0
 10
66.250000000000028
 20
36.999999998799957
 30
0.0
 11
62.049999999999969
 21
36.999999998799957
 31
0.0
  0
LINE
  5
5B9
  8
0
 10
62.049999999999947
 20
30.999999998799961
 30
0.0
 11
66.250000000000028
 21
30.999999998799961
 31
0.0
  0
LINE
  5
5BA
  8
0
 10
62.049999999999947
 20
30.99999999879994
 30
0.0
 11
62.049999999999969
 21
36.999999998799957
 31
0.0
  0
LINE
  5
5BB
  8
0
 10
62.049999999999969
 20
36.999999998799957
 30
0.0
 11
60.668925394802137
 21
36.202636203718043
 31
0.0
  0
LINE
  5
5BC
  8
0
 10
62.049999999999969
 20
30.999999998799961
 30
0.0
 11
60.668925394802137
 21
31.797363793881878
 31
0.0
  0
LINE
  5
5BD
  8
0
 10
60.668925394802137
 20
36.202636203718043
 30
0.0
 11
60.66892539480213
 21
31.797363793881889
 31
0.0
  0
LINE
  5
5BE
  8
0
 10
83.250000000000014
 20
29.000000000740879
 30
0.0
 11
83.250000000000043
 21
39.000000000740883
 31
0.0
  0
LINE
  5
5BF
  8
3
 10
83.250000000000043
 20
38.188000000740971
 30
0.0
 11
78.750000000000028
 21
38.188000000740971
 31
0.0
  0
LINE
  5
5C0
  8
3
 10
73.750000000000043
 20
38.188000000740971
 30
0.0
 11
66.381478260762265
 21
38.188000000740971
 31
0.0
  0
LINE
  5
5C1
  8
3
 10
83.250000000000014
 20
29.812000000740792
 30
0.0
 11
78.750000000000014
 21
29.812000000740792
 31
0.0
  0
LINE
  5
5C2
  8
3
 10
73.750000000000028
 20
29.812000000740792
 30
0.0
 11
66.381478260762222
 21
29.812000000740792
 31
0.0
  0
LINE
  5
5C3
  8
3
 10
83.250000000000043
 20
38.188000000740971
 30
0.0
 11
84.656425255745845
 21
39.000000000740883
 31
0.0
  0
LINE
  5
5C4
  8
3
 10
83.249999999650413
 20
29.812000003203462
 30
0.0
 11
84.656425255328443
 21
29.000000003086139
 31
0.0
  0
CIRCLE
  5
690
  8
3
 10
24.0
 20
34.0
 30
0.0
 40
4.1880000007096641
  0
CIRCLE
  5
691
  8
0
 10
24.0
 20
34.0
 30
0.0
 40
2.202636204918071
  0
CIRCLE
  5
692
  8
0
 10
24.0
 20
34.0
 30
0.0
 40
8.5
  0
LINE
  5
96C
  8
0
 10
93.982571302700094
 20
73.99999999879995
 30
0.0
 11
94.249999999900098
 21
75.263068311099943
 31
0.0
  0
LINE
  5
96D
  8
0
 10
93.949999999900115
 20
78.99999999879995
 30
0.0
 11
86.581111925800073
 21
78.99999999879995
 31
0.0
  0
LINE
  5
96E
  8
0
 10
93.949999999900115
 20
81.340772550699938
 30
0.0
 11
93.949999999900115
 21
76.659227446899934
 31
0.0
  0
LINE
  5
96F
  8
0
 10
93.949999999900115
 20
76.659227446899934
 30
0.0
 11
94.249999999900098
 21
76.659227446899934
 31
0.0
  0
LINE
  5
971
  8
0
 10
94.249999999900098
 20
82.736931686499958
 30
0.0
 11
93.982571302700094
 21
83.99999999879995
 31
0.0
  0
LINE
  5
973
  8
0
 10
93.949999999900115
 20
81.340772550699938
 30
0.0
 11
94.249999999900098
 21
81.340772550699938
 31
0.0
  0
LINE
  5
974
  8
0
 10
94.749999999900083
 20
74.53490565919995
 30
0.0
 11
94.249999999900098
 21
74.53490565919995
 31
0.0
  0
LINE
  5
975
  8
0
 10
94.749999999900083
 20
83.465094338499924
 30
0.0
 11
94.749999999900083
 21
74.53490565919995
 31
0.0
  0
LINE
  5
976
  8
0
 10
94.249999999900098
 20
83.465094338399965
 30
0.0
 11
94.749999999900083
 21
83.465094338499924
 31
0.0
  0
LINE
  5
977
  8
0
 10
94.749999999900083
 20
74.53490565919995
 30
0.0
 11
94.249999999900098
 21
74.98301886669995
 31
0.0
  0
LINE
  5
979
  8
0
 10
94.749999999900083
 20
83.465094338499924
 30
0.0
 11
94.249999999900098
 21
83.016981130899964
 31
0.0
  0
LINE
  5
97D
  8
0
 10
94.249999999900098
 20
83.611320753499939
 30
0.0
 11
94.071817213900076
 21
83.999999917599965
 31
0.0
  0
LINE
  5
97F
  8
0
 10
94.071817178000117
 20
73.99999999879995
 30
0.0
 11
94.249999999900098
 21
74.388679244099933
 31
0.0
  0
LINE
  5
981
  8
0
 10
94.249999999900098
 20
83.611320753499939
 30
0.0
 11
94.249999999900098
 21
74.388679244099933
 31
0.0
  0
LINE
  5
988
  8
0
 10
100.74447231809999
 20
38.999999999301082
 30
0.0
 11
94.749999999900041
 21
38.999999999301082
 31
0.0
  0
LINE
  5
989
  8
0
 10
94.749999999900041
 20
28.999999999301082
 30
0.0
 11
100.74447231809999
 21
28.999999999301082
 31
0.0
  0
LINE
  5
98A
  8
0
 10
94.249999999900055
 20
29.499999999301082
 30
0.0
 11
94.749999999900041
 21
28.999999999301082
 31
0.0
  0
LINE
  5
98B
  8
0
 10
94.749999999900041
 20
38.999999999401098
 30
0.0
 11
94.249999999900055
 21
38.499999999401098
 31
0.0
  0
LINE
  5
98C
  8
0
 10
94.071817178000046
 20
31.51806527010109
 30
0.0
 11
93.982571408400048
 21
31.113249106501112
 31
0.0
  0
LINE
  5
98D
  8
0
 10
93.982571302700052
 20
36.8867513453011
 30
0.0
 11
94.071817178000046
 21
36.481934728501102
 31
0.0
  0
LINE
  5
98E
  8
0
 10
87.549999999900052
 20
36.481934728501102
 30
0.0
 11
94.071817178000046
 21
36.481934728501102
 31
0.0
  0
LINE
  5
98F
  8
0
 10
87.549999999900052
 20
36.481934728501102
 30
0.0
 11
87.549999999900052
 21
31.51806527010109
 31
0.0
  0
LINE
  5
990
  8
0
 10
87.549999999900052
 20
31.51806527010109
 30
0.0
 11
94.071817178000046
 21
31.51806527010109
 31
0.0
  0
LINE
  5
992
  8
0
 10
94.071817178000046
 20
36.481934728501102
 30
0.0
 11
94.249999999900055
 21
36.403272954501091
 31
0.0
  0
LINE
  5
993
  8
0
 10
93.982571302700052
 20
36.8867513453011
 30
0.0
 11
94.249999999900055
 21
37.615984175401081
 31
0.0
  0
LINE
  5
994
  8
0
 10
94.249999999900055
 20
31.596727044101101
 30
0.0
 11
94.071817178000046
 21
31.51806527010109
 31
0.0
  0
LINE
  5
996
  8
0
 10
94.249999999900055
 20
30.384015823201111
 30
0.0
 11
93.982571293800035
 21
31.113248672501101
 31
0.0
  0
LINE
  5
997
  8
0
 10
93.949999999900044
 20
29.5779429704011
 30
0.0
 11
93.949999999900044
 21
28.2264973074011
 31
0.0
  0
LINE
  5
999
  8
0
 10
93.949999999900044
 20
29.5779429704011
 30
0.0
 11
94.249999999900055
 21
29.5779429704011
 31
0.0
  0
LINE
  5
99B
  8
0
 10
93.949999999900044
 20
39.773502691201088
 30
0.0
 11
93.949999999900044
 21
38.422057028301111
 31
0.0
  0
LINE
  5
99C
  8
0
 10
93.949999999900044
 20
38.422057028301111
 30
0.0
 11
94.249999999900055
 21
38.422057028301111
 31
0.0
  0
LINE
  5
99D
  8
0
 10
94.749999999900041
 20
31.749903881701069
 30
0.0
 11
94.749999999900041
 21
28.999999999301082
 31
0.0
  0
LINE
  5
99E
  8
0
 10
87.950000000000074
 20
31.749903881801089
 30
0.0
 11
94.749999999900041
 21
31.749903881701069
 31
0.0
  0
LINE
  5
99F
  8
0
 10
87.950000000000074
 20
31.749903881801089
 30
0.0
 11
87.950000000000074
 21
36.250096116901091
 31
0.0
  0
LINE
  5
9A0
  8
0
 10
94.749999999900041
 20
36.250096116901091
 30
0.0
 11
87.950000000000074
 21
36.250096116901091
 31
0.0
  0
LINE
  5
9A1
  8
0
 10
94.749999999900041
 20
38.999999999301082
 30
0.0
 11
94.749999999900041
 21
36.250096116901091
 31
0.0
  0
LINE
  5
9A4
  8
0
 10
94.249999999900027
 20
31.749903881708441
 30
0.0
 11
94.249999999900055
 21
29.499999999301082
 31
0.0
  0
LINE
  5
9A5
  8
0
 10
94.249999999900055
 20
38.499999999401098
 30
0.0
 11
94.249999999900027
 21
36.250096116901091
 31
0.0
  0
LINE
  5
B8D
  8
2
 10
23.999999999725009
 20
39.773502685000032
 30
0.0
 11
19.0000000112802
 21
36.886751345405763
 31
0.0
  0
LINE
  5
B8E
  8
2
 10
19.0000000112802
 20
36.886751345405763
 30
0.0
 11
19.000000011555201
 21
31.113248666693529
 31
0.0
  0
LINE
  5
B8F
  8
2
 10
19.000000011555201
 20
31.113248666693529
 30
0.0
 11
24.000000000275001
 21
28.226497327575562
 31
0.0
  0
LINE
  5
B90
  8
2
 10
24.000000000275001
 20
28.226497327575562
 30
0.0
 11
28.9999999887198
 21
31.11324866716982
 31
0.0
  0
LINE
  5
B91
  8
2
 10
28.9999999887198
 20
31.11324866716982
 30
0.0
 11
28.99999998844482
 21
36.886751345882047
 31
0.0
  0
LINE
  5
B92
  8
2
 10
28.99999998844482
 20
36.886751345882047
 30
0.0
 11
23.999999999725009
 21
39.773502685000032
 31
0.0
  0
LINE
  5
B93
  8
0
 10
24.00000000000006
 20
43.814954576200023
 30
0.0
 11
15.50000000002048
 21
38.907477288100061
 31
0.0
  0
LINE
  5
B94
  8
0
 10
15.50000000002048
 20
38.907477288100061
 30
0.0
 11
15.500000000020419
 21
29.092522711900038
 31
0.0
  0
LINE
  5
B95
  8
0
 10
15.500000000020419
 20
29.092522711900038
 30
0.0
 11
23.99999999999994
 21
24.185045423799981
 31
0.0
  0
LINE
  5
B96
  8
0
 10
23.99999999999994
 20
24.185045423799981
 30
0.0
 11
32.499999999979522
 21
29.092522711899932
 31
0.0
  0
LINE
  5
B97
  8
0
 10
32.499999999979522
 20
29.092522711899932
 30
0.0
 11
32.499999999979579
 21
38.907477288099962
 31
0.0
  0
LINE
  5
B98
  8
0
 10
32.499999999979579
 20
38.907477288099962
 30
0.0
 11
24.00000000000006
 21
43.814954576200023
 31
0.0
  0
ENDSEC
  0
EOF
