  0
SECTION
  2
HEADER
  9
$ACADVER
  1
AC1009
  9
$INSBASE
 10
0.0
 20
0.0
 30
0.0
  9
$EXTMIN
 10
0.0
 20
-1.4802182810368341
 30
0.0
  9
$EXTMAX
 10
53.678293829184383
 20
48.831708445395691
 30
0.0
  9
$LIMMIN
 10
0.0
 20
0.0
  9
$LIMMAX
 10
385.0
 20
270.0
  9
$ORTHOMODE
 70
     1
  9
$REGENMODE
 70
     1
  9
$FILLMODE
 70
     1
  9
$QTEXTMODE
 70
     0
  9
$MIRRTEXT
 70
     0
  9
$DRAGMODE
 70
     2
  9
$LTSCALE
 40
5.0
  9
$OSMODE
 70
  3071
  9
$ATTMODE
 70
     1
  9
$TEXTSIZE
 40
4.000000000000048
  9
$TRACEWID
 40
0.05
  9
$TEXTSTYLE
  7
STANDARD
  9
$CLAYER
  8
0
  9
$CELTYPE
  6
BYLAYER
  9
$CECOLOR
 62
   256
  9
$DIMSCALE
 40
1.0
  9
$DIMASZ
 40
3.0
  9
$DIMEXO
 40
2.0
  9
$DIMDLI
 40
0.38
  9
$DIMRND
 40
0.0
  9
$DIMDLE
 40
0.0
  9
$DIMEXE
 40
2.0
  9
$DIMTP
 40
0.0
  9
$DIMTM
 40
0.0
  9
$DIMTXT
 40
3.0
  9
$DIMCEN
 40
0.0
  9
$DIMTSZ
 40
0.0
  9
$DIMTOL
 70
     0
  9
$DIMLIM
 70
     0
  9
$DIMTIH
 70
     0
  9
$DIMTOH
 70
     0
  9
$DIMSE1
 70
     0
  9
$DIMSE2
 70
     0
  9
$DIMTAD
 70
     1
  9
$DIMZIN
 70
     0
  9
$DIMBLK
  1

  9
$DIMASO
 70
     0
  9
$DIMSHO
 70
     0
  9
$DIMPOST
  1

  9
$DIMAPOST
  1

  9
$DIMALT
 70
     0
  9
$DIMALTD
 70
     2
  9
$DIMALTF
 40
25.399999999999999
  9
$DIMLFAC
 40
1.0
  9
$DIMTOFL
 70
     1
  9
$DIMTVP
 40
1.6000000000000001
  9
$DIMTIX
 70
     1
  9
$DIMSOXD
 70
     0
  9
$DIMSAH
 70
     0
  9
$DIMBLK1
  1

  9
$DIMBLK2
  1

  9
$DIMSTYLE
  2
STANDARD
  9
$DIMCLRD
 70
     0
  9
$DIMCLRE
 70
     0
  9
$DIMCLRT
 70
     0
  9
$DIMTFAC
 40
1.0
  9
$DIMGAP
 40
1.0
  9
$LUNITS
 70
     2
  9
$LUPREC
 70
     4
  9
$SKETCHINC
 40
0.1
  9
$FILLETRAD
 40
0.0
  9
$AUNITS
 70
     0
  9
$AUPREC
 70
     4
  9
$MENU
  1
E:\r13\win\SUPPORT\ACAD
  9
$ELEVATION
 40
0.0
  9
$PELEVATION
 40
0.0
  9
$THICKNESS
 40
0.0
  9
$LIMCHECK
 70
     0
  9
$BLIPMODE
 70
     0
  9
$CHAMFERA
 40
0.0
  9
$CHAMFERB
 40
0.0
  9
$SKPOLY
 70
     0
  9
$TDCREATE
 40
2450280.598206134
  9
$TDUPDATE
 40
2456597.688503854
  9
$TDINDWG
 40
0.1298235417
  9
$TDUSRTIMER
 40
0.1298235417
  9
$USRTIMER
 70
     1
  9
$ANGBASE
 50
0.0
  9
$ANGDIR
 70
     0
  9
$PDMODE
 70
     0
  9
$PDSIZE
 40
0.0
  9
$PLINEWID
 40
0.0
  9
$COORDS
 70
     1
  9
$SPLFRAME
 70
     0
  9
$SPLINETYPE
 70
     6
  9
$SPLINESEGS
 70
     8
  9
$ATTDIA
 70
     0
  9
$ATTREQ
 70
     1
  9
$HANDLING
 70
     1
  9
$HANDSEED
  5
B75
  9
$SURFTAB1
 70
     6
  9
$SURFTAB2
 70
     6
  9
$SURFTYPE
 70
     6
  9
$SURFU
 70
     6
  9
$SURFV
 70
     6
  9
$UCSNAME
  2

  9
$UCSORG
 10
0.0
 20
0.0
 30
0.0
  9
$UCSXDIR
 10
1.0
 20
0.0
 30
0.0
  9
$UCSYDIR
 10
0.0
 20
1.0
 30
0.0
  9
$PUCSNAME
  2

  9
$PUCSORG
 10
0.0
 20
0.0
 30
0.0
  9
$PUCSXDIR
 10
1.0
 20
0.0
 30
0.0
  9
$PUCSYDIR
 10
0.0
 20
1.0
 30
0.0
  9
$USERI1
 70
     3
  9
$USERI2
 70
     1
  9
$USERI3
 70
     1
  9
$USERI4
 70
     0
  9
$USERI5
 70
     0
  9
$USERR1
 40
1.0
  9
$USERR2
 40
3.0
  9
$USERR3
 40
3.0
  9
$USERR4
 40
3.0
  9
$USERR5
 40
10.0
  9
$WORLDVIEW
 70
     1
  9
$SHADEDGE
 70
     3
  9
$SHADEDIF
 70
    70
  9
$TILEMODE
 70
     1
  9
$MAXACTVP
 70
    16
  9
$PLIMCHECK
 70
     0
  9
$PEXTMIN
 10
1.0000000000000000E+020
 20
1.0000000000000000E+020
 30
1.0000000000000000E+020
  9
$PEXTMAX
 10
-1.0000000000000000E+020
 20
-1.0000000000000000E+020
 30
-1.0000000000000000E+020
  9
$PLIMMIN
 10
0.0
 20
0.0
  9
$PLIMMAX
 10
12.0
 20
9.0
  9
$UNITMODE
 70
     0
  9
$VISRETAIN
 70
     0
  9
$PLINEGEN
 70
     0
  9
$PSLTSCALE
 70
     0
  0
ENDSEC
  0
SECTION
  2
TABLES
  0
TABLE
  2
VPORT
 70
     1
  0
VPORT
  2
*ACTIVE
 70
     0
 10
0.0
 20
0.0
 11
1.0
 21
1.0
 12
192.49412581440311
 22
134.84202934784381
 13
0.0
 23
0.0
 14
5.0
 24
5.0
 15
10.0
 25
10.0
 16
0.0
 26
0.0
 36
1.0
 17
0.0
 27
0.0
 37
0.0
 40
275.78743625673241
 41
2.304913294797688
 42
50.0
 43
0.0
 44
0.0
 50
0.0
 51
0.0
 71
     0
 72
   500
 73
     1
 74
     0
 75
     0
 76
     0
 77
     0
 78
     2
  0
ENDTAB
  0
TABLE
  2
LTYPE
 70
     3
  0
LTYPE
  2
CONTINUOUS
 70
     0
  3
Solid Line
 72
    65
 73
     0
 40
0.0
  0
LTYPE
  2
CENTER
 70
     0
  3
____ _ ____ _ ____ _ ____ _ ____ _ ____ _ ____
 72
    65
 73
     4
 40
2.0
 49
1.25
 49
-0.25
 49
0.25
 49
-0.25
  0
LTYPE
  2
PHANTOM2
 70
     0
  3
___ _ _ ___ _ _ ___ _ _ ___ _ _
 72
    65
 73
     6
 40
1.25
 49
0.625
 49
-0.125
 49
0.125
 49
-0.125
 49
0.125
 49
-0.125
  0
ENDTAB
  0
TABLE
  2
LAYER
 70
     3
  0
LAYER
  2
0
 70
     0
 62
     7
  6
CONTINUOUS
  0
LAYER
  2
1
 70
     0
 62
     1
  6
CENTER
  0
LAYER
  2
3
 70
     0
 62
     3
  6
CONTINUOUS
  0
ENDTAB
  0
TABLE
  2
STYLE
 70
     2
  0
STYLE
  2
STANDARD
 70
     0
 40
0.0
 41
1.0
 50
0.0
 71
     0
 42
4.000000000000048
  3
SIMPLEX
  4
BIGFONT
  0
STYLE
  2
STANDARD1
 70
     0
 40
0.0
 41
1.0
 50
0.0
 71
     0
 42
3.0
  3
txt
  4

  0
ENDTAB
  0
TABLE
  2
VIEW
 70
     0
  0
ENDTAB
  0
TABLE
  2
UCS
 70
     0
  0
ENDTAB
  0
TABLE
  2
APPID
 70
     3
  0
APPID
  2
ACAD
 70
     0
  0
APPID
  2
ACAD_MLEADERVER
 70
     0
  0
APPID
  2
ACAD_NAV_VCDISPLAY
 70
     0
  0
ENDTAB
  0
TABLE
  2
DIMSTYLE
 70
     1
  0
DIMSTYLE
  2
STANDARD
 70
     0
  3

  4

  5

  6

  7

 40
1.0
 41
0.18
 42
0.0625
 43
0.38
 44
0.18
 45
0.0
 46
0.0
 47
0.0
 48
0.0
140
0.18
141
0.09
142
0.0
143
25.399999999999999
144
1.0
145
0.0
146
1.0
147
0.09
 71
     0
 72
     0
 73
     1
 74
     1
 75
     0
 76
     0
 77
     0
 78
     0
170
     0
171
     2
172
     0
173
     0
174
     0
175
     0
176
     0
177
     0
178
     0
  0
ENDTAB
  0
ENDSEC
  0
SECTION
  2
BLOCKS
  0
BLOCK
  8
0
  2
$MODEL_SPACE
 70
     0
 10
0.0
 20
0.0
 30
0.0
  3
$MODEL_SPACE
  1

  0
ENDBLK
  5
175
  8
0
  0
BLOCK
 67
     1
  8
0
  2
$PAPER_SPACE
 70
     0
 10
0.0
 20
0.0
 30
0.0
  3
$PAPER_SPACE
  1

  0
ENDBLK
  5
173
 67
     1
  8
0
  0
ENDSEC
  0
SECTION
  2
ENTITIES
  0
LINE
  5
664
  8
1
 10
43.678293829184383
 20
48.831708445395691
 30
0.0
 11
43.678293829184362
 21
39.831708445395712
 31
0.0
  0
POLYLINE
  5
66A
  8
0
 66
     1
 10
0.0
 20
0.0
 30
0.0
  0
VERTEX
  5
A35
  8
0
 10
43.678293829184362
 20
45.550176489420728
 30
0.0
  0
VERTEX
  5
A36
  8
0
 10
43.239570205050349
 20
45.63603366663137
 30
0.0
  0
VERTEX
  5
A37
  8
0
 10
42.403319644969187
 20
45.76028266296801
 30
0.0
  0
VERTEX
  5
A38
  8
0
 10
41.589408132077303
 20
45.823524657358469
 30
0.0
  0
VERTEX
  5
A39
  8
0
 10
41.178293829184362
 20
45.831708445395698
 30
0.0
  0
SEQEND
  5
A3A
  8
0
  0
POLYLINE
  5
66B
  8
0
 66
     1
 10
0.0
 20
0.0
 30
0.0
  0
VERTEX
  5
A3B
  8
0
 10
41.178293829184362
 20
42.831708445395698
 30
0.0
  0
VERTEX
  5
A3C
  8
0
 10
41.589408132077928
 20
42.839892233432991
 30
0.0
  0
VERTEX
  5
A3D
  8
0
 10
42.403319644970232
 20
42.903134227823458
 30
0.0
  0
VERTEX
  5
A3E
  8
0
 10
43.239570205050903
 20
43.027383224160033
 30
0.0
  0
VERTEX
  5
A3F
  8
0
 10
43.678293829184362
 20
43.113240401370732
 30
0.0
  0
SEQEND
  5
A40
  8
0
  0
POLYLINE
  5
66C
  8
0
 66
     1
 10
0.0
 20
0.0
 30
0.0
  0
VERTEX
  5
A41
  8
0
 10
38.678293829184369
 20
43.113240401370732
 30
0.0
  0
VERTEX
  5
A42
  8
0
 10
39.117017453318383
 20
43.027383224160033
 30
0.0
  0
VERTEX
  5
A43
  8
0
 10
39.953268013399551
 20
42.903134227823458
 30
0.0
  0
VERTEX
  5
A44
  8
0
 10
40.767179526291429
 20
42.839892233432991
 30
0.0
  0
VERTEX
  5
A45
  8
0
 10
41.178293829184362
 20
42.831708445395698
 30
0.0
  0
SEQEND
  5
A46
  8
0
  0
POLYLINE
  5
66D
  8
0
 66
     1
 10
0.0
 20
0.0
 30
0.0
  0
VERTEX
  5
A47
  8
0
 10
41.178293829184362
 20
45.831708445395698
 30
0.0
  0
VERTEX
  5
A48
  8
0
 10
40.767179526290803
 20
45.823524657358469
 30
0.0
  0
VERTEX
  5
A49
  8
0
 10
39.9532680133985
 20
45.76028266296801
 30
0.0
  0
VERTEX
  5
A4A
  8
0
 10
39.117017453317843
 20
45.63603366663137
 30
0.0
  0
VERTEX
  5
A4B
  8
0
 10
38.678293829184369
 20
45.550176489420728
 30
0.0
  0
SEQEND
  5
A4C
  8
0
  0
POLYLINE
  5
66E
  8
0
 66
     1
 10
0.0
 20
0.0
 30
0.0
  0
VERTEX
  5
A4D
  8
0
 10
38.678293829184369
 20
45.550176489420728
 30
0.0
  0
VERTEX
  5
A4E
  8
0
 10
39.117017453318383
 20
45.63603366663137
 30
0.0
  0
VERTEX
  5
A4F
  8
0
 10
39.953268013399551
 20
45.76028266296801
 30
0.0
  0
VERTEX
  5
A50
  8
0
 10
40.767179526291429
 20
45.823524657358419
 30
0.0
  0
VERTEX
  5
A51
  8
0
 10
41.178293829184362
 20
45.831708445395698
 30
0.0
  0
SEQEND
  5
A52
  8
0
  0
LINE
  5
66F
  8
0
 10
38.678293829184369
 20
43.113240401370732
 30
0.0
 11
38.678293829184369
 21
45.550176489420728
 31
0.0
  0
POLYLINE
  5
670
  8
0
 66
     1
 10
0.0
 20
0.0
 30
0.0
  0
VERTEX
  5
A53
  8
0
 10
41.178293829184362
 20
42.831708445395698
 30
0.0
  0
VERTEX
  5
A54
  8
0
 10
40.767179526290803
 20
42.839892233432991
 30
0.0
  0
VERTEX
  5
A55
  8
0
 10
39.9532680133985
 20
42.903134227823458
 30
0.0
  0
VERTEX
  5
A56
  8
0
 10
39.117017453317843
 20
43.027383224160033
 30
0.0
  0
VERTEX
  5
A57
  8
0
 10
38.678293829184369
 20
43.113240401370732
 30
0.0
  0
SEQEND
  5
A58
  8
0
  0
POLYLINE
  5
671
  8
0
 66
     1
 10
0.0
 20
0.0
 30
0.0
  0
VERTEX
  5
A59
  8
0
 10
43.678293829184362
 20
43.113240401370732
 30
0.0
  0
VERTEX
  5
A5A
  8
0
 10
43.239570205050349
 20
43.027383224160033
 30
0.0
  0
VERTEX
  5
A5B
  8
0
 10
42.403319644969187
 20
42.903134227823458
 30
0.0
  0
VERTEX
  5
A5C
  8
0
 10
41.589408132077303
 20
42.839892233432991
 30
0.0
  0
VERTEX
  5
A5D
  8
0
 10
41.178293829184362
 20
42.831708445395698
 30
0.0
  0
SEQEND
  5
A5E
  8
0
  0
LINE
  5
672
  8
0
 10
43.678293829184362
 20
43.113240401370732
 30
0.0
 11
43.678293829184362
 21
45.550176489420728
 31
0.0
  0
POLYLINE
  5
673
  8
0
 66
     1
 10
0.0
 20
0.0
 30
0.0
  0
VERTEX
  5
A5F
  8
0
 10
41.178293829184362
 20
45.831708445395698
 30
0.0
  0
VERTEX
  5
A60
  8
0
 10
41.589408132077928
 20
45.823524657358469
 30
0.0
  0
VERTEX
  5
A61
  8
0
 10
42.403319644970232
 20
45.76028266296801
 30
0.0
  0
VERTEX
  5
A62
  8
0
 10
43.239570205050903
 20
45.63603366663137
 30
0.0
  0
VERTEX
  5
A63
  8
0
 10
43.678293829184362
 20
45.550176489420728
 30
0.0
  0
SEQEND
  5
A64
  8
0
  0
POLYLINE
  5
674
  8
0
 66
     1
 10
0.0
 20
0.0
 30
0.0
  0
VERTEX
  5
A65
  8
0
 10
38.678293829184369
 20
43.113240401370732
 30
0.0
  0
VERTEX
  5
A66
  8
0
 10
38.678293829184369
 20
43.027383224160033
 30
0.0
  0
VERTEX
  5
A67
  8
0
 10
38.678293829184369
 20
42.903134227823458
 30
0.0
  0
VERTEX
  5
A68
  8
0
 10
38.678293829184369
 20
42.839892233432991
 30
0.0
  0
VERTEX
  5
A69
  8
0
 10
38.678293829184369
 20
42.831708445395698
 30
0.0
  0
SEQEND
  5
A6A
  8
0
  0
POLYLINE
  5
675
  8
0
 66
     1
 10
0.0
 20
0.0
 30
0.0
  0
VERTEX
  5
A6B
  8
0
 10
38.678293829184369
 20
45.831708445395698
 30
0.0
  0
VERTEX
  5
A6C
  8
0
 10
38.678293829184369
 20
45.823524657358469
 30
0.0
  0
VERTEX
  5
A6D
  8
0
 10
38.678293829184369
 20
45.76028266296801
 30
0.0
  0
VERTEX
  5
A6E
  8
0
 10
38.678293829184369
 20
45.63603366663137
 30
0.0
  0
VERTEX
  5
A6F
  8
0
 10
38.678293829184369
 20
45.550176489420728
 30
0.0
  0
SEQEND
  5
A70
  8
0
  0
POLYLINE
  5
676
  8
0
 66
     1
 10
0.0
 20
0.0
 30
0.0
  0
VERTEX
  5
A71
  8
0
 10
46.178293829184362
 20
45.831708445395698
 30
0.0
  0
VERTEX
  5
A72
  8
0
 10
46.589408132077928
 20
45.823524657358469
 30
0.0
  0
VERTEX
  5
A73
  8
0
 10
47.403319644970232
 20
45.76028266296801
 30
0.0
  0
VERTEX
  5
A74
  8
0
 10
48.239570205050903
 20
45.63603366663137
 30
0.0
  0
VERTEX
  5
A75
  8
0
 10
48.678293829184341
 20
45.550176489420728
 30
0.0
  0
SEQEND
  5
A76
  8
0
  0
POLYLINE
  5
677
  8
0
 66
     1
 10
0.0
 20
0.0
 30
0.0
  0
VERTEX
  5
A77
  8
0
 10
43.678293829184362
 20
45.550176489420728
 30
0.0
  0
VERTEX
  5
A78
  8
0
 10
44.117017453318383
 20
45.63603366663137
 30
0.0
  0
VERTEX
  5
A79
  8
0
 10
44.953268013399551
 20
45.76028266296801
 30
0.0
  0
VERTEX
  5
A7A
  8
0
 10
45.767179526291429
 20
45.823524657358469
 30
0.0
  0
VERTEX
  5
A7B
  8
0
 10
46.178293829184362
 20
45.831708445395698
 30
0.0
  0
SEQEND
  5
A7C
  8
0
  0
POLYLINE
  5
678
  8
0
 66
     1
 10
0.0
 20
0.0
 30
0.0
  0
VERTEX
  5
A7D
  8
0
 10
46.178293829184362
 20
42.831708445395698
 30
0.0
  0
VERTEX
  5
A7E
  8
0
 10
45.767179526290803
 20
42.839892233432991
 30
0.0
  0
VERTEX
  5
A7F
  8
0
 10
44.953268013398493
 20
42.903134227823458
 30
0.0
  0
VERTEX
  5
A80
  8
0
 10
44.117017453317843
 20
43.027383224160033
 30
0.0
  0
VERTEX
  5
A81
  8
0
 10
43.678293829184362
 20
43.113240401370732
 30
0.0
  0
SEQEND
  5
A82
  8
0
  0
POLYLINE
  5
679
  8
0
 66
     1
 10
0.0
 20
0.0
 30
0.0
  0
VERTEX
  5
A83
  8
0
 10
48.678293829184341
 20
43.113240401370732
 30
0.0
  0
VERTEX
  5
A84
  8
0
 10
48.239570205050327
 20
43.027383224160033
 30
0.0
  0
VERTEX
  5
A85
  8
0
 10
47.403319644969187
 20
42.903134227823458
 30
0.0
  0
VERTEX
  5
A86
  8
0
 10
46.589408132077303
 20
42.839892233432991
 30
0.0
  0
VERTEX
  5
A87
  8
0
 10
46.178293829184362
 20
42.831708445395698
 30
0.0
  0
SEQEND
  5
A88
  8
0
  0
LINE
  5
67A
  8
0
 10
48.678293829184341
 20
43.113240401370732
 30
0.0
 11
48.678293829184341
 21
45.550176489420728
 31
0.0
  0
POLYLINE
  5
67B
  8
0
 66
     1
 10
0.0
 20
0.0
 30
0.0
  0
VERTEX
  5
A89
  8
0
 10
48.678293829184341
 20
45.550176489420728
 30
0.0
  0
VERTEX
  5
A8A
  8
0
 10
48.678293829184341
 20
45.63603366663137
 30
0.0
  0
VERTEX
  5
A8B
  8
0
 10
48.678293829184341
 20
45.76028266296801
 30
0.0
  0
VERTEX
  5
A8C
  8
0
 10
48.678293829184341
 20
45.823524657358469
 30
0.0
  0
VERTEX
  5
A8D
  8
0
 10
48.678293829184341
 20
45.831708445395698
 30
0.0
  0
SEQEND
  5
A8E
  8
0
  0
POLYLINE
  5
67C
  8
0
 66
     1
 10
0.0
 20
0.0
 30
0.0
  0
VERTEX
  5
A8F
  8
0
 10
48.678293829184341
 20
42.831708445395698
 30
0.0
  0
VERTEX
  5
A90
  8
0
 10
48.678293829184341
 20
42.839892233432991
 30
0.0
  0
VERTEX
  5
A91
  8
0
 10
48.678293829184341
 20
42.903134227823458
 30
0.0
  0
VERTEX
  5
A92
  8
0
 10
48.678293829184341
 20
43.027383224160033
 30
0.0
  0
VERTEX
  5
A93
  8
0
 10
48.678293829184341
 20
43.113240401370732
 30
0.0
  0
SEQEND
  5
A94
  8
0
  0
POLYLINE
  5
67D
  8
0
 66
     1
 10
0.0
 20
0.0
 30
0.0
  0
VERTEX
  5
A95
  8
0
 10
46.178293829184362
 20
45.831708445395698
 30
0.0
  0
VERTEX
  5
A96
  8
0
 10
45.767179526290803
 20
45.823524657358469
 30
0.0
  0
VERTEX
  5
A97
  8
0
 10
44.953268013398493
 20
45.76028266296801
 30
0.0
  0
VERTEX
  5
A98
  8
0
 10
44.117017453317843
 20
45.63603366663137
 30
0.0
  0
VERTEX
  5
A99
  8
0
 10
43.678293829184362
 20
45.550176489420728
 30
0.0
  0
SEQEND
  5
A9A
  8
0
  0
POLYLINE
  5
67E
  8
0
 66
     1
 10
0.0
 20
0.0
 30
0.0
  0
VERTEX
  5
A9B
  8
0
 10
48.678293829184341
 20
45.550176489420728
 30
0.0
  0
VERTEX
  5
A9C
  8
0
 10
48.239570205050327
 20
45.63603366663137
 30
0.0
  0
VERTEX
  5
A9D
  8
0
 10
47.403319644969187
 20
45.76028266296801
 30
0.0
  0
VERTEX
  5
A9E
  8
0
 10
46.589408132077303
 20
45.823524657358419
 30
0.0
  0
VERTEX
  5
A9F
  8
0
 10
46.178293829184362
 20
45.831708445395698
 30
0.0
  0
SEQEND
  5
AA0
  8
0
  0
POLYLINE
  5
67F
  8
0
 66
     1
 10
0.0
 20
0.0
 30
0.0
  0
VERTEX
  5
AA1
  8
0
 10
46.178293829184362
 20
42.831708445395698
 30
0.0
  0
VERTEX
  5
AA2
  8
0
 10
46.589408132077928
 20
42.839892233432991
 30
0.0
  0
VERTEX
  5
AA3
  8
0
 10
47.403319644970232
 20
42.903134227823458
 30
0.0
  0
VERTEX
  5
AA4
  8
0
 10
48.239570205050903
 20
43.027383224160033
 30
0.0
  0
VERTEX
  5
AA5
  8
0
 10
48.678293829184341
 20
43.113240401370732
 30
0.0
  0
SEQEND
  5
AA6
  8
0
  0
POLYLINE
  5
680
  8
0
 66
     1
 10
0.0
 20
0.0
 30
0.0
  0
VERTEX
  5
AA7
  8
0
 10
43.678293829184362
 20
43.113240401370732
 30
0.0
  0
VERTEX
  5
AA8
  8
0
 10
44.117017453318383
 20
43.027383224160033
 30
0.0
  0
VERTEX
  5
AA9
  8
0
 10
44.953268013399551
 20
42.903134227823458
 30
0.0
  0
VERTEX
  5
AAA
  8
0
 10
45.767179526291429
 20
42.839892233432991
 30
0.0
  0
VERTEX
  5
AAB
  8
0
 10
46.178293829184362
 20
42.831708445395698
 30
0.0
  0
SEQEND
  5
AAC
  8
0
  0
LINE
  5
681
  8
0
 10
38.678293829184369
 20
45.831708445395698
 30
0.0
 11
48.678293829184341
 21
45.831708445395698
 31
0.0
  0
LINE
  5
682
  8
0
 10
38.678293829184369
 20
42.831708445395698
 30
0.0
 11
48.678293829184341
 21
42.831708445395698
 31
0.0
  0
CIRCLE
  5
6D9
  8
0
 10
43.678293829184383
 20
16.379915685736918
 30
0.0
 40
5.000000000000016
  0
LINE
  5
6DA
  8
1
 10
33.678293829184391
 20
16.379915685736901
 30
0.0
 11
53.678293829184383
 21
16.379915685736901
 31
0.0
  0
LINE
  5
6DB
  8
1
 10
43.678293829184383
 20
26.379915685736918
 30
0.0
 11
43.678293829184383
 21
6.3799156857369184
 31
0.0
  0
LINE
  5
75D
  8
1
 10
17.291333111274369
 20
16.379915685736901
 30
0.0
 11
8.2913331112743833
 21
16.379915685736901
 31
0.0
  0
POLYLINE
  5
763
  8
0
 66
     1
 10
0.0
 20
0.0
 30
0.0
  0
VERTEX
  5
AAD
  8
0
 10
14.00980115529935
 20
10.606412993840619
 30
0.0
  0
VERTEX
  5
AAE
  8
0
 10
14.09565833251005
 20
10.85971019633425
 30
0.0
  0
VERTEX
  5
AAF
  8
0
 10
14.21990732884669
 20
11.34251968230708
 30
0.0
  0
VERTEX
  5
AB0
  8
0
 10
14.283149323237099
 20
11.812431713371749
 30
0.0
  0
VERTEX
  5
AB1
  8
0
 10
14.29133311127438
 20
12.04978866681469
 30
0.0
  0
SEQEND
  5
AB2
  8
0
  0
LINE
  5
764
  8
0
 10
11.57286506724941
 20
10.606412993840619
 30
0.0
 11
14.00980115529935
 21
10.606412993840619
 31
0.0
  0
POLYLINE
  5
765
  8
0
 66
     1
 10
0.0
 20
0.0
 30
0.0
  0
VERTEX
  5
AB3
  8
0
 10
11.29133311127438
 20
12.04978866681469
 30
0.0
  0
VERTEX
  5
AB4
  8
0
 10
11.299516899311669
 20
11.81243171337141
 30
0.0
  0
VERTEX
  5
AB5
  8
0
 10
11.362758893702081
 20
11.342519682306509
 30
0.0
  0
VERTEX
  5
AB6
  8
0
 10
11.48700789003871
 20
10.85971019633396
 30
0.0
  0
VERTEX
  5
AB7
  8
0
 10
11.57286506724941
 20
10.606412993840619
 30
0.0
  0
SEQEND
  5
AB8
  8
0
  0
POLYLINE
  5
766
  8
0
 66
     1
 10
0.0
 20
0.0
 30
0.0
  0
VERTEX
  5
AB9
  8
0
 10
11.57286506724941
 20
13.493164339788761
 30
0.0
  0
VERTEX
  5
ABA
  8
0
 10
11.48700789003871
 20
13.23986713729513
 30
0.0
  0
VERTEX
  5
ABB
  8
0
 10
11.362758893702081
 20
12.757057651322301
 30
0.0
  0
VERTEX
  5
ABC
  8
0
 10
11.299516899311669
 20
12.287145620257631
 30
0.0
  0
VERTEX
  5
ABD
  8
0
 10
11.29133311127438
 20
12.04978866681469
 30
0.0
  0
SEQEND
  5
ABE
  8
0
  0
POLYLINE
  5
767
  8
0
 66
     1
 10
0.0
 20
0.0
 30
0.0
  0
VERTEX
  5
ABF
  8
0
 10
14.29133311127438
 20
12.04978866681469
 30
0.0
  0
VERTEX
  5
AC0
  8
0
 10
14.283149323237099
 20
12.28714562025803
 30
0.0
  0
VERTEX
  5
AC1
  8
0
 10
14.21990732884669
 20
12.757057651322921
 30
0.0
  0
VERTEX
  5
AC2
  8
0
 10
14.09565833251005
 20
13.23986713729548
 30
0.0
  0
VERTEX
  5
AC3
  8
0
 10
14.00980115529935
 20
13.493164339788761
 30
0.0
  0
SEQEND
  5
AC4
  8
0
  0
POLYLINE
  5
768
  8
0
 66
     1
 10
0.0
 20
0.0
 30
0.0
  0
VERTEX
  5
AC5
  8
0
 10
14.00980115529935
 20
19.266667031685039
 30
0.0
  0
VERTEX
  5
AC6
  8
0
 10
14.09565833251005
 20
19.519964234178669
 30
0.0
  0
VERTEX
  5
AC7
  8
0
 10
14.21990732884669
 20
20.002773720151509
 30
0.0
  0
VERTEX
  5
AC8
  8
0
 10
14.283149323237099
 20
20.472685751216179
 30
0.0
  0
VERTEX
  5
AC9
  8
0
 10
14.29133311127438
 20
20.71004270465912
 30
0.0
  0
SEQEND
  5
ACA
  8
0
  0
POLYLINE
  5
769
  8
0
 66
     1
 10
0.0
 20
0.0
 30
0.0
  0
VERTEX
  5
ACB
  8
0
 10
11.29133311127438
 20
20.71004270465912
 30
0.0
  0
VERTEX
  5
ACC
  8
0
 10
11.299516899311669
 20
20.472685751215781
 30
0.0
  0
VERTEX
  5
ACD
  8
0
 10
11.362758893702081
 20
20.002773720150891
 30
0.0
  0
VERTEX
  5
ACE
  8
0
 10
11.48700789003871
 20
19.519964234178332
 30
0.0
  0
VERTEX
  5
ACF
  8
0
 10
11.57286506724941
 20
19.266667031685039
 30
0.0
  0
SEQEND
  5
AD0
  8
0
  0
POLYLINE
  5
76A
  8
0
 66
     1
 10
0.0
 20
0.0
 30
0.0
  0
VERTEX
  5
AD1
  8
0
 10
11.57286506724941
 20
22.153418377633191
 30
0.0
  0
VERTEX
  5
AD2
  8
0
 10
11.48700789003871
 20
21.90012117513956
 30
0.0
  0
VERTEX
  5
AD3
  8
0
 10
11.362758893702081
 20
21.41731168916672
 30
0.0
  0
VERTEX
  5
AD4
  8
0
 10
11.299516899311669
 20
20.947399658102061
 30
0.0
  0
VERTEX
  5
AD5
  8
0
 10
11.29133311127438
 20
20.71004270465912
 30
0.0
  0
SEQEND
  5
AD6
  8
0
  0
LINE
  5
76B
  8
0
 10
11.57286506724941
 20
22.153418377633191
 30
0.0
 11
14.00980115529935
 21
22.153418377633191
 31
0.0
  0
POLYLINE
  5
76C
  8
0
 66
     1
 10
0.0
 20
0.0
 30
0.0
  0
VERTEX
  5
AD7
  8
0
 10
14.29133311127438
 20
20.71004270465912
 30
0.0
  0
VERTEX
  5
AD8
  8
0
 10
14.283149323237099
 20
20.947399658102398
 30
0.0
  0
VERTEX
  5
AD9
  8
0
 10
14.21990732884669
 20
21.417311689167288
 30
0.0
  0
VERTEX
  5
ADA
  8
0
 10
14.09565833251005
 20
21.900121175139851
 30
0.0
  0
VERTEX
  5
ADB
  8
0
 10
14.00980115529935
 20
22.153418377633191
 30
0.0
  0
SEQEND
  5
ADC
  8
0
  0
POLYLINE
  5
76D
  8
0
 66
     1
 10
0.0
 20
0.0
 30
0.0
  0
VERTEX
  5
ADD
  8
0
 10
14.00980115529935
 20
13.493164339788761
 30
0.0
  0
VERTEX
  5
ADE
  8
0
 10
14.09565833251005
 20
13.99975874477602
 30
0.0
  0
VERTEX
  5
ADF
  8
0
 10
14.21990732884669
 20
14.96537771672169
 30
0.0
  0
VERTEX
  5
AE0
  8
0
 10
14.283149323237099
 20
15.905201778851019
 30
0.0
  0
VERTEX
  5
AE1
  8
0
 10
14.29133311127438
 20
16.379915685736901
 30
0.0
  0
SEQEND
  5
AE2
  8
0
  0
POLYLINE
  5
76E
  8
0
 66
     1
 10
0.0
 20
0.0
 30
0.0
  0
VERTEX
  5
AE3
  8
0
 10
11.29133311127438
 20
16.379915685736901
 30
0.0
  0
VERTEX
  5
AE4
  8
0
 10
11.299516899311669
 20
15.90520177885028
 30
0.0
  0
VERTEX
  5
AE5
  8
0
 10
11.362758893702081
 20
14.965377716720489
 30
0.0
  0
VERTEX
  5
AE6
  8
0
 10
11.48700789003871
 20
13.99975874477539
 30
0.0
  0
VERTEX
  5
AE7
  8
0
 10
11.57286506724941
 20
13.493164339788761
 30
0.0
  0
SEQEND
  5
AE8
  8
0
  0
POLYLINE
  5
76F
  8
0
 66
     1
 10
0.0
 20
0.0
 30
0.0
  0
VERTEX
  5
AE9
  8
0
 10
11.57286506724941
 20
19.266667031685039
 30
0.0
  0
VERTEX
  5
AEA
  8
0
 10
11.48700789003871
 20
18.760072626697792
 30
0.0
  0
VERTEX
  5
AEB
  8
0
 10
11.362758893702081
 20
17.794453654752111
 30
0.0
  0
VERTEX
  5
AEC
  8
0
 10
11.299516899311669
 20
16.854629592622778
 30
0.0
  0
VERTEX
  5
AED
  8
0
 10
11.29133311127438
 20
16.379915685736901
 30
0.0
  0
SEQEND
  5
AEE
  8
0
  0
POLYLINE
  5
770
  8
0
 66
     1
 10
0.0
 20
0.0
 30
0.0
  0
VERTEX
  5
AEF
  8
0
 10
14.29133311127438
 20
16.379915685736901
 30
0.0
  0
VERTEX
  5
AF0
  8
0
 10
14.283149323237099
 20
16.854629592623521
 30
0.0
  0
VERTEX
  5
AF1
  8
0
 10
14.21990732884669
 20
17.794453654753308
 30
0.0
  0
VERTEX
  5
AF2
  8
0
 10
14.09565833251005
 20
18.76007262669842
 30
0.0
  0
VERTEX
  5
AF3
  8
0
 10
14.00980115529935
 20
19.266667031685039
 30
0.0
  0
SEQEND
  5
AF4
  8
0
  0
POLYLINE
  5
771
  8
0
 66
     1
 10
0.0
 20
0.0
 30
0.0
  0
VERTEX
  5
AF5
  8
0
 10
14.29133311127438
 20
20.71004270465912
 30
0.0
  0
VERTEX
  5
AF6
  8
0
 10
14.283149323237099
 20
20.472685751215781
 30
0.0
  0
VERTEX
  5
AF7
  8
0
 10
14.21990732884669
 20
20.002773720150891
 30
0.0
  0
VERTEX
  5
AF8
  8
0
 10
14.09565833251005
 20
19.519964234178332
 30
0.0
  0
VERTEX
  5
AF9
  8
0
 10
14.00980115529935
 20
19.266667031685039
 30
0.0
  0
SEQEND
  5
AFA
  8
0
  0
POLYLINE
  5
772
  8
0
 66
     1
 10
0.0
 20
0.0
 30
0.0
  0
VERTEX
  5
AFB
  8
0
 10
14.00980115529935
 20
22.153418377633191
 30
0.0
  0
VERTEX
  5
AFC
  8
0
 10
14.09565833251005
 20
21.90012117513956
 30
0.0
  0
VERTEX
  5
AFD
  8
0
 10
14.21990732884669
 20
21.41731168916672
 30
0.0
  0
VERTEX
  5
AFE
  8
0
 10
14.283149323237099
 20
20.947399658102061
 30
0.0
  0
VERTEX
  5
AFF
  8
0
 10
14.29133311127438
 20
20.71004270465912
 30
0.0
  0
SEQEND
  5
B00
  8
0
  0
POLYLINE
  5
773
  8
0
 66
     1
 10
0.0
 20
0.0
 30
0.0
  0
VERTEX
  5
B01
  8
0
 10
11.29133311127438
 20
20.71004270465912
 30
0.0
  0
VERTEX
  5
B02
  8
0
 10
11.299516899311669
 20
20.947399658102398
 30
0.0
  0
VERTEX
  5
B03
  8
0
 10
11.362758893702081
 20
21.417311689167288
 30
0.0
  0
VERTEX
  5
B04
  8
0
 10
11.48700789003871
 20
21.900121175139851
 30
0.0
  0
VERTEX
  5
B05
  8
0
 10
11.57286506724941
 20
22.153418377633191
 30
0.0
  0
SEQEND
  5
B06
  8
0
  0
POLYLINE
  5
774
  8
0
 66
     1
 10
0.0
 20
0.0
 30
0.0
  0
VERTEX
  5
B07
  8
0
 10
11.57286506724941
 20
19.266667031685039
 30
0.0
  0
VERTEX
  5
B08
  8
0
 10
11.48700789003871
 20
19.519964234178669
 30
0.0
  0
VERTEX
  5
B09
  8
0
 10
11.362758893702081
 20
20.002773720151509
 30
0.0
  0
VERTEX
  5
B0A
  8
0
 10
11.299516899311669
 20
20.472685751216179
 30
0.0
  0
VERTEX
  5
B0B
  8
0
 10
11.29133311127438
 20
20.71004270465912
 30
0.0
  0
SEQEND
  5
B0C
  8
0
  0
LINE
  5
775
  8
0
 10
11.57286506724941
 20
19.266667031685039
 30
0.0
 11
14.00980115529935
 21
19.266667031685039
 31
0.0
  0
POLYLINE
  5
776
  8
0
 66
     1
 10
0.0
 20
0.0
 30
0.0
  0
VERTEX
  5
B0D
  8
0
 10
14.29133311127438
 20
16.379915685736901
 30
0.0
  0
VERTEX
  5
B0E
  8
0
 10
14.283149323237099
 20
15.90520177885028
 30
0.0
  0
VERTEX
  5
B0F
  8
0
 10
14.21990732884669
 20
14.965377716720489
 30
0.0
  0
VERTEX
  5
B10
  8
0
 10
14.09565833251005
 20
13.99975874477539
 30
0.0
  0
VERTEX
  5
B11
  8
0
 10
14.00980115529935
 20
13.493164339788761
 30
0.0
  0
SEQEND
  5
B12
  8
0
  0
POLYLINE
  5
777
  8
0
 66
     1
 10
0.0
 20
0.0
 30
0.0
  0
VERTEX
  5
B13
  8
0
 10
14.00980115529935
 20
19.266667031685039
 30
0.0
  0
VERTEX
  5
B14
  8
0
 10
14.09565833251005
 20
18.760072626697792
 30
0.0
  0
VERTEX
  5
B15
  8
0
 10
14.21990732884669
 20
17.794453654752111
 30
0.0
  0
VERTEX
  5
B16
  8
0
 10
14.283149323237099
 20
16.854629592622778
 30
0.0
  0
VERTEX
  5
B17
  8
0
 10
14.29133311127438
 20
16.379915685736901
 30
0.0
  0
SEQEND
  5
B18
  8
0
  0
POLYLINE
  5
778
  8
0
 66
     1
 10
0.0
 20
0.0
 30
0.0
  0
VERTEX
  5
B19
  8
0
 10
11.29133311127438
 20
16.379915685736901
 30
0.0
  0
VERTEX
  5
B1A
  8
0
 10
11.299516899311669
 20
16.854629592623521
 30
0.0
  0
VERTEX
  5
B1B
  8
0
 10
11.362758893702081
 20
17.794453654753308
 30
0.0
  0
VERTEX
  5
B1C
  8
0
 10
11.48700789003871
 20
18.76007262669842
 30
0.0
  0
VERTEX
  5
B1D
  8
0
 10
11.57286506724941
 20
19.266667031685039
 30
0.0
  0
SEQEND
  5
B1E
  8
0
  0
POLYLINE
  5
779
  8
0
 66
     1
 10
0.0
 20
0.0
 30
0.0
  0
VERTEX
  5
B1F
  8
0
 10
11.57286506724941
 20
13.493164339788761
 30
0.0
  0
VERTEX
  5
B20
  8
0
 10
11.48700789003871
 20
13.99975874477602
 30
0.0
  0
VERTEX
  5
B21
  8
0
 10
11.362758893702081
 20
14.96537771672169
 30
0.0
  0
VERTEX
  5
B22
  8
0
 10
11.299516899311669
 20
15.905201778851019
 30
0.0
  0
VERTEX
  5
B23
  8
0
 10
11.29133311127438
 20
16.379915685736901
 30
0.0
  0
SEQEND
  5
B24
  8
0
  0
LINE
  5
77A
  8
0
 10
11.57286506724941
 20
13.493164339788761
 30
0.0
 11
14.00980115529935
 21
13.493164339788761
 31
0.0
  0
POLYLINE
  5
77B
  8
0
 66
     1
 10
0.0
 20
0.0
 30
0.0
  0
VERTEX
  5
B25
  8
0
 10
14.29133311127438
 20
12.04978866681469
 30
0.0
  0
VERTEX
  5
B26
  8
0
 10
14.283149323237099
 20
11.81243171337141
 30
0.0
  0
VERTEX
  5
B27
  8
0
 10
14.21990732884669
 20
11.342519682306509
 30
0.0
  0
VERTEX
  5
B28
  8
0
 10
14.09565833251005
 20
10.85971019633396
 30
0.0
  0
VERTEX
  5
B29
  8
0
 10
14.00980115529935
 20
10.606412993840619
 30
0.0
  0
SEQEND
  5
B2A
  8
0
  0
POLYLINE
  5
77C
  8
0
 66
     1
 10
0.0
 20
0.0
 30
0.0
  0
VERTEX
  5
B2B
  8
0
 10
14.00980115529935
 20
13.493164339788761
 30
0.0
  0
VERTEX
  5
B2C
  8
0
 10
14.09565833251005
 20
13.23986713729513
 30
0.0
  0
VERTEX
  5
B2D
  8
0
 10
14.21990732884669
 20
12.757057651322301
 30
0.0
  0
VERTEX
  5
B2E
  8
0
 10
14.283149323237099
 20
12.287145620257631
 30
0.0
  0
VERTEX
  5
B2F
  8
0
 10
14.29133311127438
 20
12.04978866681469
 30
0.0
  0
SEQEND
  5
B30
  8
0
  0
POLYLINE
  5
77D
  8
0
 66
     1
 10
0.0
 20
0.0
 30
0.0
  0
VERTEX
  5
B31
  8
0
 10
11.29133311127438
 20
12.04978866681469
 30
0.0
  0
VERTEX
  5
B32
  8
0
 10
11.299516899311669
 20
12.28714562025803
 30
0.0
  0
VERTEX
  5
B33
  8
0
 10
11.362758893702081
 20
12.757057651322921
 30
0.0
  0
VERTEX
  5
B34
  8
0
 10
11.48700789003871
 20
13.23986713729548
 30
0.0
  0
VERTEX
  5
B35
  8
0
 10
11.57286506724941
 20
13.493164339788761
 30
0.0
  0
SEQEND
  5
B36
  8
0
  0
POLYLINE
  5
77E
  8
0
 66
     1
 10
0.0
 20
0.0
 30
0.0
  0
VERTEX
  5
B37
  8
0
 10
11.57286506724941
 20
10.606412993840619
 30
0.0
  0
VERTEX
  5
B38
  8
0
 10
11.48700789003871
 20
10.85971019633425
 30
0.0
  0
VERTEX
  5
B39
  8
0
 10
11.362758893702081
 20
11.34251968230708
 30
0.0
  0
VERTEX
  5
B3A
  8
0
 10
11.299516899311669
 20
11.812431713371749
 30
0.0
  0
VERTEX
  5
B3B
  8
0
 10
11.29133311127438
 20
12.04978866681469
 30
0.0
  0
SEQEND
  5
B3C
  8
0
  0
LINE
  5
77F
  8
0
 10
14.29133311127438
 20
21.379915685736901
 30
0.0
 11
14.29133311127438
 21
11.379915685736901
 31
0.0
  0
LINE
  5
780
  8
0
 10
11.29133311127438
 20
21.379915685736901
 30
0.0
 11
11.29133311127438
 21
11.379915685736901
 31
0.0
  0
LINE
  5
79C
  8
0
 10
14.00980115529935
 20
10.606412993840619
 30
0.0
 11
14.29133311127438
 21
11.379915685736901
 31
0.0
  0
LINE
  5
79D
  8
0
 10
14.29133311127438
 20
21.379915685736901
 30
0.0
 11
14.00980115529935
 21
22.153418377633191
 31
0.0
  0
LINE
  5
79E
  8
0
 10
11.29133311127438
 20
11.379915685736901
 30
0.0
 11
11.57286506724941
 21
10.606412993840619
 31
0.0
  0
LINE
  5
79F
  8
0
 10
11.57286506724941
 20
22.153418377633191
 30
0.0
 11
11.29133311127438
 21
21.379915685736901
 31
0.0
  0
CIRCLE
  5
90F
  8
3
 10
43.678293829184383
 20
16.379915685736901
 30
0.0
 40
3.0
  0
CIRCLE
  5
910
  8
0
 10
43.678293829184383
 20
16.379915685736901
 30
0.0
 40
2.458499999999999
  0
LINE
  5
929
  8
0
 10
43.678293829184369
 20
22.153418377633191
 30
0.0
 11
38.678293829184412
 21
19.266667031685031
 31
0.0
  0
LINE
  5
92A
  8
0
 10
38.678293829184412
 20
19.266667031685031
 30
0.0
 11
38.678293829184383
 21
13.4931643397888
 31
0.0
  0
LINE
  5
92B
  8
0
 10
38.678293829184383
 20
13.4931643397888
 30
0.0
 11
43.678293829184391
 21
10.60641299384065
 31
0.0
  0
LINE
  5
92C
  8
0
 10
43.678293829184391
 20
10.60641299384065
 30
0.0
 11
48.678293829184398
 21
13.49316433978877
 31
0.0
  0
LINE
  5
92D
  8
0
 10
48.678293829184398
 20
13.49316433978877
 30
0.0
 11
48.678293829184398
 21
19.266667031685039
 31
0.0
  0
LINE
  5
92E
  8
0
 10
48.678293829184398
 20
19.266667031685039
 30
0.0
 11
43.678293829184369
 21
22.153418377633191
 31
0.0
  0
TEXT
  5
9DF
  8
0
 62
     3
 10
0.0
 20
0.0
 30
0.0
 40
5.0
  1
NDX6-NUT-SUS
  7
STANDARD1
  0
ENDSEC
  0
EOF
