  0
SECTION
  2
HEADER
  9
$ACADVER
  1
AC1009
  9
$INSBASE
 10
0.0
 20
0.0
 30
0.0
  9
$EXTMIN
 10
0.0
 20
-1.4802182810368341
 30
0.0
  9
$EXTMAX
 10
120.2264350791644
 20
115.0186711376259
 30
0.0
  9
$LIMMIN
 10
0.0
 20
0.0
  9
$LIMMAX
 10
385.0
 20
270.0
  9
$ORTHOMODE
 70
     1
  9
$REGENMODE
 70
     1
  9
$FILLMODE
 70
     1
  9
$QTEXTMODE
 70
     0
  9
$MIRRTEXT
 70
     0
  9
$DRAGMODE
 70
     2
  9
$LTSCALE
 40
5.0
  9
$OSMODE
 70
  3071
  9
$ATTMODE
 70
     1
  9
$TEXTSIZE
 40
4.000000000000048
  9
$TRACEWID
 40
0.05
  9
$TEXTSTYLE
  7
STANDARD
  9
$CLAYER
  8
0
  9
$CELTYPE
  6
BYLAYER
  9
$CECOLOR
 62
   256
  9
$DIMSCALE
 40
1.0
  9
$DIMASZ
 40
3.0
  9
$DIMEXO
 40
2.0
  9
$DIMDLI
 40
0.38
  9
$DIMRND
 40
0.0
  9
$DIMDLE
 40
0.0
  9
$DIMEXE
 40
2.0
  9
$DIMTP
 40
0.0
  9
$DIMTM
 40
0.0
  9
$DIMTXT
 40
3.0
  9
$DIMCEN
 40
0.0
  9
$DIMTSZ
 40
0.0
  9
$DIMTOL
 70
     0
  9
$DIMLIM
 70
     0
  9
$DIMTIH
 70
     0
  9
$DIMTOH
 70
     0
  9
$DIMSE1
 70
     0
  9
$DIMSE2
 70
     0
  9
$DIMTAD
 70
     1
  9
$DIMZIN
 70
     0
  9
$DIMBLK
  1

  9
$DIMASO
 70
     0
  9
$DIMSHO
 70
     0
  9
$DIMPOST
  1

  9
$DIMAPOST
  1

  9
$DIMALT
 70
     0
  9
$DIMALTD
 70
     2
  9
$DIMALTF
 40
25.399999999999999
  9
$DIMLFAC
 40
1.0
  9
$DIMTOFL
 70
     1
  9
$DIMTVP
 40
1.6000000000000001
  9
$DIMTIX
 70
     1
  9
$DIMSOXD
 70
     0
  9
$DIMSAH
 70
     0
  9
$DIMBLK1
  1

  9
$DIMBLK2
  1

  9
$DIMSTYLE
  2
STANDARD
  9
$DIMCLRD
 70
     0
  9
$DIMCLRE
 70
     0
  9
$DIMCLRT
 70
     0
  9
$DIMTFAC
 40
1.0
  9
$DIMGAP
 40
1.0
  9
$LUNITS
 70
     2
  9
$LUPREC
 70
     4
  9
$SKETCHINC
 40
0.1
  9
$FILLETRAD
 40
0.0
  9
$AUNITS
 70
     0
  9
$AUPREC
 70
     4
  9
$MENU
  1
E:\r13\win\SUPPORT\ACAD
  9
$ELEVATION
 40
0.0
  9
$PELEVATION
 40
0.0
  9
$THICKNESS
 40
0.0
  9
$LIMCHECK
 70
     0
  9
$BLIPMODE
 70
     0
  9
$CHAMFERA
 40
0.0
  9
$CHAMFERB
 40
0.0
  9
$SKPOLY
 70
     0
  9
$TDCREATE
 40
2450280.598206134
  9
$TDUPDATE
 40
2456597.6884034611
  9
$TDINDWG
 40
0.1757095023
  9
$TDUSRTIMER
 40
0.1757095023
  9
$USRTIMER
 70
     1
  9
$ANGBASE
 50
0.0
  9
$ANGDIR
 70
     0
  9
$PDMODE
 70
     0
  9
$PDSIZE
 40
0.0
  9
$PLINEWID
 40
0.0
  9
$COORDS
 70
     1
  9
$SPLFRAME
 70
     0
  9
$SPLINETYPE
 70
     6
  9
$SPLINESEGS
 70
     8
  9
$ATTDIA
 70
     0
  9
$ATTREQ
 70
     1
  9
$HANDLING
 70
     1
  9
$HANDSEED
  5
1270
  9
$SURFTAB1
 70
     6
  9
$SURFTAB2
 70
     6
  9
$SURFTYPE
 70
     6
  9
$SURFU
 70
     6
  9
$SURFV
 70
     6
  9
$UCSNAME
  2

  9
$UCSORG
 10
0.0
 20
0.0
 30
0.0
  9
$UCSXDIR
 10
1.0
 20
0.0
 30
0.0
  9
$UCSYDIR
 10
0.0
 20
1.0
 30
0.0
  9
$PUCSNAME
  2

  9
$PUCSORG
 10
0.0
 20
0.0
 30
0.0
  9
$PUCSXDIR
 10
1.0
 20
0.0
 30
0.0
  9
$PUCSYDIR
 10
0.0
 20
1.0
 30
0.0
  9
$USERI1
 70
     3
  9
$USERI2
 70
     1
  9
$USERI3
 70
     1
  9
$USERI4
 70
     0
  9
$USERI5
 70
     0
  9
$USERR1
 40
1.0
  9
$USERR2
 40
3.0
  9
$USERR3
 40
3.0
  9
$USERR4
 40
3.0
  9
$USERR5
 40
10.0
  9
$WORLDVIEW
 70
     1
  9
$SHADEDGE
 70
     3
  9
$SHADEDIF
 70
    70
  9
$TILEMODE
 70
     1
  9
$MAXACTVP
 70
    16
  9
$PLIMCHECK
 70
     0
  9
$PEXTMIN
 10
1.0000000000000000E+020
 20
1.0000000000000000E+020
 30
1.0000000000000000E+020
  9
$PEXTMAX
 10
-1.0000000000000000E+020
 20
-1.0000000000000000E+020
 30
-1.0000000000000000E+020
  9
$PLIMMIN
 10
0.0
 20
0.0
  9
$PLIMMAX
 10
12.0
 20
9.0
  9
$UNITMODE
 70
     0
  9
$VISRETAIN
 70
     0
  9
$PLINEGEN
 70
     0
  9
$PSLTSCALE
 70
     0
  0
ENDSEC
  0
SECTION
  2
TABLES
  0
TABLE
  2
VPORT
 70
     1
  0
VPORT
  2
*ACTIVE
 70
     0
 10
0.0
 20
0.0
 11
1.0
 21
1.0
 12
192.49412581440311
 22
134.84202934784381
 13
0.0
 23
0.0
 14
5.0
 24
5.0
 15
10.0
 25
10.0
 16
0.0
 26
0.0
 36
1.0
 17
0.0
 27
0.0
 37
0.0
 40
275.78743625673241
 41
2.304913294797688
 42
50.0
 43
0.0
 44
0.0
 50
0.0
 51
0.0
 71
     0
 72
   500
 73
     1
 74
     0
 75
     0
 76
     0
 77
     0
 78
     2
  0
ENDTAB
  0
TABLE
  2
LTYPE
 70
     3
  0
LTYPE
  2
CONTINUOUS
 70
     0
  3
Solid Line
 72
    65
 73
     0
 40
0.0
  0
LTYPE
  2
CENTER
 70
     0
  3
____ _ ____ _ ____ _ ____ _ ____ _ ____ _ ____
 72
    65
 73
     4
 40
2.0
 49
1.25
 49
-0.25
 49
0.25
 49
-0.25
  0
LTYPE
  2
PHANTOM2
 70
     0
  3
___ _ _ ___ _ _ ___ _ _ ___ _ _
 72
    65
 73
     6
 40
1.25
 49
0.625
 49
-0.125
 49
0.125
 49
-0.125
 49
0.125
 49
-0.125
  0
ENDTAB
  0
TABLE
  2
LAYER
 70
     4
  0
LAYER
  2
0
 70
     0
 62
     7
  6
CONTINUOUS
  0
LAYER
  2
1
 70
     0
 62
     1
  6
CENTER
  0
LAYER
  2
3
 70
     0
 62
     3
  6
CONTINUOUS
  0
LAYER
  2
DEFPOINTS
 70
     0
 62
     7
  6
CONTINUOUS
  0
ENDTAB
  0
TABLE
  2
STYLE
 70
     2
  0
STYLE
  2
STANDARD
 70
     0
 40
0.0
 41
1.0
 50
0.0
 71
     0
 42
4.000000000000048
  3
SIMPLEX
  4
BIGFONT
  0
STYLE
  2
STANDARD1
 70
     0
 40
0.0
 41
1.0
 50
0.0
 71
     0
 42
3.0
  3
txt
  4

  0
ENDTAB
  0
TABLE
  2
VIEW
 70
     2
  0
VIEW
  2
OLE1
 70
     0
 40
139.6936213463685
 10
215.2264895591413
 20
96.969590658441916
 41
272.31414794102233
 11
0.0
 21
0.0
 31
1.0
 12
0.0
 22
0.0
 32
0.0
 42
50.0
 43
0.0
 44
0.0
 50
0.0
 71
     0
  0
VIEW
  2
OLE2
 70
     0
 40
298.90969940296668
 10
392.7517266886324
 20
176.43203511405659
 41
448.995160284625
 11
0.0
 21
0.0
 31
1.0
 12
0.0
 22
0.0
 32
0.0
 42
50.0
 43
0.0
 44
0.0
 50
0.0
 71
     0
  0
ENDTAB
  0
TABLE
  2
UCS
 70
     0
  0
ENDTAB
  0
TABLE
  2
APPID
 70
     3
  0
APPID
  2
ACAD
 70
     0
  0
APPID
  2
ACAD_MLEADERVER
 70
     0
  0
APPID
  2
ACAD_NAV_VCDISPLAY
 70
     0
  0
ENDTAB
  0
TABLE
  2
DIMSTYLE
 70
     1
  0
DIMSTYLE
  2
STANDARD
 70
     0
  3

  4

  5

  6

  7

 40
1.0
 41
0.18
 42
0.0625
 43
0.38
 44
0.18
 45
0.0
 46
0.0
 47
0.0
 48
0.0
140
0.18
141
0.09
142
0.0
143
25.399999999999999
144
1.0
145
0.0
146
1.0
147
0.09
 71
     0
 72
     0
 73
     1
 74
     1
 75
     0
 76
     0
 77
     0
 78
     0
170
     0
171
     2
172
     0
173
     0
174
     0
175
     0
176
     0
177
     0
178
     0
  0
ENDTAB
  0
ENDSEC
  0
SECTION
  2
BLOCKS
  0
BLOCK
  8
0
  2
$MODEL_SPACE
 70
     0
 10
0.0
 20
0.0
 30
0.0
  3
$MODEL_SPACE
  1

  0
ENDBLK
  5
175
  8
0
  0
BLOCK
 67
     1
  8
0
  2
$PAPER_SPACE
 70
     0
 10
0.0
 20
0.0
 30
0.0
  3
$PAPER_SPACE
  1

  0
ENDBLK
  5
173
 67
     1
  8
0
  0
ENDSEC
  0
SECTION
  2
ENTITIES
  0
LINE
  5
1044
  8
1
 10
33.911576697594342
 20
35.203812756077632
 30
0.0
 11
17.91157669761645
 21
35.203812756077632
 31
0.0
  0
CIRCLE
  5
105C
  8
3
 10
97.726435079164503
 20
35.20381275607761
 30
0.0
 40
10.0
  0
CIRCLE
  5
105E
  8
0
 10
97.726435079164503
 20
35.20381275607761
 30
0.0
 40
8.6469999999999985
  0
LINE
  5
1067
  8
1
 10
120.2264350791644
 20
35.20381275607761
 30
0.0
 11
75.226435079164389
 21
35.20381275607761
 31
0.0
  0
LINE
  5
1068
  8
1
 10
97.726435079164503
 20
12.703812756077671
 30
0.0
 11
97.726435079164503
 21
57.703812756077667
 31
0.0
  0
LINE
  5
107F
  8
1
 10
97.726435079164389
 20
99.018671137648013
 30
0.0
 11
97.726435079164389
 21
115.0186711376259
 31
0.0
  0
LINE
  5
10C2
  8
0
 10
20.911576697616571
 20
20.703812756077301
 30
0.0
 11
22.539997794366911
 21
17.883304680388669
 31
0.0
  0
ARC
  5
10C3
  8
0
 10
28.867720077487832
 20
22.213431699311109
 30
0.0
 40
7.6674682452751783
 50
145.6157525319893
 51
205.61575252954631
  0
ARC
  5
10C5
  8
0
 10
49.86050586960522
 20
35.203812756150739
 30
0.0
 40
28.6602540373928
 50
162.41204622587409
 51
197.58795377443369
  0
ARC
  5
10C7
  8
0
 10
22.955433317723021
 20
22.213431699311109
 30
0.0
 40
7.6674682452751783
 50
334.38424747045372
 51
34.384247468010692
  0
LINE
  5
10C8
  8
0
 10
30.911576697594288
 20
20.703812756077301
 30
0.0
 11
29.283155600843941
 21
17.883304680388669
 31
0.0
  0
LINE
  5
10C9
  8
0
 10
22.539997794366911
 20
17.8833046803889
 30
0.0
 11
29.283155600680121
 21
17.883304680105141
 31
0.0
  0
LINE
  5
10CA
  8
0
 10
29.283155600820521
 20
26.543558718233101
 30
0.0
 11
22.539997794366911
 21
26.543558718387029
 31
0.0
  0
ARC
  5
10CB
  8
0
 10
1.9626475256055751
 20
35.203812756150739
 30
0.0
 40
28.6602540373928
 50
342.4120462255662
 51
17.587953774125889
  0
LINE
  5
10CC
  8
0
 10
29.283155600820521
 20
43.864066793921488
 30
0.0
 11
22.539997794366911
 21
43.864066793767563
 31
0.0
  0
LINE
  5
10CD
  8
0
 10
22.539997794366911
 20
52.524320831765692
 30
0.0
 11
29.283155600680121
 21
52.524320832049447
 31
0.0
  0
LINE
  5
10CE
  8
0
 10
30.911576697594288
 20
49.703812756077298
 30
0.0
 11
29.283155600843941
 21
52.52432083176592
 31
0.0
  0
ARC
  5
10CF
  8
0
 10
22.955433317723021
 20
48.194193812843473
 30
0.0
 40
7.6674682452751783
 50
325.6157525319893
 51
25.61575252954631
  0
ARC
  5
10D2
  8
0
 10
28.867720077487832
 20
48.194193812843473
 30
0.0
 40
7.6674682452751783
 50
154.38424747045369
 51
214.3842474680107
  0
LINE
  5
10D3
  8
0
 10
20.911576697616571
 20
49.703812756077298
 30
0.0
 11
22.539997794366911
 21
52.52432083176592
 31
0.0
  0
LINE
  5
10D4
  8
0
 10
20.911576697616461
 20
20.703812756077301
 30
0.0
 11
20.911576697616908
 21
49.70381275607798
 31
0.0
  0
LINE
  5
10D5
  8
0
 10
30.91157669759383
 20
49.703812756077753
 30
0.0
 11
30.911576697594171
 21
20.703812756077301
 31
0.0
  0
CIRCLE
  5
10D6
  8
0
 10
97.726435079164389
 20
35.203812756077667
 30
0.0
 40
14.5
  0
LINE
  5
10D7
  8
0
 10
97.726435079164631
 20
52.524320831766353
 30
0.0
 11
82.726435079164389
 21
43.864066793921921
 31
0.0
  0
LINE
  5
10D8
  8
0
 10
112.7264350791644
 20
43.864066793921801
 30
0.0
 11
97.726435079164631
 21
52.524320831766353
 31
0.0
  0
LINE
  5
10D9
  8
0
 10
112.7264350791644
 20
26.54355871823341
 30
0.0
 11
112.7264350791644
 21
43.864066793921801
 31
0.0
  0
LINE
  5
10DA
  8
0
 10
97.726435079164389
 20
17.883304680388871
 30
0.0
 11
112.7264350791644
 21
26.54355871823341
 31
0.0
  0
LINE
  5
10DB
  8
0
 10
82.726435079164389
 20
26.543558718233239
 30
0.0
 11
97.726435079164389
 21
17.883304680388871
 31
0.0
  0
LINE
  5
10DC
  8
0
 10
82.726435079164389
 20
43.864066793921921
 30
0.0
 11
82.726435079164389
 21
26.543558718233239
 31
0.0
  0
ARC
  5
10DD
  8
0
 10
90.226435079164446
 20
123.9700050459119
 30
0.0
 40
21.662658773668529
 50
249.7438419995992
 51
290.2561580004014
  0
ARC
  5
10DE
  8
0
 10
90.226435079164446
 20
90.067337229362025
 30
0.0
 40
21.662658773668529
 50
69.743841999598587
 51
110.2561580004008
  0
LINE
  5
10DF
  8
0
 10
112.2264350791644
 20
112.0186711376259
 30
0.0
 11
83.226435079165981
 21
112.0186711376259
 31
0.0
  0
LINE
  5
10E0
  8
0
 10
83.226435079165981
 20
102.018671137648
 30
0.0
 11
112.2264350791628
 21
102.018671137648
 31
0.0
  0
LINE
  5
10E1
  8
0
 10
97.726435079164389
 20
103.647092234398
 30
0.0
 11
97.726435079164389
 21
110.3902500408806
 31
0.0
  0
LINE
  5
10E2
  8
0
 10
112.7264350791644
 20
102.30734627224351
 30
0.0
 11
112.7264350791641
 21
111.72999600303039
 31
0.0
  0
ARC
  5
10E3
  8
0
 10
105.2264350791644
 20
90.067337229362025
 30
0.0
 40
21.662658773668529
 50
69.743841999599169
 51
110.2561580004014
  0
LINE
  5
10E4
  8
0
 10
112.2264350791628
 20
112.0186711376259
 30
0.0
 11
112.7264350791641
 21
111.72999600303029
 31
0.0
  0
ARC
  5
10E5
  8
0
 10
105.2264350791644
 20
123.9700050459119
 30
0.0
 40
21.662658773668529
 50
249.7438419995986
 51
290.25615800040077
  0
LINE
  5
10E6
  8
0
 10
112.2264350791628
 20
102.018671137648
 30
0.0
 11
112.7264350791641
 21
102.30734627224351
 31
0.0
  0
LINE
  5
10E7
  8
0
 10
82.726435079164389
 20
102.30734627224351
 30
0.0
 11
82.726435079164617
 21
111.72999600303039
 31
0.0
  0
LINE
  5
10E8
  8
0
 10
83.226435079165981
 20
112.0186711376259
 30
0.0
 11
82.726435079164617
 21
111.72999600303029
 31
0.0
  0
LINE
  5
10E9
  8
0
 10
83.226435079165981
 20
102.018671137648
 30
0.0
 11
82.726435079164617
 21
102.30734627224351
 31
0.0
  0
TEXT
  5
11DE
  8
0
 62
     3
 10
0.0
 20
0.0
 30
0.0
 40
5.0
  1
NDX20-NUT-SUS
  7
STANDARD1
  0
ENDSEC
  0
EOF
