  0
SECTION
  2
HEADER
  9
$ACADVER
  1
AC1009
  9
$INSBASE
 10
0.0
 20
0.0
 30
0.0
  9
$EXTMIN
 10
0.0
 20
-2.960436562073669
 30
0.0
  9
$EXTMAX
 10
160.97624515612529
 20
100.62395623282769
 30
0.0
  9
$LIMMIN
 10
0.0
 20
0.0
  9
$LIMMAX
 10
375.0
 20
270.0
  9
$ORTHOMODE
 70
     1
  9
$REGENMODE
 70
     1
  9
$FILLMODE
 70
     1
  9
$QTEXTMODE
 70
     0
  9
$MIRRTEXT
 70
     0
  9
$DRAGMODE
 70
     2
  9
$LTSCALE
 40
6.0
  9
$OSMODE
 70
  3071
  9
$ATTMODE
 70
     1
  9
$TEXTSIZE
 40
0.2
  9
$TRACEWID
 40
0.05
  9
$TEXTSTYLE
  7
STANDARD
  9
$CLAYER
  8
0
  9
$CELTYPE
  6
BYLAYER
  9
$CECOLOR
 62
   256
  9
$DIMSCALE
 40
1.0
  9
$DIMASZ
 40
3.0
  9
$DIMEXO
 40
1.0
  9
$DIMDLI
 40
6.0
  9
$DIMRND
 40
0.0
  9
$DIMDLE
 40
0.0
  9
$DIMEXE
 40
1.0
  9
$DIMTP
 40
495.0
  9
$DIMTM
 40
0.0
  9
$DIMTXT
 40
3.0
  9
$DIMCEN
 40
0.0
  9
$DIMTSZ
 40
0.0
  9
$DIMTOL
 70
     0
  9
$DIMLIM
 70
     0
  9
$DIMTIH
 70
     0
  9
$DIMTOH
 70
     0
  9
$DIMSE1
 70
     0
  9
$DIMSE2
 70
     0
  9
$DIMTAD
 70
     1
  9
$DIMZIN
 70
     0
  9
$DIMBLK
  1

  9
$DIMASO
 70
     0
  9
$DIMSHO
 70
     0
  9
$DIMPOST
  1

  9
$DIMAPOST
  1

  9
$DIMALT
 70
     0
  9
$DIMALTD
 70
     2
  9
$DIMALTF
 40
25.399999999999999
  9
$DIMLFAC
 40
1.0
  9
$DIMTOFL
 70
     1
  9
$DIMTVP
 40
0.0
  9
$DIMTIX
 70
     1
  9
$DIMSOXD
 70
     0
  9
$DIMSAH
 70
     0
  9
$DIMBLK1
  1

  9
$DIMBLK2
  1

  9
$DIMSTYLE
  2
STANDARD
  9
$DIMCLRD
 70
     0
  9
$DIMCLRE
 70
     0
  9
$DIMCLRT
 70
     4
  9
$DIMTFAC
 40
1.0
  9
$DIMGAP
 40
1.0
  9
$LUNITS
 70
     2
  9
$LUPREC
 70
     4
  9
$SKETCHINC
 40
0.1
  9
$FILLETRAD
 40
2.0
  9
$AUNITS
 70
     0
  9
$AUPREC
 70
     0
  9
$MENU
  1
C:\R13\WIN\SUPPORT\ACAD-I
  9
$ELEVATION
 40
0.0
  9
$PELEVATION
 40
0.0
  9
$THICKNESS
 40
0.0
  9
$LIMCHECK
 70
     0
  9
$BLIPMODE
 70
     0
  9
$CHAMFERA
 40
0.0
  9
$CHAMFERB
 40
0.0
  9
$SKPOLY
 70
     0
  9
$TDCREATE
 40
2451963.5681790742
  9
$TDUPDATE
 40
2456597.6879279171
  9
$TDINDWG
 40
0.0151829745
  9
$TDUSRTIMER
 40
0.0151829745
  9
$USRTIMER
 70
     1
  9
$ANGBASE
 50
0.0
  9
$ANGDIR
 70
     0
  9
$PDMODE
 70
     0
  9
$PDSIZE
 40
0.0
  9
$PLINEWID
 40
0.0
  9
$COORDS
 70
     1
  9
$SPLFRAME
 70
     0
  9
$SPLINETYPE
 70
     6
  9
$SPLINESEGS
 70
     8
  9
$ATTDIA
 70
     0
  9
$ATTREQ
 70
     1
  9
$HANDLING
 70
     1
  9
$HANDSEED
  5
D4C1
  9
$SURFTAB1
 70
     6
  9
$SURFTAB2
 70
     6
  9
$SURFTYPE
 70
     6
  9
$SURFU
 70
     6
  9
$SURFV
 70
     6
  9
$UCSNAME
  2

  9
$UCSORG
 10
0.0
 20
0.0
 30
0.0
  9
$UCSXDIR
 10
1.0
 20
0.0
 30
0.0
  9
$UCSYDIR
 10
0.0
 20
1.0
 30
0.0
  9
$PUCSNAME
  2

  9
$PUCSORG
 10
0.0
 20
0.0
 30
0.0
  9
$PUCSXDIR
 10
1.0
 20
0.0
 30
0.0
  9
$PUCSYDIR
 10
0.0
 20
1.0
 30
0.0
  9
$USERI1
 70
     4
  9
$USERI2
 70
     1
  9
$USERI3
 70
     0
  9
$USERI4
 70
     0
  9
$USERI5
 70
     0
  9
$USERR1
 40
1.0
  9
$USERR2
 40
3.0
  9
$USERR3
 40
3.0
  9
$USERR4
 40
3.0
  9
$USERR5
 40
10.0
  9
$WORLDVIEW
 70
     1
  9
$SHADEDGE
 70
     3
  9
$SHADEDIF
 70
    70
  9
$TILEMODE
 70
     1
  9
$MAXACTVP
 70
    16
  9
$PLIMCHECK
 70
     0
  9
$PEXTMIN
 10
1.0000000000000000E+020
 20
1.0000000000000000E+020
 30
1.0000000000000000E+020
  9
$PEXTMAX
 10
-1.0000000000000000E+020
 20
-1.0000000000000000E+020
 30
-1.0000000000000000E+020
  9
$PLIMMIN
 10
0.0
 20
0.0
  9
$PLIMMAX
 10
12.0
 20
9.0
  9
$UNITMODE
 70
     0
  9
$VISRETAIN
 70
     0
  9
$PLINEGEN
 70
     0
  9
$PSLTSCALE
 70
     0
  0
ENDSEC
  0
SECTION
  2
TABLES
  0
TABLE
  2
VPORT
 70
     1
  0
VPORT
  2
*ACTIVE
 70
     0
 10
0.0
 20
0.0
 11
1.0
 21
1.0
 12
187.49427839065231
 22
134.10366293909439
 13
0.0
 23
0.0
 14
10.0
 24
10.0
 15
10.0
 25
10.0
 16
0.0
 26
0.0
 36
1.0
 17
0.0
 27
0.0
 37
0.0
 40
277.29405978699532
 41
2.304913294797688
 42
50.0
 43
0.0
 44
0.0
 50
0.0
 51
0.0
 71
     0
 72
   100
 73
     1
 74
     0
 75
     0
 76
     0
 77
     0
 78
     0
  0
ENDTAB
  0
TABLE
  2
LTYPE
 70
     3
  0
LTYPE
  2
CONTINUOUS
 70
     0
  3
Solid Line
 72
    65
 73
     0
 40
0.0
  0
LTYPE
  2
CENTER
 70
     0
  3
____ _ ____ _ ____ _ ____ _ ____ _ ____ _ ____
 72
    65
 73
     4
 40
2.0
 49
1.25
 49
-0.25
 49
0.25
 49
-0.25
  0
LTYPE
  2
PHANTOM2
 70
     0
  3
___ _ _ ___ _ _ ___ _ _ ___ _ _
 72
    65
 73
     6
 40
1.25
 49
0.625
 49
-0.125
 49
0.125
 49
-0.125
 49
0.125
 49
-0.125
  0
ENDTAB
  0
TABLE
  2
LAYER
 70
     3
  0
LAYER
  2
0
 70
     0
 62
     7
  6
CONTINUOUS
  0
LAYER
  2
1
 70
     0
 62
     1
  6
CENTER
  0
LAYER
  2
3
 70
     0
 62
     3
  6
CONTINUOUS
  0
ENDTAB
  0
TABLE
  2
STYLE
 70
     2
  0
STYLE
  2
STANDARD
 70
     0
 40
0.0
 41
1.0
 50
0.0
 71
     0
 42
0.2
  3
SIMPLEX
  4
BIGFONT
  0
STYLE
  2
STANDARD1
 70
     0
 40
0.0
 41
1.0
 50
0.0
 71
     0
 42
3.0
  3
txt
  4

  0
ENDTAB
  0
TABLE
  2
VIEW
 70
     0
  0
ENDTAB
  0
TABLE
  2
UCS
 70
     0
  0
ENDTAB
  0
TABLE
  2
APPID
 70
    29
  0
APPID
  2
ACAD
 70
     0
  0
APPID
  2
GENIUS_GENOREF_13
 70
     0
  0
APPID
  2
GENIUS_GENOENT_13
 70
     0
  0
APPID
  2
GENIUS_GENBH_13
 70
     0
  0
APPID
  2
GENIUS_GENOBJ_13
 70
     0
  0
APPID
  2
GENIUS_GENODEF_13
 70
     0
  0
APPID
  2
GENIUS_GENOLIS_13
 70
     0
  0
APPID
  2
GENIUS_GENOBJ-NBEHI-BHF_13
 70
     0
  0
APPID
  2
GENIUS_GENOBJ-NBEHI-BHB_13
 70
     0
  0
APPID
  2
GENIUS_GENOBJ-F-PART_13
 70
     0
  0
APPID
  2
GENIUS_GEFSTDP_13
 70
     0
  0
APPID
  2
GENIUS_GENOBJ-N-RSSYM_13
 70
     0
  0
APPID
  2
GENIUS_GENSYMENT_13
 70
     0
  0
APPID
  2
GENIUS_GENOBJ-N-TIT_13
 70
     0
  0
APPID
  2
GENIUS_GENTITLE_13
 70
     0
  0
APPID
  2
GENIUS_GENZVEED_13
 70
     0
  0
APPID
  2
GENIUS_GENOBJ-N-LEADER_13
 70
     0
  0
APPID
  2
GENIUS_GENOBJ-N-FIL_13
 70
     0
  0
APPID
  2
GENIUS_GENOBJ-N-SEC_13
 70
     0
  0
APPID
  2
GENIUS_GENOBJ-N-CRS_13
 70
     0
  0
APPID
  2
GENIUS_GENOBJ-N-ZOO_13
 70
     0
  0
APPID
  2
GENIUS_GENZOO_13
 70
     0
  0
APPID
  2
GENIUS_GENOBJ-F-TOL_13
 70
     0
  0
APPID
  2
GENIUS_GENFIL_13
 70
     0
  0
APPID
  2
GENIUS_GENOBJ-N-CHA_13
 70
     0
  0
APPID
  2
_CALL_MAC$
 70
     0
  0
APPID
  2
ACAD_EXEMPT_FROM_CAD_STANDARDS
 70
     0
  0
APPID
  2
ACAD_MLEADERVER
 70
     0
  0
APPID
  2
ACAD_NAV_VCDISPLAY
 70
     0
  0
ENDTAB
  0
TABLE
  2
DIMSTYLE
 70
     1
  0
DIMSTYLE
  2
STANDARD
 70
     0
  3

  4

  5

  6

  7

 40
1.0
 41
0.18
 42
0.0625
 43
0.38
 44
0.18
 45
0.0
 46
0.0
 47
0.0
 48
0.0
140
0.18
141
0.09
142
0.0
143
25.399999999999999
144
1.0
145
0.0
146
1.0
147
0.09
 71
     0
 72
     0
 73
     1
 74
     1
 75
     0
 76
     0
 77
     0
 78
     0
170
     0
171
     2
172
     0
173
     0
174
     0
175
     0
176
     0
177
     0
178
     0
  0
ENDTAB
  0
ENDSEC
  0
SECTION
  2
BLOCKS
  0
BLOCK
  8
0
  2
$MODEL_SPACE
 70
     0
 10
0.0
 20
0.0
 30
0.0
  3
$MODEL_SPACE
  1

  0
ENDBLK
  5
D384
  8
0
  0
BLOCK
 67
     1
  8
0
  2
$PAPER_SPACE
 70
     0
 10
0.0
 20
0.0
 30
0.0
  3
$PAPER_SPACE
  1

  0
ENDBLK
  5
D382
 67
     1
  8
0
  0
ENDSEC
  0
SECTION
  2
ENTITIES
  0
LINE
  5
D27D
  8
0
 10
154.72624515612529
 20
46.623956232827567
 30
0.0
 11
109.726245156125
 21
46.623956232827567
 31
0.0
  0
LINE
  5
D27E
  8
0
 10
154.72624515612529
 20
92.123956232827567
 30
0.0
 11
109.7262451561255
 21
92.123956232827567
 31
0.0
  0
CIRCLE
  5
D27F
  8
0
 10
49.22995121106942
 20
69.373956232827709
 30
0.0
 40
6.9175000000000004
  0
CIRCLE
  5
D280
  8
3
 10
49.22995121106942
 20
69.373956232827709
 30
0.0
 40
8.0
  0
LINE
  5
D290
  8
1
 10
160.97624515612529
 20
69.373956232827567
 30
0.0
 11
93.476245156125273
 21
69.373956232827567
 31
0.0
  0
LINE
  5
D291
  8
0
 10
154.72624515612529
 20
92.123956232827567
 30
0.0
 11
154.72624515612529
 21
46.623956232827567
 31
0.0
  0
LINE
  5
D292
  8
0
 10
109.7262451561255
 20
94.373956232827851
 30
0.0
 11
109.7262451561253
 21
44.37395623282756
 31
0.0
  0
ARC
  5
D293
  8
0
 10
100.9762451561253
 20
88.748956232827936
 30
0.0
 40
1.25
 50
89.999999999999986
 51
180.0
  0
ARC
  5
D294
  8
0
 10
100.9762451561253
 20
49.998956232827922
 30
0.0
 40
1.25
 50
180.0
 51
270.0
  0
ARC
  5
D295
  8
0
 10
104.7262451561253
 20
46.873956232827773
 30
0.0
 40
2.5
 50
180.0
 51
270.00000000000023
  0
ARC
  5
D296
  8
0
 10
104.7262451561253
 20
91.873956232827766
 30
0.0
 40
2.5
 50
89.999999999999986
 51
180.0
  0
LINE
  5
D297
  8
0
 10
104.7262451561255
 20
94.373956232827709
 30
0.0
 11
109.7262451561255
 21
94.373956232827851
 31
0.0
  0
LINE
  5
D298
  8
0
 10
104.7262451561253
 20
44.373956232827702
 30
0.0
 11
109.7262451561253
 21
44.37395623282756
 31
0.0
  0
LINE
  5
D299
  8
0
 10
102.2262451561255
 20
91.873956232827709
 30
0.0
 11
102.2262451561253
 21
46.873956232827702
 31
0.0
  0
LINE
  5
D29A
  8
0
 10
100.9762451561253
 20
89.998956232827851
 30
0.0
 11
102.2262451561253
 21
89.998956232827851
 31
0.0
  0
LINE
  5
D29B
  8
0
 10
100.9762451561253
 20
48.748956232827851
 30
0.0
 11
102.2262451561255
 21
48.748956232827851
 31
0.0
  0
LINE
  5
D29C
  8
0
 10
99.726245156125302
 20
88.748956232827851
 30
0.0
 11
99.726245156125302
 21
49.998956232827851
 31
0.0
  0
LINE
  5
D29D
  8
1
 10
80.479951211069405
 20
69.373956232827709
 30
0.0
 11
17.97995121106942
 21
69.373956232827709
 31
0.0
  0
LINE
  5
D29E
  8
1
 10
49.22995121106942
 20
38.123956232827851
 30
0.0
 11
49.22995121106942
 21
100.62395623282769
 31
0.0
  0
POLYLINE
  5
D29F
  8
0
 66
     1
 10
0.0
 20
0.0
 30
0.0
 70
     1
  0
VERTEX
  5
D2A0
  8
0
 10
29.60495121106942
 20
89.998956232827936
 30
0.0
  0
VERTEX
  5
D2A1
  8
0
 10
68.854951211069405
 20
89.998956232827936
 30
0.0
 42
-0.4142135623730951
  0
VERTEX
  5
D2A2
  8
0
 10
69.85495121106942
 20
88.998956232827936
 30
0.0
  0
VERTEX
  5
D2A3
  8
0
 10
69.85495121106942
 20
49.748956232827922
 30
0.0
 42
-0.4142135623730951
  0
VERTEX
  5
D2A4
  8
0
 10
68.854951211069405
 20
48.748956232827922
 30
0.0
  0
VERTEX
  5
D2A5
  8
0
 10
29.60495121106942
 20
48.748956232827922
 30
0.0
 42
-0.4142135623730951
  0
VERTEX
  5
D2A6
  8
0
 10
28.60495121106942
 20
49.748956232827922
 30
0.0
  0
VERTEX
  5
D2A7
  8
0
 10
28.60495121106942
 20
88.998956232827936
 30
0.0
 42
-0.4142135623730951
  0
SEQEND
  5
D2A8
  8
0
  0
POLYLINE
  5
D2A9
  8
0
 66
     1
 10
0.0
 20
0.0
 30
0.0
 70
     1
  0
VERTEX
  5
D2AA
  8
0
 10
26.22995121106942
 20
94.373956232827823
 30
0.0
  0
VERTEX
  5
D2AB
  8
0
 10
72.22995121106942
 20
94.373956232827766
 30
0.0
 42
-0.4142135623730948
  0
VERTEX
  5
D2AC
  8
0
 10
74.22995121106942
 20
92.373956232827766
 30
0.0
  0
VERTEX
  5
D2AD
  8
0
 10
74.22995121106942
 20
46.373956232827773
 30
0.0
 42
-0.4142135623730961
  0
VERTEX
  5
D2AE
  8
0
 10
72.22995121106942
 20
44.373956232827773
 30
0.0
  0
VERTEX
  5
D2AF
  8
0
 10
26.22995121106942
 20
44.373956232827958
 30
0.0
 42
-0.414213562373094
  0
VERTEX
  5
D2B0
  8
0
 10
24.22995121106942
 20
46.373956232827958
 30
0.0
  0
VERTEX
  5
D2B1
  8
0
 10
24.22995121106942
 20
92.373956232827823
 30
0.0
 42
-0.4142135623730953
  0
SEQEND
  5
D2B2
  8
0
  0
TEXT
  5
D45C
  8
0
 62
     3
 10
0.0
 20
0.0
 30
0.0
 40
10.0
  1
NDQ50X2.5-M16
  7
STANDARD1
  0
ENDSEC
  0
EOF
