  0
SECTION
  2
HEADER
  9
$ACADVER
  1
AC1009
  9
$INSBASE
 10
0.0
 20
0.0
 30
0.0
  9
$EXTMIN
 10
0.0
 20
-2.960436562073669
 30
0.0
  9
$EXTMAX
 10
156.0026587235302
 20
94.373956232827709
 30
0.0
  9
$LIMMIN
 10
0.0
 20
0.0
  9
$LIMMAX
 10
375.0
 20
270.0
  9
$ORTHOMODE
 70
     1
  9
$REGENMODE
 70
     1
  9
$FILLMODE
 70
     1
  9
$QTEXTMODE
 70
     0
  9
$MIRRTEXT
 70
     0
  9
$DRAGMODE
 70
     2
  9
$LTSCALE
 40
6.0
  9
$OSMODE
 70
  3071
  9
$ATTMODE
 70
     1
  9
$TEXTSIZE
 40
0.2
  9
$TRACEWID
 40
0.05
  9
$TEXTSTYLE
  7
STANDARD
  9
$CLAYER
  8
0
  9
$CELTYPE
  6
BYLAYER
  9
$CECOLOR
 62
   256
  9
$DIMSCALE
 40
1.0
  9
$DIMASZ
 40
3.0
  9
$DIMEXO
 40
1.0
  9
$DIMDLI
 40
6.0
  9
$DIMRND
 40
0.0
  9
$DIMDLE
 40
0.0
  9
$DIMEXE
 40
1.0
  9
$DIMTP
 40
495.0
  9
$DIMTM
 40
0.0
  9
$DIMTXT
 40
3.0
  9
$DIMCEN
 40
0.0
  9
$DIMTSZ
 40
0.0
  9
$DIMTOL
 70
     0
  9
$DIMLIM
 70
     0
  9
$DIMTIH
 70
     0
  9
$DIMTOH
 70
     0
  9
$DIMSE1
 70
     0
  9
$DIMSE2
 70
     0
  9
$DIMTAD
 70
     1
  9
$DIMZIN
 70
     0
  9
$DIMBLK
  1

  9
$DIMASO
 70
     0
  9
$DIMSHO
 70
     0
  9
$DIMPOST
  1

  9
$DIMAPOST
  1

  9
$DIMALT
 70
     0
  9
$DIMALTD
 70
     2
  9
$DIMALTF
 40
25.399999999999999
  9
$DIMLFAC
 40
1.0
  9
$DIMTOFL
 70
     1
  9
$DIMTVP
 40
0.0
  9
$DIMTIX
 70
     1
  9
$DIMSOXD
 70
     0
  9
$DIMSAH
 70
     0
  9
$DIMBLK1
  1

  9
$DIMBLK2
  1

  9
$DIMSTYLE
  2
STANDARD
  9
$DIMCLRD
 70
     0
  9
$DIMCLRE
 70
     0
  9
$DIMCLRT
 70
     4
  9
$DIMTFAC
 40
1.0
  9
$DIMGAP
 40
1.0
  9
$LUNITS
 70
     2
  9
$LUPREC
 70
     4
  9
$SKETCHINC
 40
0.1
  9
$FILLETRAD
 40
2.0
  9
$AUNITS
 70
     0
  9
$AUPREC
 70
     0
  9
$MENU
  1
C:\R13\WIN\SUPPORT\ACAD-I
  9
$ELEVATION
 40
0.0
  9
$PELEVATION
 40
0.0
  9
$THICKNESS
 40
0.0
  9
$LIMCHECK
 70
     0
  9
$BLIPMODE
 70
     0
  9
$CHAMFERA
 40
0.0
  9
$CHAMFERB
 40
0.0
  9
$SKPOLY
 70
     0
  9
$TDCREATE
 40
2451963.549081238
  9
$TDUPDATE
 40
2456597.6878968519
  9
$TDINDWG
 40
0.008317037
  9
$TDUSRTIMER
 40
0.008317037
  9
$USRTIMER
 70
     1
  9
$ANGBASE
 50
0.0
  9
$ANGDIR
 70
     0
  9
$PDMODE
 70
     0
  9
$PDSIZE
 40
0.0
  9
$PLINEWID
 40
0.0
  9
$COORDS
 70
     1
  9
$SPLFRAME
 70
     0
  9
$SPLINETYPE
 70
     6
  9
$SPLINESEGS
 70
     8
  9
$ATTDIA
 70
     0
  9
$ATTREQ
 70
     1
  9
$HANDLING
 70
     1
  9
$HANDSEED
  5
D2ED
  9
$SURFTAB1
 70
     6
  9
$SURFTAB2
 70
     6
  9
$SURFTYPE
 70
     6
  9
$SURFU
 70
     6
  9
$SURFV
 70
     6
  9
$UCSNAME
  2

  9
$UCSORG
 10
0.0
 20
0.0
 30
0.0
  9
$UCSXDIR
 10
1.0
 20
0.0
 30
0.0
  9
$UCSYDIR
 10
0.0
 20
1.0
 30
0.0
  9
$PUCSNAME
  2

  9
$PUCSORG
 10
0.0
 20
0.0
 30
0.0
  9
$PUCSXDIR
 10
1.0
 20
0.0
 30
0.0
  9
$PUCSYDIR
 10
0.0
 20
1.0
 30
0.0
  9
$USERI1
 70
     4
  9
$USERI2
 70
     1
  9
$USERI3
 70
     0
  9
$USERI4
 70
     0
  9
$USERI5
 70
     0
  9
$USERR1
 40
1.0
  9
$USERR2
 40
3.0
  9
$USERR3
 40
3.0
  9
$USERR4
 40
3.0
  9
$USERR5
 40
10.0
  9
$WORLDVIEW
 70
     1
  9
$SHADEDGE
 70
     3
  9
$SHADEDIF
 70
    70
  9
$TILEMODE
 70
     1
  9
$MAXACTVP
 70
    16
  9
$PLIMCHECK
 70
     0
  9
$PEXTMIN
 10
1.0000000000000000E+020
 20
1.0000000000000000E+020
 30
1.0000000000000000E+020
  9
$PEXTMAX
 10
-1.0000000000000000E+020
 20
-1.0000000000000000E+020
 30
-1.0000000000000000E+020
  9
$PLIMMIN
 10
0.0
 20
0.0
  9
$PLIMMAX
 10
12.0
 20
9.0
  9
$UNITMODE
 70
     0
  9
$VISRETAIN
 70
     0
  9
$PLINEGEN
 70
     0
  9
$PSLTSCALE
 70
     0
  0
ENDSEC
  0
SECTION
  2
TABLES
  0
TABLE
  2
VPORT
 70
     1
  0
VPORT
  2
*ACTIVE
 70
     0
 10
0.0
 20
0.0
 11
1.0
 21
1.0
 12
187.49427839065231
 22
134.10366293909439
 13
0.0
 23
0.0
 14
10.0
 24
10.0
 15
10.0
 25
10.0
 16
0.0
 26
0.0
 36
1.0
 17
0.0
 27
0.0
 37
0.0
 40
277.29405978699532
 41
2.304913294797688
 42
50.0
 43
0.0
 44
0.0
 50
0.0
 51
0.0
 71
     0
 72
   100
 73
     1
 74
     0
 75
     0
 76
     0
 77
     0
 78
     0
  0
ENDTAB
  0
TABLE
  2
LTYPE
 70
     3
  0
LTYPE
  2
CONTINUOUS
 70
     0
  3
Solid Line
 72
    65
 73
     0
 40
0.0
  0
LTYPE
  2
CENTER
 70
     0
  3
____ _ ____ _ ____ _ ____ _ ____ _ ____ _ ____
 72
    65
 73
     4
 40
2.0
 49
1.25
 49
-0.25
 49
0.25
 49
-0.25
  0
LTYPE
  2
PHANTOM2
 70
     0
  3
___ _ _ ___ _ _ ___ _ _ ___ _ _
 72
    65
 73
     6
 40
1.25
 49
0.625
 49
-0.125
 49
0.125
 49
-0.125
 49
0.125
 49
-0.125
  0
ENDTAB
  0
TABLE
  2
LAYER
 70
     3
  0
LAYER
  2
0
 70
     0
 62
     7
  6
CONTINUOUS
  0
LAYER
  2
1
 70
     0
 62
     1
  6
CENTER
  0
LAYER
  2
3
 70
     0
 62
     3
  6
CONTINUOUS
  0
ENDTAB
  0
TABLE
  2
STYLE
 70
     2
  0
STYLE
  2
STANDARD
 70
     0
 40
0.0
 41
1.0
 50
0.0
 71
     0
 42
0.2
  3
SIMPLEX
  4
BIGFONT
  0
STYLE
  2
STANDARD1
 70
     0
 40
0.0
 41
1.0
 50
0.0
 71
     0
 42
3.0
  3
txt
  4

  0
ENDTAB
  0
TABLE
  2
VIEW
 70
     0
  0
ENDTAB
  0
TABLE
  2
UCS
 70
     0
  0
ENDTAB
  0
TABLE
  2
APPID
 70
    29
  0
APPID
  2
ACAD
 70
     0
  0
APPID
  2
GENIUS_GENOREF_13
 70
     0
  0
APPID
  2
GENIUS_GENOENT_13
 70
     0
  0
APPID
  2
GENIUS_GENBH_13
 70
     0
  0
APPID
  2
GENIUS_GENOBJ_13
 70
     0
  0
APPID
  2
GENIUS_GENODEF_13
 70
     0
  0
APPID
  2
GENIUS_GENOLIS_13
 70
     0
  0
APPID
  2
GENIUS_GENOBJ-NBEHI-BHF_13
 70
     0
  0
APPID
  2
GENIUS_GENOBJ-NBEHI-BHB_13
 70
     0
  0
APPID
  2
GENIUS_GENOBJ-F-PART_13
 70
     0
  0
APPID
  2
GENIUS_GEFSTDP_13
 70
     0
  0
APPID
  2
GENIUS_GENOBJ-N-RSSYM_13
 70
     0
  0
APPID
  2
GENIUS_GENSYMENT_13
 70
     0
  0
APPID
  2
GENIUS_GENOBJ-N-TIT_13
 70
     0
  0
APPID
  2
GENIUS_GENTITLE_13
 70
     0
  0
APPID
  2
GENIUS_GENZVEED_13
 70
     0
  0
APPID
  2
GENIUS_GENOBJ-N-LEADER_13
 70
     0
  0
APPID
  2
GENIUS_GENOBJ-N-FIL_13
 70
     0
  0
APPID
  2
GENIUS_GENOBJ-N-SEC_13
 70
     0
  0
APPID
  2
GENIUS_GENOBJ-N-CRS_13
 70
     0
  0
APPID
  2
GENIUS_GENOBJ-N-ZOO_13
 70
     0
  0
APPID
  2
GENIUS_GENZOO_13
 70
     0
  0
APPID
  2
GENIUS_GENOBJ-F-TOL_13
 70
     0
  0
APPID
  2
GENIUS_GENFIL_13
 70
     0
  0
APPID
  2
GENIUS_GENOBJ-N-CHA_13
 70
     0
  0
APPID
  2
_CALL_MAC$
 70
     0
  0
APPID
  2
ACAD_EXEMPT_FROM_CAD_STANDARDS
 70
     0
  0
APPID
  2
ACAD_MLEADERVER
 70
     0
  0
APPID
  2
ACAD_NAV_VCDISPLAY
 70
     0
  0
ENDTAB
  0
TABLE
  2
DIMSTYLE
 70
     1
  0
DIMSTYLE
  2
STANDARD
 70
     0
  3

  4

  5

  6

  7

 40
1.0
 41
0.18
 42
0.0625
 43
0.38
 44
0.18
 45
0.0
 46
0.0
 47
0.0
 48
0.0
140
0.18
141
0.09
142
0.0
143
25.399999999999999
144
1.0
145
0.0
146
1.0
147
0.09
 71
     0
 72
     0
 73
     1
 74
     1
 75
     0
 76
     0
 77
     0
 78
     0
170
     0
171
     2
172
     0
173
     0
174
     0
175
     0
176
     0
177
     0
178
     0
  0
ENDTAB
  0
ENDSEC
  0
SECTION
  2
BLOCKS
  0
BLOCK
  8
0
  2
$MODEL_SPACE
 70
     0
 10
0.0
 20
0.0
 30
0.0
  3
$MODEL_SPACE
  1

  0
ENDBLK
  5
D1A2
  8
0
  0
BLOCK
 67
     1
  8
0
  2
$PAPER_SPACE
 70
     0
 10
0.0
 20
0.0
 30
0.0
  3
$PAPER_SPACE
  1

  0
ENDBLK
  5
D1A0
 67
     1
  8
0
  0
ENDSEC
  0
SECTION
  2
ENTITIES
  0
CIRCLE
  5
D09E
  8
0
 10
67.605623567485495
 20
69.373956232827709
 30
0.0
 40
5.052999999999999
  0
CIRCLE
  5
D09F
  8
3
 10
67.605623567485495
 20
69.373956232827709
 30
0.0
 40
6.0
  0
LINE
  5
D0AF
  8
1
 10
156.0026587235302
 20
69.373956232827595
 30
0.0
 11
103.0026587235302
 21
69.373956232827595
 31
0.0
  0
LINE
  5
D0B0
  8
0
 10
151.0026587235302
 20
87.623956232827695
 30
0.0
 11
151.0026587235302
 21
51.123956232827588
 31
0.0
  0
LINE
  5
D0B1
  8
0
 10
151.00265872353029
 20
87.623956232827595
 30
0.0
 11
116.0026587235303
 21
87.623956232827595
 31
0.0
  0
LINE
  5
D0B2
  8
0
 10
151.00265872353029
 20
51.123956232827709
 30
0.0
 11
116.0026587235302
 21
51.123956232827588
 31
0.0
  0
LINE
  5
D0B3
  8
0
 10
116.0026587235303
 20
89.373956232827823
 30
0.0
 11
116.0026587235302
 21
49.373956232827602
 31
0.0
  0
ARC
  5
D0B4
  8
0
 10
109.0026587235302
 20
84.873956232827879
 30
0.0
 40
1.0
 50
89.999999999999986
 51
180.0
  0
ARC
  5
D0B5
  8
0
 10
109.0026587235302
 20
53.873956232827879
 30
0.0
 40
1.0
 50
180.0
 51
270.0
  0
ARC
  5
D0B6
  8
0
 10
112.0026587235302
 20
51.373956232827773
 30
0.0
 40
2.0
 50
180.0
 51
270.00000000000023
  0
ARC
  5
D0B7
  8
0
 10
112.0026587235302
 20
87.373956232827766
 30
0.0
 40
2.0
 50
89.999999999999986
 51
180.0
  0
LINE
  5
D0B8
  8
0
 10
112.0026587235303
 20
89.373956232827709
 30
0.0
 11
116.0026587235303
 21
89.373956232827823
 31
0.0
  0
LINE
  5
D0B9
  8
0
 10
112.0026587235302
 20
49.373956232827709
 30
0.0
 11
116.0026587235302
 21
49.373956232827602
 31
0.0
  0
LINE
  5
D0BA
  8
0
 10
110.0026587235303
 20
87.373956232827695
 30
0.0
 11
110.0026587235302
 21
51.373956232827702
 31
0.0
  0
LINE
  5
D0BB
  8
0
 10
109.0026587235302
 20
85.873956232827823
 30
0.0
 11
110.0026587235302
 21
85.873956232827823
 31
0.0
  0
LINE
  5
D0BC
  8
0
 10
109.0026587235302
 20
52.873956232827823
 30
0.0
 11
110.0026587235303
 21
52.873956232827823
 31
0.0
  0
LINE
  5
D0BD
  8
0
 10
108.0026587235302
 20
84.873956232827823
 30
0.0
 11
108.0026587235302
 21
53.873956232827823
 31
0.0
  0
CIRCLE
  5
D0BE
  8
0
 10
67.605623567485495
 20
69.373956232827879
 30
0.0
 40
10.0
  0
LINE
  5
D0BF
  8
1
 10
92.605623567485495
 20
69.373956232827709
 30
0.0
 11
42.605623567485502
 21
69.373956232827709
 31
0.0
  0
LINE
  5
D0C0
  8
1
 10
67.605623567485495
 20
44.373956232827823
 30
0.0
 11
67.605623567485623
 21
94.373956232827709
 31
0.0
  0
POLYLINE
  5
D0C1
  8
0
 66
     1
 10
0.0
 20
0.0
 30
0.0
 70
     1
  0
VERTEX
  5
D0C2
  8
0
 10
52.105623567485509
 20
85.873956232827865
 30
0.0
  0
VERTEX
  5
D0C3
  8
0
 10
83.105623567485509
 20
85.873956232827865
 30
0.0
 42
-0.4142135623730951
  0
VERTEX
  5
D0C4
  8
0
 10
84.105623567485509
 20
84.873956232827879
 30
0.0
  0
VERTEX
  5
D0C5
  8
0
 10
84.105623567485509
 20
53.873956232827879
 30
0.0
 42
-0.4142135623730951
  0
VERTEX
  5
D0C6
  8
0
 10
83.105623567485509
 20
52.873956232827879
 30
0.0
  0
VERTEX
  5
D0C7
  8
0
 10
52.105623567485509
 20
52.873956232827879
 30
0.0
 42
-0.4142135623730951
  0
VERTEX
  5
D0C8
  8
0
 10
51.105623567485509
 20
53.873956232827879
 30
0.0
  0
VERTEX
  5
D0C9
  8
0
 10
51.105623567485509
 20
84.873956232827879
 30
0.0
 42
-0.4142135623730951
  0
SEQEND
  5
D0CA
  8
0
  0
POLYLINE
  5
D0CB
  8
0
 66
     1
 10
0.0
 20
0.0
 30
0.0
 70
     1
  0
VERTEX
  5
D0CC
  8
0
 10
49.605623567485509
 20
89.373956232827794
 30
0.0
  0
VERTEX
  5
D0CD
  8
0
 10
85.605623567485509
 20
89.373956232827766
 30
0.0
 42
-0.4142135623730959
  0
VERTEX
  5
D0CE
  8
0
 10
87.605623567485495
 20
87.373956232827766
 30
0.0
  0
VERTEX
  5
D0CF
  8
0
 10
87.605623567485495
 20
51.373956232827773
 30
0.0
 42
-0.4142135623730951
  0
VERTEX
  5
D0D0
  8
0
 10
85.605623567485509
 20
49.373956232827759
 30
0.0
  0
VERTEX
  5
D0D1
  8
0
 10
49.605623567485509
 20
49.373956232827908
 30
0.0
 42
-0.4142135623730943
  0
VERTEX
  5
D0D2
  8
0
 10
47.605623567485502
 20
51.373956232827908
 30
0.0
  0
VERTEX
  5
D0D3
  8
0
 10
47.605623567485502
 20
87.373956232827794
 30
0.0
 42
-0.4142135623730951
  0
SEQEND
  5
D0D4
  8
0
  0
TEXT
  5
D28A
  8
0
 62
     3
 10
0.0
 20
0.0
 30
0.0
 40
10.0
  1
NDQ40X2-M12
  7
STANDARD1
  0
ENDSEC
  0
EOF
