  0
SECTION
  2
HEADER
  9
$ACADVER
  1
AC1009
  9
$INSBASE
 10
0.0
 20
0.0
 30
0.0
  9
$EXTMIN
 10
0.0
 20
-2.960436562073669
 30
0.0
  9
$EXTMAX
 10
113.8429950869877
 20
129.22550162578381
 30
0.0
  9
$LIMMIN
 10
0.0
 20
0.0
  9
$LIMMAX
 10
375.0
 20
270.0
  9
$ORTHOMODE
 70
     0
  9
$REGENMODE
 70
     1
  9
$FILLMODE
 70
     1
  9
$QTEXTMODE
 70
     0
  9
$MIRRTEXT
 70
     0
  9
$DRAGMODE
 70
     2
  9
$LTSCALE
 40
6.0
  9
$OSMODE
 70
  3071
  9
$ATTMODE
 70
     1
  9
$TEXTSIZE
 40
0.2
  9
$TRACEWID
 40
0.05
  9
$TEXTSTYLE
  7
STANDARD
  9
$CLAYER
  8
0
  9
$CELTYPE
  6
BYLAYER
  9
$CECOLOR
 62
   256
  9
$DIMSCALE
 40
1.0
  9
$DIMASZ
 40
3.0
  9
$DIMEXO
 40
1.0
  9
$DIMDLI
 40
6.0
  9
$DIMRND
 40
0.0
  9
$DIMDLE
 40
0.0
  9
$DIMEXE
 40
1.0
  9
$DIMTP
 40
495.0
  9
$DIMTM
 40
0.0
  9
$DIMTXT
 40
3.0
  9
$DIMCEN
 40
0.0
  9
$DIMTSZ
 40
0.0
  9
$DIMTOL
 70
     0
  9
$DIMLIM
 70
     0
  9
$DIMTIH
 70
     0
  9
$DIMTOH
 70
     0
  9
$DIMSE1
 70
     0
  9
$DIMSE2
 70
     0
  9
$DIMTAD
 70
     1
  9
$DIMZIN
 70
     0
  9
$DIMBLK
  1

  9
$DIMASO
 70
     0
  9
$DIMSHO
 70
     0
  9
$DIMPOST
  1

  9
$DIMAPOST
  1

  9
$DIMALT
 70
     0
  9
$DIMALTD
 70
     2
  9
$DIMALTF
 40
25.399999999999999
  9
$DIMLFAC
 40
1.0
  9
$DIMTOFL
 70
     1
  9
$DIMTVP
 40
0.0
  9
$DIMTIX
 70
     1
  9
$DIMSOXD
 70
     0
  9
$DIMSAH
 70
     0
  9
$DIMBLK1
  1

  9
$DIMBLK2
  1

  9
$DIMSTYLE
  2
STANDARD
  9
$DIMCLRD
 70
     0
  9
$DIMCLRE
 70
     0
  9
$DIMCLRT
 70
     4
  9
$DIMTFAC
 40
1.0
  9
$DIMGAP
 40
1.0
  9
$LUNITS
 70
     2
  9
$LUPREC
 70
     4
  9
$SKETCHINC
 40
0.1
  9
$FILLETRAD
 40
2.0
  9
$AUNITS
 70
     0
  9
$AUPREC
 70
     0
  9
$MENU
  1
C:\R13\WIN\SUPPORT\ACAD-I
  9
$ELEVATION
 40
0.0
  9
$PELEVATION
 40
0.0
  9
$THICKNESS
 40
0.0
  9
$LIMCHECK
 70
     0
  9
$BLIPMODE
 70
     0
  9
$CHAMFERA
 40
0.0
  9
$CHAMFERB
 40
0.0
  9
$SKPOLY
 70
     0
  9
$TDCREATE
 40
2451963.5438110419
  9
$TDUPDATE
 40
2456597.687702396
  9
$TDINDWG
 40
0.0956345833
  9
$TDUSRTIMER
 40
0.0956345833
  9
$USRTIMER
 70
     1
  9
$ANGBASE
 50
0.0
  9
$ANGDIR
 70
     0
  9
$PDMODE
 70
     0
  9
$PDSIZE
 40
0.0
  9
$PLINEWID
 40
0.0
  9
$COORDS
 70
     1
  9
$SPLFRAME
 70
     0
  9
$SPLINETYPE
 70
     6
  9
$SPLINESEGS
 70
     8
  9
$ATTDIA
 70
     0
  9
$ATTREQ
 70
     1
  9
$HANDLING
 70
     1
  9
$HANDSEED
  5
E2C0
  9
$SURFTAB1
 70
     6
  9
$SURFTAB2
 70
     6
  9
$SURFTYPE
 70
     6
  9
$SURFU
 70
     6
  9
$SURFV
 70
     6
  9
$UCSNAME
  2

  9
$UCSORG
 10
0.0
 20
0.0
 30
0.0
  9
$UCSXDIR
 10
1.0
 20
0.0
 30
0.0
  9
$UCSYDIR
 10
0.0
 20
1.0
 30
0.0
  9
$PUCSNAME
  2

  9
$PUCSORG
 10
0.0
 20
0.0
 30
0.0
  9
$PUCSXDIR
 10
1.0
 20
0.0
 30
0.0
  9
$PUCSYDIR
 10
0.0
 20
1.0
 30
0.0
  9
$USERI1
 70
     4
  9
$USERI2
 70
     1
  9
$USERI3
 70
     0
  9
$USERI4
 70
     0
  9
$USERI5
 70
     0
  9
$USERR1
 40
1.0
  9
$USERR2
 40
3.0
  9
$USERR3
 40
3.0
  9
$USERR4
 40
3.0
  9
$USERR5
 40
10.0
  9
$WORLDVIEW
 70
     1
  9
$SHADEDGE
 70
     3
  9
$SHADEDIF
 70
    70
  9
$TILEMODE
 70
     1
  9
$MAXACTVP
 70
    16
  9
$PLIMCHECK
 70
     0
  9
$PEXTMIN
 10
1.0000000000000000E+020
 20
1.0000000000000000E+020
 30
1.0000000000000000E+020
  9
$PEXTMAX
 10
-1.0000000000000000E+020
 20
-1.0000000000000000E+020
 30
-1.0000000000000000E+020
  9
$PLIMMIN
 10
0.0
 20
0.0
  9
$PLIMMAX
 10
12.0
 20
9.0
  9
$UNITMODE
 70
     0
  9
$VISRETAIN
 70
     0
  9
$PLINEGEN
 70
     0
  9
$PSLTSCALE
 70
     0
  0
ENDSEC
  0
SECTION
  2
TABLES
  0
TABLE
  2
VPORT
 70
     1
  0
VPORT
  2
*ACTIVE
 70
     0
 10
0.0
 20
0.0
 11
1.0
 21
1.0
 12
187.49427839065231
 22
134.10366293909439
 13
0.0
 23
0.0
 14
10.0
 24
10.0
 15
10.0
 25
10.0
 16
0.0
 26
0.0
 36
1.0
 17
0.0
 27
0.0
 37
0.0
 40
277.29405978699532
 41
2.304913294797688
 42
50.0
 43
0.0
 44
0.0
 50
0.0
 51
0.0
 71
     0
 72
   100
 73
     1
 74
     0
 75
     0
 76
     0
 77
     0
 78
     0
  0
ENDTAB
  0
TABLE
  2
LTYPE
 70
     4
  0
LTYPE
  2
CONTINUOUS
 70
     0
  3
Solid Line
 72
    65
 73
     0
 40
0.0
  0
LTYPE
  2
CENTER
 70
     0
  3
____ _ ____ _ ____ _ ____ _ ____ _ ____ _ ____
 72
    65
 73
     4
 40
2.0
 49
1.25
 49
-0.25
 49
0.25
 49
-0.25
  0
LTYPE
  2
HIDDEN
 70
     0
  3
_ _ _ _ _ _ _ _ _ _ _ _ _ _ _ _ _ _ _ _ _ _ _
 72
    65
 73
     2
 40
0.375
 49
0.25
 49
-0.125
  0
LTYPE
  2
PHANTOM2
 70
     0
  3
___ _ _ ___ _ _ ___ _ _ ___ _ _
 72
    65
 73
     6
 40
1.25
 49
0.625
 49
-0.125
 49
0.125
 49
-0.125
 49
0.125
 49
-0.125
  0
ENDTAB
  0
TABLE
  2
LAYER
 70
     5
  0
LAYER
  2
0
 70
     0
 62
     7
  6
CONTINUOUS
  0
LAYER
  2
1
 70
     0
 62
     1
  6
CENTER
  0
LAYER
  2
3
 70
     0
 62
     3
  6
CONTINUOUS
  0
LAYER
  2
2
 70
     0
 62
     2
  6
HIDDEN
  0
LAYER
  2
DEFPOINTS
 70
     0
 62
     7
  6
CONTINUOUS
  0
ENDTAB
  0
TABLE
  2
STYLE
 70
     2
  0
STYLE
  2
STANDARD
 70
     0
 40
0.0
 41
1.0
 50
0.0
 71
     0
 42
0.2
  3
SIMPLEX
  4
BIGFONT
  0
STYLE
  2
STANDARD1
 70
     0
 40
0.0
 41
1.0
 50
0.0
 71
     0
 42
3.0
  3
txt
  4

  0
ENDTAB
  0
TABLE
  2
VIEW
 70
     0
  0
ENDTAB
  0
TABLE
  2
UCS
 70
     0
  0
ENDTAB
  0
TABLE
  2
APPID
 70
    29
  0
APPID
  2
ACAD
 70
     0
  0
APPID
  2
GENIUS_GENOREF_13
 70
     0
  0
APPID
  2
GENIUS_GENOENT_13
 70
     0
  0
APPID
  2
GENIUS_GENBH_13
 70
     0
  0
APPID
  2
GENIUS_GENOBJ_13
 70
     0
  0
APPID
  2
GENIUS_GENODEF_13
 70
     0
  0
APPID
  2
GENIUS_GENOLIS_13
 70
     0
  0
APPID
  2
GENIUS_GENOBJ-NBEHI-BHF_13
 70
     0
  0
APPID
  2
GENIUS_GENOBJ-NBEHI-BHB_13
 70
     0
  0
APPID
  2
GENIUS_GENOBJ-F-PART_13
 70
     0
  0
APPID
  2
GENIUS_GEFSTDP_13
 70
     0
  0
APPID
  2
GENIUS_GENOBJ-N-RSSYM_13
 70
     0
  0
APPID
  2
GENIUS_GENSYMENT_13
 70
     0
  0
APPID
  2
GENIUS_GENOBJ-N-TIT_13
 70
     0
  0
APPID
  2
GENIUS_GENTITLE_13
 70
     0
  0
APPID
  2
GENIUS_GENZVEED_13
 70
     0
  0
APPID
  2
GENIUS_GENOBJ-N-LEADER_13
 70
     0
  0
APPID
  2
GENIUS_GENOBJ-N-FIL_13
 70
     0
  0
APPID
  2
GENIUS_GENOBJ-N-SEC_13
 70
     0
  0
APPID
  2
GENIUS_GENOBJ-N-CRS_13
 70
     0
  0
APPID
  2
GENIUS_GENOBJ-N-ZOO_13
 70
     0
  0
APPID
  2
GENIUS_GENZOO_13
 70
     0
  0
APPID
  2
GENIUS_GENOBJ-F-TOL_13
 70
     0
  0
APPID
  2
GENIUS_GENFIL_13
 70
     0
  0
APPID
  2
GENIUS_GENOBJ-N-CHA_13
 70
     0
  0
APPID
  2
_CALL_MAC$
 70
     0
  0
APPID
  2
ACAD_NAV_VCDISPLAY
 70
     0
  0
APPID
  2
ACAD_EXEMPT_FROM_CAD_STANDARDS
 70
     0
  0
APPID
  2
ACAD_MLEADERVER
 70
     0
  0
ENDTAB
  0
TABLE
  2
DIMSTYLE
 70
     1
  0
DIMSTYLE
  2
STANDARD
 70
     0
  3

  4

  5

  6

  7

 40
1.0
 41
0.18
 42
0.0625
 43
0.38
 44
0.18
 45
0.0
 46
0.0
 47
0.0
 48
0.0
140
0.18
141
0.09
142
0.0
143
25.399999999999999
144
1.0
145
0.0
146
1.0
147
0.09
 71
     0
 72
     0
 73
     1
 74
     1
 75
     0
 76
     0
 77
     0
 78
     0
170
     0
171
     2
172
     0
173
     0
174
     0
175
     0
176
     0
177
     0
178
     0
  0
ENDTAB
  0
ENDSEC
  0
SECTION
  2
BLOCKS
  0
BLOCK
  8
0
  2
$MODEL_SPACE
 70
     0
 10
0.0
 20
0.0
 30
0.0
  3
$MODEL_SPACE
  1

  0
ENDBLK
  5
CF6E
  8
0
  0
BLOCK
 67
     1
  8
0
  2
$PAPER_SPACE
 70
     0
 10
0.0
 20
0.0
 30
0.0
  3
$PAPER_SPACE
  1

  0
ENDBLK
  5
CF6C
 67
     1
  8
0
  0
ENDSEC
  0
SECTION
  2
ENTITIES
  0
LINE
  5
DDC3
  8
2
 10
35.342995086987692
 20
113.1520016257838
 30
0.0
 11
35.342995086987692
 21
87.225501625783764
 31
0.0
  0
LINE
  5
DDC4
  8
2
 10
47.342995086987678
 20
87.225501625783764
 30
0.0
 11
47.342995086987678
 21
113.1520016257838
 31
0.0
  0
LINE
  5
DDC5
  8
2
 10
36.416495086987652
 20
114.22550162578371
 30
0.0
 11
35.342995086987692
 21
113.1520016257838
 31
0.0
  0
LINE
  5
DDC6
  8
2
 10
47.342995086987678
 20
113.1520016257838
 30
0.0
 11
46.26949508698771
 21
114.22550162578371
 31
0.0
  0
LINE
  5
DDC8
  8
2
 10
47.342995086987678
 20
113.1520016257838
 30
0.0
 11
35.342995086987692
 21
113.1520016257838
 31
0.0
  0
LINE
  5
DDC9
  8
2
 10
46.26949508698771
 20
114.22550162578371
 30
0.0
 11
36.416495086987652
 21
114.22550162578371
 31
0.0
  0
LINE
  5
DDDC
  8
2
 10
47.342995086987798
 20
113.1520016257838
 30
0.0
 11
47.342995086987742
 21
126.22550162578381
 31
0.0
  0
LINE
  5
DDDD
  8
2
 10
35.342995086987692
 20
113.1520016257838
 30
0.0
 11
35.342995086987692
 21
126.22550162578381
 31
0.0
  0
LINE
  5
DDDE
  8
1
 10
41.342995086987678
 20
129.22550162578381
 30
0.0
 11
41.342995086987678
 21
74.225501625783778
 31
0.0
  0
LINE
  5
DDDF
  8
0
 10
35.342995086987692
 20
87.225501625783764
 30
0.0
 11
35.342995086987692
 21
82.225501625783764
 31
0.0
  0
LINE
  5
DDE0
  8
0
 10
47.342995086987678
 20
82.225501625783764
 30
0.0
 11
47.342995086987678
 21
87.225501625783764
 31
0.0
  0
LINE
  5
DDED
  8
2
 10
46.26949508698771
 20
114.22550162578371
 30
0.0
 11
46.26949508698771
 21
87.225501625783764
 31
0.0
  0
LINE
  5
DDEE
  8
3
 10
47.342995086987678
 20
82.225501625783764
 30
0.0
 11
46.26949508698771
 21
84.785501625783766
 31
0.0
  0
LINE
  5
DDEF
  8
0
 10
47.342995086987678
 20
84.785501625783766
 30
0.0
 11
35.342995086987692
 21
84.785501625783766
 31
0.0
  0
LINE
  5
DDF0
  8
2
 10
36.416495086987652
 20
114.22550162578371
 30
0.0
 11
36.416495086987652
 21
87.225501625783764
 31
0.0
  0
LINE
  5
DDF1
  8
3
 10
35.342995086987692
 20
82.225501625783764
 30
0.0
 11
36.416495086987652
 21
84.785501625783766
 31
0.0
  0
LINE
  5
DDF2
  8
0
 10
51.842995086987678
 20
117.1588349591171
 30
0.0
 11
51.842995086987678
 21
122.8255016257838
 31
0.0
  0
LINE
  5
DDF3
  8
0
 10
30.842995086987688
 20
122.8255016257838
 30
0.0
 11
30.842995086987688
 21
117.1588349591171
 31
0.0
  0
ARC
  5
DDF4
  8
0
 10
29.976328420321011
 20
116.0255016257838
 30
0.0
 40
1.1333333333333291
 50
90.0
 51
180.0
  0
ARC
  5
DDF5
  8
0
 10
52.709661753654359
 20
116.0255016257838
 30
0.0
 40
1.1333333333333311
 50
0.0
 51
90.0
  0
LINE
  5
DDF6
  8
0
 10
53.842995086987678
 20
114.89216829245041
 30
0.0
 11
53.842995086987678
 21
116.0255016257838
 31
0.0
  0
LINE
  5
DDF7
  8
0
 10
28.842995086987688
 20
116.0255016257838
 30
0.0
 11
28.842995086987688
 21
114.89216829245041
 31
0.0
  0
LINE
  5
DDF8
  8
0
 10
51.842995086987678
 20
109.22550162578371
 30
0.0
 11
51.842995086987678
 21
114.89216829245041
 31
0.0
  0
LINE
  5
DDF9
  8
0
 10
30.842995086987688
 20
114.89216829245041
 30
0.0
 11
30.842995086987688
 21
109.22550162578371
 31
0.0
  0
ARC
  5
DDFA
  8
0
 10
29.976328420321011
 20
108.0921682924504
 30
0.0
 40
1.1333333333333351
 50
90.0
 51
180.0
  0
ARC
  5
DDFB
  8
0
 10
52.709661753654359
 20
108.0921682924504
 30
0.0
 40
1.133333333333334
 50
0.0
 51
90.0
  0
LINE
  5
DDFC
  8
0
 10
53.842995086987678
 20
106.9588349591171
 30
0.0
 11
53.842995086987678
 21
108.0921682924504
 31
0.0
  0
LINE
  5
DDFD
  8
0
 10
28.842995086987688
 20
108.0921682924504
 30
0.0
 11
28.842995086987688
 21
106.9588349591171
 31
0.0
  0
LINE
  5
DDFE
  8
0
 10
52.342995086987678
 20
101.2921682924504
 30
0.0
 11
52.342995086987678
 21
106.9588349591171
 31
0.0
  0
LINE
  5
DDFF
  8
0
 10
30.342995086987688
 20
106.9588349591171
 30
0.0
 11
30.342995086987688
 21
101.2921682924504
 31
0.0
  0
LINE
  5
DE00
  8
0
 10
53.842995086987678
 20
95.625501625783784
 30
0.0
 11
53.247404420482212
 21
101.2921682924504
 31
0.0
  0
LINE
  5
DE01
  8
0
 10
29.438585753493161
 20
101.2921682924504
 30
0.0
 11
28.842995086987688
 21
95.625501625783784
 31
0.0
  0
LINE
  5
DE02
  8
0
 10
51.842995086987678
 20
92.225501625783764
 30
0.0
 11
51.842995086987678
 21
95.625501625783784
 31
0.0
  0
LINE
  5
DE03
  8
0
 10
30.842995086987688
 20
95.625501625783784
 30
0.0
 11
30.842995086987688
 21
92.225501625783764
 31
0.0
  0
LINE
  5
DE04
  8
0
 10
29.976328420321011
 20
117.1588349591171
 30
0.0
 11
52.709661753654359
 21
117.1588349591171
 31
0.0
  0
LINE
  5
DE06
  8
0
 10
28.842995086987688
 20
114.89216829245041
 30
0.0
 11
53.842995086987678
 21
114.89216829245041
 31
0.0
  0
LINE
  5
DE07
  8
0
 10
29.976328420321011
 20
109.22550162578371
 30
0.0
 11
52.709661753654359
 21
109.22550162578371
 31
0.0
  0
LINE
  5
DE09
  8
0
 10
28.842995086987688
 20
106.9588349591171
 30
0.0
 11
53.842995086987678
 21
106.9588349591171
 31
0.0
  0
LINE
  5
DE0A
  8
0
 10
29.438585753493161
 20
101.2921682924504
 30
0.0
 11
53.247404420482212
 21
101.2921682924504
 31
0.0
  0
LINE
  5
DE0B
  8
0
 10
28.842995086987688
 20
95.625501625783784
 30
0.0
 11
53.842995086987678
 21
95.625501625783784
 31
0.0
  0
LINE
  5
DE0C
  8
0
 10
53.842995086987678
 20
92.225501625783764
 30
0.0
 11
28.842995086987688
 21
92.225501625783764
 31
0.0
  0
LINE
  5
DE0E
  8
0
 10
28.842995086987688
 20
88.358834959117104
 30
0.0
 11
28.842995086987688
 21
92.225501625783764
 31
0.0
  0
LINE
  5
DE0F
  8
0
 10
28.842995086987688
 20
88.358834959117104
 30
0.0
 11
29.976328420321011
 21
87.225501625783764
 31
0.0
  0
LINE
  5
DE11
  8
0
 10
53.842995086987678
 20
88.358834959117104
 30
0.0
 11
53.842995086987678
 21
92.225501625783764
 31
0.0
  0
LINE
  5
DE12
  8
0
 10
52.709661753654359
 20
87.225501625783764
 30
0.0
 11
53.842995086987678
 21
88.358834959117104
 31
0.0
  0
LINE
  5
DE13
  8
0
 10
52.709661753654359
 20
87.225501625783764
 30
0.0
 11
29.976328420321011
 21
87.225501625783764
 31
0.0
  0
LINE
  5
DE17
  8
0
 10
28.842995086987688
 20
122.8255016257838
 30
0.0
 11
53.842995086987678
 21
122.8255016257838
 31
0.0
  0
LINE
  5
DE18
  8
0
 10
28.842995086987688
 20
122.8255016257838
 30
0.0
 11
29.200349486891021
 21
126.22550162578381
 31
0.0
  0
LINE
  5
DE19
  8
0
 10
29.200349486891021
 20
126.22550162578381
 30
0.0
 11
53.485640687084349
 21
126.22550162578381
 31
0.0
  0
LINE
  5
DE1A
  8
0
 10
53.485640687084349
 20
126.22550162578381
 30
0.0
 11
53.842995086987678
 21
122.8255016257838
 31
0.0
  0
LINE
  5
DF44
  8
1
 10
25.842995086987688
 20
32.225501625783778
 30
0.0
 11
56.842995086987678
 21
32.225501625783778
 31
0.0
  0
LINE
  5
DF45
  8
1
 10
41.342995086987678
 20
16.725501625783782
 30
0.0
 11
41.342995086987678
 21
47.725501625783778
 31
0.0
  0
LINE
  5
DF48
  8
0
 10
53.842995086987678
 20
19.725501625783782
 30
0.0
 11
53.842995086987678
 21
44.725501625783778
 31
0.0
  0
LINE
  5
DF49
  8
0
 10
28.842995086987688
 20
19.725501625783782
 30
0.0
 11
28.842995086987688
 21
44.725501625783778
 31
0.0
  0
LINE
  5
DF4D
  8
0
 10
28.842995086987688
 20
44.725501625783778
 30
0.0
 11
53.842995086987678
 21
44.725501625783778
 31
0.0
  0
LINE
  5
DF4F
  8
0
 10
28.842995086987688
 20
19.725501625783782
 30
0.0
 11
53.842995086987678
 21
19.725501625783782
 31
0.0
  0
LINE
  5
DF70
  8
2
 10
95.342995086987685
 20
113.1520016257838
 30
0.0
 11
95.342995086987685
 21
87.225501625783764
 31
0.0
  0
LINE
  5
DF71
  8
2
 10
107.3429950869877
 20
87.225501625783764
 30
0.0
 11
107.3429950869877
 21
113.1520016257838
 31
0.0
  0
LINE
  5
DF72
  8
2
 10
96.416495086987652
 20
114.22550162578371
 30
0.0
 11
95.342995086987685
 21
113.1520016257838
 31
0.0
  0
LINE
  5
DF73
  8
2
 10
107.3429950869877
 20
113.1520016257838
 30
0.0
 11
106.2694950869877
 21
114.22550162578371
 31
0.0
  0
LINE
  5
DF75
  8
2
 10
95.342995086987685
 20
113.1520016257838
 30
0.0
 11
107.3429950869877
 21
113.1520016257838
 31
0.0
  0
LINE
  5
DF76
  8
2
 10
96.416495086987652
 20
114.22550162578371
 30
0.0
 11
106.2694950869877
 21
114.22550162578371
 31
0.0
  0
LINE
  5
DF83
  8
2
 10
107.3429950869877
 20
113.1520016257838
 30
0.0
 11
107.3429950869877
 21
126.22550162578381
 31
0.0
  0
LINE
  5
DF84
  8
2
 10
95.342995086987742
 20
113.1520016257838
 30
0.0
 11
95.342995086987685
 21
126.22550162578381
 31
0.0
  0
LINE
  5
DF85
  8
1
 10
101.3429950869877
 20
129.22550162578381
 30
0.0
 11
101.3429950869877
 21
74.225501625783778
 31
0.0
  0
LINE
  5
DF86
  8
0
 10
95.342995086987685
 20
87.225501625783764
 30
0.0
 11
95.342995086987685
 21
82.225501625783764
 31
0.0
  0
LINE
  5
DF87
  8
0
 10
107.3429950869877
 20
82.225501625783764
 30
0.0
 11
107.3429950869877
 21
87.225501625783764
 31
0.0
  0
LINE
  5
DF94
  8
2
 10
106.2694950869877
 20
114.22550162578371
 30
0.0
 11
106.2694950869876
 21
87.225501625783764
 31
0.0
  0
LINE
  5
DF95
  8
3
 10
107.3429950869877
 20
82.225501625783764
 30
0.0
 11
106.2694950869877
 21
84.785501625783766
 31
0.0
  0
LINE
  5
DF96
  8
0
 10
107.3429950869877
 20
84.785501625783766
 30
0.0
 11
95.342995086987685
 21
84.785501625783766
 31
0.0
  0
LINE
  5
DF97
  8
2
 10
96.416495086987652
 20
114.22550162578371
 30
0.0
 11
96.416495086987652
 21
87.225501625783764
 31
0.0
  0
LINE
  5
DF98
  8
3
 10
95.342995086987685
 20
82.225501625783764
 30
0.0
 11
96.416495086987652
 21
84.785501625783766
 31
0.0
  0
LINE
  5
DF99
  8
0
 10
111.8429950869877
 20
117.1588349591171
 30
0.0
 11
111.8429950869877
 21
122.8255016257838
 31
0.0
  0
LINE
  5
DF9A
  8
0
 10
90.842995086987685
 20
122.8255016257838
 30
0.0
 11
90.842995086987685
 21
117.1588349591171
 31
0.0
  0
ARC
  5
DF9B
  8
0
 10
89.976328420321025
 20
116.0255016257838
 30
0.0
 40
1.1333333333333291
 50
90.0
 51
180.0
  0
ARC
  5
DF9C
  8
0
 10
112.7096617536543
 20
116.0255016257838
 30
0.0
 40
1.1333333333333311
 50
0.0
 51
90.0
  0
LINE
  5
DF9D
  8
0
 10
113.8429950869877
 20
114.89216829245041
 30
0.0
 11
113.8429950869877
 21
116.0255016257838
 31
0.0
  0
LINE
  5
DF9E
  8
0
 10
88.842995086987685
 20
116.0255016257838
 30
0.0
 11
88.842995086987685
 21
114.89216829245041
 31
0.0
  0
LINE
  5
DF9F
  8
0
 10
111.8429950869877
 20
109.22550162578371
 30
0.0
 11
111.8429950869877
 21
114.89216829245041
 31
0.0
  0
LINE
  5
DFA0
  8
0
 10
90.842995086987685
 20
114.89216829245041
 30
0.0
 11
90.842995086987685
 21
109.22550162578371
 31
0.0
  0
ARC
  5
DFA1
  8
0
 10
89.976328420321025
 20
108.0921682924504
 30
0.0
 40
1.1333333333333351
 50
90.0
 51
180.0
  0
ARC
  5
DFA2
  8
0
 10
112.7096617536543
 20
108.0921682924504
 30
0.0
 40
1.133333333333334
 50
0.0
 51
90.0
  0
LINE
  5
DFA3
  8
0
 10
113.8429950869877
 20
106.9588349591171
 30
0.0
 11
113.8429950869877
 21
108.0921682924504
 31
0.0
  0
LINE
  5
DFA4
  8
0
 10
88.842995086987685
 20
108.0921682924504
 30
0.0
 11
88.842995086987685
 21
106.9588349591171
 31
0.0
  0
LINE
  5
DFA5
  8
0
 10
112.3429950869877
 20
101.2921682924504
 30
0.0
 11
112.3429950869877
 21
106.9588349591171
 31
0.0
  0
LINE
  5
DFA6
  8
0
 10
90.342995086987685
 20
106.9588349591171
 30
0.0
 11
90.342995086987685
 21
101.2921682924504
 31
0.0
  0
LINE
  5
DFA7
  8
0
 10
113.8429950869877
 20
95.625501625783784
 30
0.0
 11
113.2474044204822
 21
101.2921682924504
 31
0.0
  0
LINE
  5
DFA8
  8
0
 10
89.438585753493143
 20
101.2921682924504
 30
0.0
 11
88.842995086987685
 21
95.625501625783784
 31
0.0
  0
LINE
  5
DFA9
  8
0
 10
111.8429950869877
 20
92.225501625783764
 30
0.0
 11
111.8429950869877
 21
95.625501625783784
 31
0.0
  0
LINE
  5
DFAA
  8
0
 10
90.842995086987685
 20
95.625501625783784
 30
0.0
 11
90.842995086987685
 21
92.225501625783764
 31
0.0
  0
LINE
  5
DFAB
  8
0
 10
89.976328420321025
 20
117.1588349591171
 30
0.0
 11
112.7096617536543
 21
117.1588349591171
 31
0.0
  0
LINE
  5
DFAD
  8
0
 10
88.842995086987685
 20
114.89216829245041
 30
0.0
 11
113.8429950869877
 21
114.89216829245041
 31
0.0
  0
LINE
  5
DFAE
  8
0
 10
89.976328420321025
 20
109.22550162578371
 30
0.0
 11
112.7096617536543
 21
109.22550162578371
 31
0.0
  0
LINE
  5
DFB0
  8
0
 10
88.842995086987685
 20
106.9588349591171
 30
0.0
 11
113.8429950869877
 21
106.9588349591171
 31
0.0
  0
LINE
  5
DFB1
  8
0
 10
89.438585753493143
 20
101.2921682924504
 30
0.0
 11
113.2474044204822
 21
101.2921682924504
 31
0.0
  0
LINE
  5
DFB2
  8
0
 10
88.842995086987685
 20
95.625501625783784
 30
0.0
 11
113.8429950869877
 21
95.625501625783784
 31
0.0
  0
LINE
  5
DFB4
  8
0
 10
112.7096617536543
 20
87.225501625783764
 30
0.0
 11
89.976328420321025
 21
87.225501625783764
 31
0.0
  0
LINE
  5
DFB7
  8
0
 10
113.8429950869877
 20
88.358834959117104
 30
0.0
 11
113.8429950869877
 21
92.225501625783764
 31
0.0
  0
LINE
  5
DFB8
  8
0
 10
88.842995086987685
 20
88.358834959117104
 30
0.0
 11
88.842995086987685
 21
92.225501625783764
 31
0.0
  0
LINE
  5
DFB9
  8
0
 10
113.8429950869877
 20
92.225501625783764
 30
0.0
 11
88.842995086987685
 21
92.225501625783764
 31
0.0
  0
LINE
  5
DFBC
  8
0
 10
112.7096617536543
 20
87.225501625783764
 30
0.0
 11
113.8429950869877
 21
88.358834959117104
 31
0.0
  0
LINE
  5
DFBD
  8
0
 10
88.842995086987685
 20
88.358834959117104
 30
0.0
 11
89.976328420321025
 21
87.225501625783764
 31
0.0
  0
LINE
  5
DFBE
  8
0
 10
89.200349486891014
 20
126.22550162578381
 30
0.0
 11
113.4856406870843
 21
126.22550162578381
 31
0.0
  0
LINE
  5
DFBF
  8
0
 10
88.842995086987685
 20
122.8255016257838
 30
0.0
 11
113.8429950869877
 21
122.8255016257838
 31
0.0
  0
LINE
  5
DFC0
  8
0
 10
113.8429950869877
 20
122.8255016257838
 30
0.0
 11
113.4856406870843
 21
126.22550162578381
 31
0.0
  0
LINE
  5
DFC1
  8
0
 10
89.200349486891014
 20
126.22550162578381
 30
0.0
 11
88.842995086987685
 21
122.8255016257838
 31
0.0
  0
LINE
  5
E004
  8
3
 10
96.416495086987652
 20
84.785501625783766
 30
0.0
 11
96.416495086987652
 21
87.225501625783764
 31
0.0
  0
LINE
  5
E005
  8
3
 10
106.2694950869876
 20
87.225501625783764
 30
0.0
 11
106.2694950869877
 21
84.785501625783766
 31
0.0
  0
LINE
  5
E006
  8
3
 10
46.26949508698771
 20
87.225501625783764
 30
0.0
 11
46.26949508698771
 21
84.785501625783766
 31
0.0
  0
LINE
  5
E007
  8
3
 10
36.416495086987652
 20
87.225501625783764
 30
0.0
 11
36.416495086987652
 21
84.785501625783766
 31
0.0
  0
LINE
  5
E07E
  8
0
 10
50.842995086987742
 20
77.225501625783778
 30
0.0
 11
31.842995086987742
 21
77.225501625783778
 31
0.0
  0
LINE
  5
E07F
  8
0
 10
50.842995086987742
 20
82.225501625783764
 30
0.0
 11
50.842995086987742
 21
77.225501625783778
 31
0.0
  0
LINE
  5
E080
  8
0
 10
31.842995086987742
 20
82.225501625783764
 30
0.0
 11
31.842995086987742
 21
77.225501625783778
 31
0.0
  0
LINE
  5
E081
  8
0
 10
31.842995086987742
 20
82.225501625783764
 30
0.0
 11
50.842995086987742
 21
82.225501625783764
 31
0.0
  0
LINE
  5
E082
  8
0
 10
41.342995086987742
 20
82.225501625783764
 30
0.0
 11
41.342995086987742
 21
77.677408636454203
 31
0.0
  0
ARC
  5
E083
  8
0
 10
46.092995086987742
 20
102.41510856783761
 30
0.0
 40
25.18960694205385
 50
259.13066689565659
 51
280.8693331043433
  0
ARC
  5
E084
  8
0
 10
36.592995086987742
 20
102.41510856783761
 30
0.0
 40
25.18960694205385
 50
259.13066689565659
 51
280.8693331043433
  0
LINE
  5
E085
  8
0
 10
112.3126502015906
 20
77.225501625783778
 30
0.0
 11
90.373339972384755
 21
77.225501625783778
 31
0.0
  0
LINE
  5
E086
  8
0
 10
112.3126502015906
 20
82.225501625783764
 30
0.0
 11
112.3126502015906
 21
77.225501625783778
 31
0.0
  0
LINE
  5
E087
  8
0
 10
90.373339972384755
 20
82.225501625783764
 30
0.0
 11
90.373339972384755
 21
77.225501625783778
 31
0.0
  0
LINE
  5
E088
  8
0
 10
90.373339972384755
 20
82.225501625783764
 30
0.0
 11
112.3126502015906
 21
82.225501625783764
 31
0.0
  0
LINE
  5
E089
  8
0
 10
95.858167529686284
 20
82.225501625783764
 30
0.0
 11
95.858167529686284
 21
77.677408636454203
 31
0.0
  0
ARC
  5
E08A
  8
0
 10
101.3429950869878
 20
110.7363263800754
 30
0.0
 40
33.510824754291662
 50
260.57982706742348
 51
279.42017293257641
  0
ARC
  5
E08B
  8
0
 10
93.115753751035626
 20
85.772672943359737
 30
0.0
 40
8.5471713175759696
 50
251.28528172201069
 51
288.71471827798592
  0
LINE
  5
E08C
  8
0
 10
106.8278226442892
 20
82.225501625783764
 30
0.0
 11
106.8278226442892
 21
77.677408636454203
 31
0.0
  0
ARC
  5
E08D
  8
0
 10
109.5702364229398
 20
85.772672943359737
 30
0.0
 40
8.5471713175759696
 50
251.2852817220141
 51
288.71471827798592
  0
LINE
  5
E08E
  8
0
 10
50.842995086987742
 20
37.71032918308515
 30
0.0
 11
50.842995086987742
 21
26.740674068482349
 31
0.0
  0
LINE
  5
E08F
  8
0
 10
31.842995086987688
 20
26.740674068482321
 30
0.0
 11
31.842995086987688
 21
37.710329183085243
 31
0.0
  0
LINE
  5
E090
  8
0
 10
31.842995086987688
 20
37.710329183085207
 30
0.0
 11
41.342995086987678
 21
43.195156740386629
 31
0.0
  0
LINE
  5
E091
  8
0
 10
41.342995086987742
 20
21.255846511180859
 30
0.0
 11
50.842995086987742
 21
26.740674068482321
 31
0.0
  0
LINE
  5
E092
  8
0
 10
50.842995086987742
 20
37.710329183085179
 30
0.0
 11
41.342995086987621
 21
43.195156740386693
 31
0.0
  0
LINE
  5
E093
  8
0
 10
41.342995086987678
 20
21.255846511180859
 30
0.0
 11
31.842995086987688
 21
26.740674068482349
 31
0.0
  0
TEXT
  5
E263
  8
0
 62
     3
 10
0.0
 20
0.0
 30
0.0
 40
10.0
  1
NDAQ25-M12X30
  7
STANDARD1
  0
ENDSEC
  0
EOF
