  0
SECTION
  2
HEADER
  9
$ACADVER
  1
AC1009
  9
$INSBASE
 10
0.0
 20
0.0
 30
0.0
  9
$EXTMIN
 10
0.0
 20
-2.960436562073669
 30
0.0
  9
$EXTMAX
 10
674.75914204209425
 20
620.0
 30
0.0
  9
$LIMMIN
 10
0.0
 20
0.0
  9
$LIMMAX
 10
750.0
 20
540.0
  9
$ORTHOMODE
 70
     1
  9
$REGENMODE
 70
     1
  9
$FILLMODE
 70
     1
  9
$QTEXTMODE
 70
     0
  9
$MIRRTEXT
 70
     0
  9
$DRAGMODE
 70
     2
  9
$LTSCALE
 40
20.0
  9
$OSMODE
 70
  3071
  9
$ATTMODE
 70
     1
  9
$TEXTSIZE
 40
3.0
  9
$TRACEWID
 40
0.05
  9
$TEXTSTYLE
  7
SIM080
  9
$CLAYER
  8
0
  9
$CELTYPE
  6
BYLAYER
  9
$CECOLOR
 62
   256
  9
$DIMSCALE
 40
2.0
  9
$DIMASZ
 40
3.0
  9
$DIMEXO
 40
2.0
  9
$DIMDLI
 40
0.3799999999999999
  9
$DIMRND
 40
0.0
  9
$DIMDLE
 40
0.0
  9
$DIMEXE
 40
2.0
  9
$DIMTP
 40
0.0
  9
$DIMTM
 40
0.0
  9
$DIMTXT
 40
3.2000000000000002
  9
$DIMCEN
 40
0.09
  9
$DIMTSZ
 40
0.0
  9
$DIMTOL
 70
     0
  9
$DIMLIM
 70
     0
  9
$DIMTIH
 70
     0
  9
$DIMTOH
 70
     0
  9
$DIMSE1
 70
     0
  9
$DIMSE2
 70
     0
  9
$DIMTAD
 70
     1
  9
$DIMZIN
 70
     0
  9
$DIMBLK
  1

  9
$DIMASO
 70
     1
  9
$DIMSHO
 70
     0
  9
$DIMPOST
  1

  9
$DIMAPOST
  1

  9
$DIMALT
 70
     0
  9
$DIMALTD
 70
     2
  9
$DIMALTF
 40
25.399999999999999
  9
$DIMLFAC
 40
1.0
  9
$DIMTOFL
 70
     0
  9
$DIMTVP
 40
1.6000000000000001
  9
$DIMTIX
 70
     1
  9
$DIMSOXD
 70
     0
  9
$DIMSAH
 70
     0
  9
$DIMBLK1
  1

  9
$DIMBLK2
  1

  9
$DIMSTYLE
  2
STANDARD
  9
$DIMCLRD
 70
     0
  9
$DIMCLRE
 70
     0
  9
$DIMCLRT
 70
     0
  9
$DIMTFAC
 40
1.0
  9
$DIMGAP
 40
0.09
  9
$LUNITS
 70
     2
  9
$LUPREC
 70
     4
  9
$SKETCHINC
 40
0.1
  9
$FILLETRAD
 40
3.0
  9
$AUNITS
 70
     0
  9
$AUPREC
 70
     0
  9
$MENU
  1
E:\r13\win\SUPPORT\ACAD
  9
$ELEVATION
 40
0.0
  9
$PELEVATION
 40
0.0
  9
$THICKNESS
 40
0.0
  9
$LIMCHECK
 70
     0
  9
$BLIPMODE
 70
     0
  9
$CHAMFERA
 40
0.0
  9
$CHAMFERB
 40
0.0
  9
$SKPOLY
 70
     0
  9
$TDCREATE
 40
2449840.5988657409
  9
$TDUPDATE
 40
2456597.6876496761
  9
$TDINDWG
 40
0.0484096528
  9
$TDUSRTIMER
 40
0.0484096528
  9
$USRTIMER
 70
     1
  9
$ANGBASE
 50
0.0
  9
$ANGDIR
 70
     0
  9
$PDMODE
 70
     0
  9
$PDSIZE
 40
0.0
  9
$PLINEWID
 40
0.0
  9
$COORDS
 70
     1
  9
$SPLFRAME
 70
     0
  9
$SPLINETYPE
 70
     6
  9
$SPLINESEGS
 70
     8
  9
$ATTDIA
 70
     0
  9
$ATTREQ
 70
     1
  9
$HANDLING
 70
     1
  9
$HANDSEED
  5
D77
  9
$SURFTAB1
 70
     6
  9
$SURFTAB2
 70
     6
  9
$SURFTYPE
 70
     6
  9
$SURFU
 70
     6
  9
$SURFV
 70
     6
  9
$UCSNAME
  2

  9
$UCSORG
 10
0.0
 20
0.0
 30
0.0
  9
$UCSXDIR
 10
1.0
 20
0.0
 30
0.0
  9
$UCSYDIR
 10
0.0
 20
1.0
 30
0.0
  9
$PUCSNAME
  2

  9
$PUCSORG
 10
0.0
 20
0.0
 30
0.0
  9
$PUCSXDIR
 10
1.0
 20
0.0
 30
0.0
  9
$PUCSYDIR
 10
0.0
 20
1.0
 30
0.0
  9
$USERI1
 70
     0
  9
$USERI2
 70
     1
  9
$USERI3
 70
     1
  9
$USERI4
 70
     0
  9
$USERI5
 70
     0
  9
$USERR1
 40
0.0
  9
$USERR2
 40
0.0
  9
$USERR3
 40
0.0
  9
$USERR4
 40
0.0
  9
$USERR5
 40
0.0
  9
$WORLDVIEW
 70
     1
  9
$SHADEDGE
 70
     3
  9
$SHADEDIF
 70
    70
  9
$TILEMODE
 70
     1
  9
$MAXACTVP
 70
    16
  9
$PLIMCHECK
 70
     0
  9
$PEXTMIN
 10
1.0000000000000000E+020
 20
1.0000000000000000E+020
 30
1.0000000000000000E+020
  9
$PEXTMAX
 10
-1.0000000000000000E+020
 20
-1.0000000000000000E+020
 30
-1.0000000000000000E+020
  9
$PLIMMIN
 10
0.0
 20
0.0
  9
$PLIMMAX
 10
12.0
 20
9.0
  9
$UNITMODE
 70
     0
  9
$VISRETAIN
 70
     0
  9
$PLINEGEN
 70
     0
  9
$PSLTSCALE
 70
     0
  0
ENDSEC
  0
SECTION
  2
TABLES
  0
TABLE
  2
VPORT
 70
     1
  0
VPORT
  2
*ACTIVE
 70
     0
 10
0.0
 20
0.0
 11
1.0
 21
1.0
 12
374.98855678130468
 22
309.85869321694003
 13
0.0
 23
0.0
 14
20.0
 24
20.0
 15
20.0
 25
20.0
 16
0.0
 26
0.0
 36
1.0
 17
0.0
 27
0.0
 37
0.0
 40
632.8764334539012
 41
2.304913294797688
 42
50.0
 43
0.0
 44
0.0
 50
0.0
 51
0.0
 71
     0
 72
   500
 73
     1
 74
     0
 75
     0
 76
     0
 77
     0
 78
     2
  0
ENDTAB
  0
TABLE
  2
LTYPE
 70
     4
  0
LTYPE
  2
CONTINUOUS
 70
     0
  3
Solid Line
 72
    65
 73
     0
 40
0.0
  0
LTYPE
  2
CENTER
 70
     0
  3
____ _ ____ _ ____ _ ____ _ ____ _ ____ _ ____
 72
    65
 73
     4
 40
2.0
 49
1.25
 49
-0.25
 49
0.25
 49
-0.25
  0
LTYPE
  2
HIDDEN
 70
     0
  3
_ _ _ _ _ _ _ _ _ _ _ _ _ _ _ _ _ _ _ _ _ _ _
 72
    65
 73
     2
 40
0.375
 49
0.25
 49
-0.125
  0
LTYPE
  2
PHANTOM2
 70
     0
  3
___ _ _ ___ _ _ ___ _ _ ___ _ _
 72
    65
 73
     6
 40
1.25
 49
0.625
 49
-0.125
 49
0.125
 49
-0.125
 49
0.125
 49
-0.125
  0
ENDTAB
  0
TABLE
  2
LAYER
 70
     4
  0
LAYER
  2
0
 70
     0
 62
     7
  6
CONTINUOUS
  0
LAYER
  2
1
 70
     0
 62
     1
  6
CENTER
  0
LAYER
  2
2
 70
     0
 62
     2
  6
HIDDEN
  0
LAYER
  2
DEFPOINTS
 70
     0
 62
     7
  6
CONTINUOUS
  0
ENDTAB
  0
TABLE
  2
STYLE
 70
     4
  0
STYLE
  2
STANDARD
 70
     0
 40
0.0
 41
1.0
 50
0.0
 71
     0
 42
0.2
  3
romans.shx
  4

  0
STYLE
  2
SIM080
 70
     0
 40
0.0
 41
1.0
 50
0.0
 71
     0
 42
3.0
  3
romans.shx
  4

  0
STYLE
  2
06000
 70
     0
 40
0.0
 41
0.6
 50
0.0
 71
     0
 42
3.0
  3
simplex.shx
  4
bigfont.shx
  0
STYLE
  2
STANDARD1
 70
     0
 40
0.0
 41
1.0
 50
0.0
 71
     0
 42
3.0
  3
txt
  4

  0
ENDTAB
  0
TABLE
  2
VIEW
 70
     1
  0
VIEW
  2
ALL
 70
     0
 40
540.0
 10
441.98319327731087
 20
270.0
 41
0.0
 11
0.0
 21
0.0
 31
1.0
 12
0.0
 22
0.0
 32
0.0
 42
0.0
 43
0.0
 44
0.0
 50
0.0
 71
     0
  0
ENDTAB
  0
TABLE
  2
UCS
 70
     0
  0
ENDTAB
  0
TABLE
  2
APPID
 70
     4
  0
APPID
  2
ACAD
 70
     0
  0
APPID
  2
ACAD_EXEMPT_FROM_CAD_STANDARDS
 70
     0
  0
APPID
  2
ACAD_MLEADERVER
 70
     0
  0
APPID
  2
ACAD_NAV_VCDISPLAY
 70
     0
  0
ENDTAB
  0
TABLE
  2
DIMSTYLE
 70
     1
  0
DIMSTYLE
  2
STANDARD
 70
     0
  3

  4

  5

  6

  7

 40
1.0
 41
0.18
 42
0.0625
 43
0.38
 44
0.18
 45
0.0
 46
0.0
 47
0.0
 48
0.0
140
0.18
141
0.09
142
0.0
143
25.399999999999999
144
1.0
145
0.0
146
1.0
147
0.09
 71
     0
 72
     0
 73
     1
 74
     1
 75
     0
 76
     0
 77
     0
 78
     0
170
     0
171
     2
172
     0
173
     0
174
     0
175
     0
176
     0
177
     0
178
     0
  0
ENDTAB
  0
ENDSEC
  0
SECTION
  2
BLOCKS
  0
BLOCK
  8
0
  2
$MODEL_SPACE
 70
     0
 10
0.0
 20
0.0
 30
0.0
  3
$MODEL_SPACE
  1

  0
ENDBLK
  5
126
  8
0
  0
BLOCK
 67
     1
  8
0
  2
$PAPER_SPACE
 70
     0
 10
0.0
 20
0.0
 30
0.0
  3
$PAPER_SPACE
  1

  0
ENDBLK
  5
124
 67
     1
  8
0
  0
ENDSEC
  0
SECTION
  2
ENTITIES
  0
CIRCLE
  5
998
  8
0
 10
165.57415284956679
 20
340.0
 30
0.0
 40
80.0
  0
LINE
  5
999
  8
1
 10
75.574152849566872
 20
340.0
 30
0.0
 11
255.5741528495669
 21
340.0
 31
0.0
  0
LINE
  5
99A
  8
1
 10
165.57415284956679
 20
430.0
 30
0.0
 11
165.57415284956679
 21
250.0
 31
0.0
  0
CIRCLE
  5
99B
  8
0
 10
165.57415284956679
 20
340.0
 30
0.0
 40
58.0
  0
CIRCLE
  5
99C
  8
0
 10
165.57415284956679
 20
340.0
 30
0.0
 40
59.5
  0
CIRCLE
  5
99D
  8
0
 10
165.57415284956679
 20
340.0
 30
0.0
 40
18.5
  0
CIRCLE
  5
99E
  8
0
 10
165.57415284956679
 20
340.0
 30
0.0
 40
17.5
  0
LINE
  5
99F
  8
0
 10
402.04444465364878
 20
521.46174931890039
 30
0.0
 11
384.69267695687728
 21
521.00737729090611
 31
0.0
  0
ARC
  5
9A0
  8
0
 10
368.50517923118701
 20
462.0
 30
0.0
 40
2.0
 50
270.0
 51
0.0
  0
ARC
  5
9A1
  8
0
 10
354.50517923118701
 20
462.0
 30
0.0
 40
2.0
 50
180.0
 51
270.0
  0
LINE
  5
9A3
  8
0
 10
354.50517923118701
 20
460.0
 30
0.0
 11
368.50517923118701
 21
460.0
 31
0.0
  0
LINE
  5
9A4
  8
0
 10
352.50517923118701
 20
618.0
 30
0.0
 11
352.50517923118701
 21
462.0
 31
0.0
  0
LINE
  5
9A5
  8
0
 10
403.50517923118701
 20
557.03876469363604
 30
0.0
 11
403.50517923118701
 21
522.96123530636385
 31
0.0
  0
LINE
  5
9A6
  8
1
 10
342.5051792311877
 20
540.0
 30
0.0
 11
413.50517923118628
 21
540.0
 31
0.0
  0
LINE
  5
9A8
  8
2
 10
390.50517923118701
 20
542.99999999999761
 30
0.0
 11
390.50517923118701
 21
537.00000000000239
 31
0.0
  0
LINE
  5
9A9
  8
2
 10
403.50517923118701
 20
537.00000000000239
 30
0.0
 11
390.50517923118701
 21
537.00000000000239
 31
0.0
  0
LINE
  5
9AA
  8
2
 10
403.50517923118701
 20
542.99999999999761
 30
0.0
 11
390.50517923118701
 21
542.99999999999761
 31
0.0
  0
LINE
  5
9AB
  8
2
 10
390.50517923118701
 20
537.00000000000239
 30
0.0
 11
388.77312842361948
 21
540.00000000000011
 31
0.0
  0
LINE
  5
9AC
  8
2
 10
390.50517923118701
 20
542.99999999999761
 30
0.0
 11
388.77312842361948
 21
540.00000000000011
 31
0.0
  0
LINE
  5
9AE
  8
2
 10
371.50517923118701
 20
557.50000000001864
 30
0.0
 11
371.50517923118701
 21
522.49999999998136
 31
0.0
  0
LINE
  5
9AF
  8
2
 10
354.00517923118701
 20
482.00000000000011
 30
0.0
 11
355.50517923118701
 21
482.00000000000011
 31
0.0
  0
LINE
  5
9B0
  8
2
 10
352.50517923118701
 20
480.50000000000011
 30
0.0
 11
354.00517923118701
 21
482.00000000000011
 31
0.0
  0
LINE
  5
9B1
  8
2
 10
355.50517923118701
 20
598.0
 30
0.0
 11
355.50517923118701
 21
482.00000000000011
 31
0.0
  0
LINE
  5
9B2
  8
2
 10
354.00517923118679
 20
598.0
 30
0.0
 11
354.00517923118679
 21
482.00000000000011
 31
0.0
  0
LINE
  5
9B4
  8
2
 10
372.91449401883511
 20
521.49999999998147
 30
0.0
 11
372.5051792311873
 21
521.49999999998136
 31
0.0
  0
LINE
  5
9B5
  8
0
 10
402.04444465364878
 20
558.5382506810995
 30
0.0
 11
384.69267695687728
 21
558.99262270909389
 31
0.0
  0
LINE
  5
9B6
  8
0
 10
370.50517923118701
 20
462.0
 30
0.0
 11
370.50517923118701
 21
618.0
 31
0.0
  0
LINE
  5
9D2
  8
2
 10
355.50517923118701
 20
482.00000000000011
 30
0.0
 11
373.81566076057698
 21
520.06652739002948
 31
0.0
  0
LINE
  5
9D3
  8
0
 10
379.55191285200942
 20
517.82599895343435
 30
0.0
 11
370.50517923118701
 21
500.80952380951481
 31
0.0
  0
ARC
  5
9D4
  8
2
 10
369.6347487280712
 20
480.00000000000011
 30
0.0
 40
9.0
 50
152.0028526387519
 51
264.10601354228788
  0
ARC
  5
9D6
  8
2
 10
368.50517923118701
 20
469.05815039622252
 30
0.0
 40
2.0
 50
0.0
 51
84.106013542287926
  0
ARC
  5
9D7
  8
2
 10
372.91449401883511
 20
520.49999999998136
 30
0.0
 40
1.0
 50
334.3118565643361
 51
90.0
  0
LINE
  5
9DA
  8
0
 10
354.50517923118701
 20
620.0
 30
0.0
 11
368.50517923118701
 21
620.0
 31
0.0
  0
ARC
  5
9DB
  8
0
 10
354.50517923118701
 20
618.0
 30
0.0
 40
2.0
 50
90.0
 51
180.0
  0
ARC
  5
9DC
  8
0
 10
368.50517923118701
 20
618.0
 30
0.0
 40
2.0
 50
0.0
 51
90.0
  0
LINE
  5
9DD
  8
2
 10
352.50517923118701
 20
599.5
 30
0.0
 11
354.00517923118701
 21
598.0
 31
0.0
  0
LINE
  5
9DE
  8
2
 10
354.00517923118701
 20
598.0
 30
0.0
 11
355.50517923118701
 21
598.0
 31
0.0
  0
LINE
  5
9DF
  8
0
 10
379.55191285200942
 20
562.17400104656565
 30
0.0
 11
370.50517923118701
 21
579.19047619048536
 31
0.0
  0
LINE
  5
9E0
  8
2
 10
355.50517923118701
 20
598.0
 30
0.0
 11
373.81566076057698
 21
559.93347260997052
 31
0.0
  0
ARC
  5
9E1
  8
2
 10
372.91449401883511
 20
559.50000000001864
 30
0.0
 40
1.0
 50
270.0
 51
25.6881434356639
  0
LINE
  5
9E2
  8
2
 10
372.91449401883511
 20
558.50000000001864
 30
0.0
 11
372.50517923118701
 21
558.50000000001864
 31
0.0
  0
ARC
  5
A4C
  8
0
 10
584.75914204209425
 20
409.0
 30
0.0
 40
9.0
 50
199.3611649094006
 51
340.6388350905994
  0
ARC
  5
A5B
  8
0
 10
584.75914204209425
 20
340.0
 30
0.0
 40
69.0
 50
99.877132916948156
 51
80.122867083051858
  0
CIRCLE
  5
A5C
  8
0
 10
584.75914204209425
 20
340.0
 30
0.0
 40
80.0
  0
LINE
  5
A5D
  8
1
 10
674.75914204209425
 20
340.0
 30
0.0
 11
494.7591420420942
 21
340.0
 31
0.0
  0
LINE
  5
A5E
  8
1
 10
584.75914204209425
 20
430.0
 30
0.0
 11
584.75914204209425
 21
250.0
 31
0.0
  0
CIRCLE
  5
A5F
  8
0
 10
584.75914204209425
 20
340.0
 30
0.0
 40
18.5
  0
ARC
  5
AB6
  8
2
 10
372.50517923118701
 20
557.50000000001864
 30
0.0
 40
1.0
 50
90.0
 51
180.0
  0
ARC
  5
AB7
  8
2
 10
372.50517923118701
 20
522.49999999998136
 30
0.0
 40
1.0
 50
180.0
 51
270.00000000001302
  0
ARC
  5
AB8
  8
0
 10
384.84973864672457
 20
515.00943334105273
 30
0.0
 40
6.0
 50
91.500000000002728
 51
152.0028526387519
  0
ARC
  5
AB9
  8
0
 10
384.84973864672457
 20
564.99056665894716
 30
0.0
 40
6.0
 50
207.9971473612481
 51
268.49999999999721
  0
ARC
  5
ABA
  8
0
 10
402.0051792311869
 20
557.03876469363604
 30
0.0
 40
1.5
 50
0.0
 51
88.499999999997272
  0
ARC
  5
ABB
  8
0
 10
402.0051792311869
 20
522.96123530636385
 30
0.0
 40
1.5
 50
271.50000000000267
 51
0.0
  0
TEXT
  5
AC0
  8
0
 10
592.44677020143547
 20
305.78132128086042
 30
0.0
 40
8.0
  1
‚`
 50
189.0
 41
0.6
  7
06000
 72
     1
 11
590.86008617866332
 21
301.48015471678968
 31
0.0
 73
     2
  0
TEXT
  5
AC1
  8
0
 10
575.92174479286496
 20
306.07026658136971
 30
0.0
 40
8.0
  1
‚O
 50
161.99999999999989
 41
0.6
  7
06000
 72
     1
 11
572.70747926147124
 21
302.90879586448898
 31
0.0
 73
     2
  0
TEXT
  5
AC2
  8
0
 10
581.4963576486191
 20
305.08049487748008
 30
0.0
 40
8.0
  1
‚U
 50
171.0
 41
0.6
  7
06000
 72
     1
 11
578.65819790552507
 21
301.48015471678968
 31
0.0
 73
     2
  0
TEXT
  5
AC3
  8
0
 10
586.83914204209429
 20
305.0
 30
0.0
 40
8.0
  1
‚P
 50
180.0
 41
0.6
  7
06000
 72
     1
 11
584.75914204209425
 21
301.0
 31
0.0
 73
     2
  0
TEXT
  5
AC4
  8
0
 10
597.70510344171839
 20
307.40521999706959
 30
0.0
 40
8.0
  1
‚c
 50
198.0000000000002
 41
0.6
  7
06000
 72
     1
 11
596.81080482271705
 21
302.90879586448909
 31
0.0
 73
     2
  0
CIRCLE
  5
AED
  8
0
 10
584.75914204209425
 20
340.0
 30
0.0
 40
3.0
  0
ARC
  5
B55
  8
0
 10
573.43777108033851
 20
405.0217391304347
 30
0.0
 40
3.0
 50
19.3611649094006
 51
99.877132916948156
  0
ARC
  5
B56
  8
0
 10
596.08051300385
 20
405.0217391304347
 30
0.0
 40
3.0
 50
80.122867083051858
 51
160.6388350905994
  0
LINE
  5
BD7
  8
2
 10
372.50517923118701
 20
558.50000000001864
 30
0.0
 11
372.50517923118701
 21
521.49999999998136
 31
0.0
  0
LINE
  5
BD8
  8
2
 10
373.91449401883511
 20
559.50000000001864
 30
0.0
 11
373.91449401883511
 21
520.49999999998136
 31
0.0
  0
LINE
  5
BD9
  8
2
 10
370.50517923118701
 20
500.80952380951481
 30
0.0
 11
361.68801003599839
 21
484.22484841857238
 31
0.0
  0
LINE
  5
BDA
  8
2
 10
370.50517923118701
 20
579.19047619048536
 30
0.0
 11
361.6880100359985
 21
595.77515158142762
 31
0.0
  0
LINE
  5
BDB
  8
0
 10
402.04444465364878
 20
321.4617493189005
 30
0.0
 11
384.69267695687728
 21
321.00737729090611
 31
0.0
  0
ARC
  5
BDC
  8
0
 10
368.50517923118701
 20
262.0
 30
0.0
 40
2.0
 50
270.0
 51
0.0
  0
ARC
  5
BDD
  8
0
 10
354.50517923118701
 20
262.0
 30
0.0
 40
2.0
 50
180.0
 51
270.0
  0
LINE
  5
BDE
  8
0
 10
354.50517923118701
 20
260.0
 30
0.0
 11
368.50517923118701
 21
260.0
 31
0.0
  0
LINE
  5
BDF
  8
0
 10
352.50517923118701
 20
418.0
 30
0.0
 11
352.50517923118701
 21
262.0
 31
0.0
  0
LINE
  5
BE0
  8
0
 10
403.50517923118701
 20
357.0387646936361
 30
0.0
 11
403.50517923118701
 21
322.9612353063639
 31
0.0
  0
LINE
  5
BE1
  8
1
 10
342.5051792311877
 20
340.0
 30
0.0
 11
413.50517923118628
 21
340.0
 31
0.0
  0
LINE
  5
BE2
  8
2
 10
368.50517923118701
 20
400.0
 30
0.0
 11
364.43444501284932
 21
400.0
 31
0.0
  0
LINE
  5
BE3
  8
2
 10
390.50517923118701
 20
342.99999999999761
 30
0.0
 11
390.50517923118701
 21
337.0000000000025
 31
0.0
  0
LINE
  5
BE4
  8
2
 10
403.50517923118701
 20
337.0000000000025
 30
0.0
 11
390.50517923118701
 21
337.0000000000025
 31
0.0
  0
LINE
  5
BE5
  8
2
 10
403.50517923118701
 20
342.99999999999761
 30
0.0
 11
390.50517923118701
 21
342.99999999999761
 31
0.0
  0
LINE
  5
BE6
  8
2
 10
390.50517923118701
 20
337.0000000000025
 30
0.0
 11
388.77312842361948
 21
340.00000000000011
 31
0.0
  0
LINE
  5
BE7
  8
2
 10
390.50517923118701
 20
342.99999999999761
 30
0.0
 11
388.77312842361948
 21
340.00000000000011
 31
0.0
  0
LINE
  5
BE8
  8
2
 10
371.50517923118701
 20
357.5000000000187
 30
0.0
 11
371.50517923118701
 21
322.49999999998141
 31
0.0
  0
LINE
  5
BE9
  8
2
 10
354.00517923118701
 20
282.00000000000011
 30
0.0
 11
355.50517923118701
 21
282.00000000000011
 31
0.0
  0
LINE
  5
BEA
  8
2
 10
352.50517923118701
 20
280.50000000000011
 30
0.0
 11
354.00517923118701
 21
282.00000000000011
 31
0.0
  0
LINE
  5
BEB
  8
2
 10
355.50517923118701
 20
398.0
 30
0.0
 11
355.50517923118701
 21
282.00000000000011
 31
0.0
  0
LINE
  5
BEC
  8
2
 10
354.00517923118679
 20
398.0
 30
0.0
 11
354.00517923118679
 21
282.00000000000011
 31
0.0
  0
LINE
  5
BED
  8
2
 10
372.91449401883511
 20
321.49999999998153
 30
0.0
 11
372.5051792311873
 21
321.49999999998141
 31
0.0
  0
LINE
  5
BEE
  8
0
 10
402.04444465364878
 20
358.5382506810995
 30
0.0
 11
384.69267695687728
 21
358.99262270909389
 31
0.0
  0
LINE
  5
BEF
  8
0
 10
370.50517923118701
 20
262.0
 30
0.0
 11
370.50517923118701
 21
418.0
 31
0.0
  0
ARC
  5
BF0
  8
2
 10
368.50517923118701
 20
402.0
 30
0.0
 40
2.0
 50
270.0
 51
0.0
  0
LINE
  5
BF1
  8
2
 10
355.50517923118701
 20
282.00000000000011
 30
0.0
 11
373.81566076057698
 21
320.06652739002948
 31
0.0
  0
LINE
  5
BF2
  8
0
 10
379.55191285200942
 20
317.82599895343429
 30
0.0
 11
370.50517923118701
 21
300.80952380951481
 31
0.0
  0
ARC
  5
BF3
  8
2
 10
369.6347487280712
 20
280.00000000000011
 30
0.0
 40
9.0
 50
152.0028526387519
 51
264.10601354228788
  0
ARC
  5
BF4
  8
2
 10
368.50517923118701
 20
269.05815039622257
 30
0.0
 40
2.0
 50
0.0
 51
84.106013542287926
  0
ARC
  5
BF5
  8
2
 10
372.91449401883511
 20
320.49999999998153
 30
0.0
 40
1.0
 50
334.31185656433468
 51
90.0
  0
LINE
  5
BF6
  8
0
 10
354.50517923118701
 20
420.0
 30
0.0
 11
368.50517923118701
 21
420.0
 31
0.0
  0
ARC
  5
BF7
  8
0
 10
354.50517923118701
 20
418.0
 30
0.0
 40
2.0
 50
90.0
 51
180.0
  0
ARC
  5
BF8
  8
0
 10
368.50517923118701
 20
418.0
 30
0.0
 40
2.0
 50
0.0
 51
90.0
  0
LINE
  5
BF9
  8
2
 10
352.50517923118701
 20
399.5
 30
0.0
 11
354.00517923118701
 21
398.0
 31
0.0
  0
LINE
  5
BFA
  8
2
 10
354.00517923118701
 20
398.0
 30
0.0
 11
355.50517923118701
 21
398.0
 31
0.0
  0
LINE
  5
BFB
  8
0
 10
379.55191285200942
 20
362.17400104656571
 30
0.0
 11
370.50517923118701
 21
379.19047619048541
 31
0.0
  0
LINE
  5
BFC
  8
2
 10
355.50517923118701
 20
398.0
 30
0.0
 11
373.81566076057698
 21
359.93347260997052
 31
0.0
  0
ARC
  5
BFD
  8
2
 10
372.91449401883511
 20
359.5000000000187
 30
0.0
 40
1.0
 50
270.0
 51
25.68814343566536
  0
LINE
  5
BFE
  8
2
 10
372.91449401883511
 20
358.50000000001859
 30
0.0
 11
372.50517923118701
 21
358.50000000001859
 31
0.0
  0
ARC
  5
BFF
  8
2
 10
364.43444501284949
 20
397.0
 30
0.0
 40
3.0
 50
90.0
 51
207.9971473612481
  0
ARC
  5
C00
  8
2
 10
372.50517923118701
 20
357.5000000000187
 30
0.0
 40
1.0
 50
90.0
 51
180.0
  0
ARC
  5
C01
  8
2
 10
372.50517923118701
 20
322.49999999998141
 30
0.0
 40
1.0
 50
180.0
 51
270.00000000001302
  0
ARC
  5
C02
  8
0
 10
384.84973864672457
 20
315.00943334105273
 30
0.0
 40
6.0
 50
91.500000000002728
 51
152.0028526387519
  0
ARC
  5
C03
  8
0
 10
384.84973864672457
 20
364.99056665894727
 30
0.0
 40
6.0
 50
207.9971473612481
 51
268.49999999999721
  0
ARC
  5
C04
  8
0
 10
402.0051792311869
 20
357.0387646936361
 30
0.0
 40
1.5
 50
0.0
 51
88.499999999997272
  0
ARC
  5
C05
  8
0
 10
402.0051792311869
 20
322.9612353063639
 30
0.0
 40
1.5
 50
271.50000000000267
 51
0.0
  0
LINE
  5
C06
  8
2
 10
372.50517923118701
 20
358.50000000001859
 30
0.0
 11
372.50517923118701
 21
321.49999999998141
 31
0.0
  0
LINE
  5
C07
  8
2
 10
373.91449401883511
 20
359.5000000000187
 30
0.0
 11
373.91449401883511
 21
320.49999999998153
 31
0.0
  0
LINE
  5
C08
  8
2
 10
370.50517923118701
 20
300.80952380951493
 30
0.0
 11
361.68801003599839
 21
284.22484841857249
 31
0.0
  0
LINE
  5
C09
  8
2
 10
370.50517923118701
 20
379.19047619048541
 30
0.0
 11
361.78553211549189
 21
395.59171719380902
 31
0.0
  0
ARC
  5
C0A
  8
2
 10
369.6347487280712
 20
599.99999999999989
 30
0.0
 40
9.0
 50
95.893986457712046
 51
207.99714736124511
  0
ARC
  5
C0B
  8
2
 10
368.50517923118701
 20
610.94184960377743
 30
0.0
 40
2.0
 50
275.89398645771212
 51
0.0
  0
LINE
  5
C0C
  8
0
 10
402.04444465364878
 20
121.4617493189005
 30
0.0
 11
384.69267695687728
 21
121.00737729090611
 31
0.0
  0
ARC
  5
C0D
  8
0
 10
368.50517923118701
 20
62.0
 30
0.0
 40
2.0
 50
270.0
 51
0.0
  0
ARC
  5
C0E
  8
0
 10
354.50517923118701
 20
62.0
 30
0.0
 40
2.0
 50
180.0
 51
270.0
  0
LINE
  5
C0F
  8
0
 10
354.50517923118701
 20
60.0
 30
0.0
 11
368.50517923118701
 21
60.0
 31
0.0
  0
LINE
  5
C10
  8
0
 10
352.50517923118701
 20
218.0
 30
0.0
 11
352.50517923118701
 21
62.0
 31
0.0
  0
LINE
  5
C11
  8
0
 10
403.50517923118701
 20
157.03876469363601
 30
0.0
 11
403.50517923118701
 21
122.9612353063638
 31
0.0
  0
LINE
  5
C12
  8
1
 10
342.5051792311877
 20
140.0
 30
0.0
 11
413.50517923118628
 21
140.0
 31
0.0
  0
LINE
  5
C13
  8
2
 10
390.50517923118701
 20
142.99999999999761
 30
0.0
 11
390.50517923118701
 21
137.0000000000025
 31
0.0
  0
LINE
  5
C14
  8
2
 10
403.50517923118701
 20
137.0000000000025
 30
0.0
 11
390.50517923118701
 21
137.0000000000025
 31
0.0
  0
LINE
  5
C15
  8
2
 10
403.50517923118701
 20
142.99999999999761
 30
0.0
 11
390.50517923118701
 21
142.99999999999761
 31
0.0
  0
LINE
  5
C16
  8
2
 10
390.50517923118701
 20
137.0000000000025
 30
0.0
 11
388.77312842361948
 21
140.00000000000011
 31
0.0
  0
LINE
  5
C17
  8
2
 10
390.50517923118701
 20
142.99999999999761
 30
0.0
 11
388.77312842361948
 21
140.00000000000011
 31
0.0
  0
LINE
  5
C18
  8
2
 10
371.50517923118701
 20
157.50000000001859
 30
0.0
 11
371.50517923118701
 21
122.4999999999813
 31
0.0
  0
LINE
  5
C19
  8
2
 10
354.00517923118701
 20
82.000000000000114
 30
0.0
 11
355.50517923118701
 21
82.000000000000114
 31
0.0
  0
LINE
  5
C1A
  8
2
 10
352.50517923118701
 20
80.500000000000114
 30
0.0
 11
354.00517923118701
 21
82.000000000000114
 31
0.0
  0
LINE
  5
C1B
  8
2
 10
355.50517923118701
 20
198.0
 30
0.0
 11
355.50517923118701
 21
82.000000000000114
 31
0.0
  0
LINE
  5
C1C
  8
2
 10
354.00517923118679
 20
198.0
 30
0.0
 11
354.00517923118679
 21
82.000000000000114
 31
0.0
  0
LINE
  5
C1D
  8
2
 10
372.91449401883511
 20
121.4999999999814
 30
0.0
 11
372.5051792311873
 21
121.4999999999813
 31
0.0
  0
LINE
  5
C1E
  8
0
 10
402.04444465364878
 20
158.5382506810995
 30
0.0
 11
384.69267695687728
 21
158.99262270909389
 31
0.0
  0
LINE
  5
C1F
  8
0
 10
370.50517923118701
 20
62.0
 30
0.0
 11
370.50517923118701
 21
218.0
 31
0.0
  0
LINE
  5
C20
  8
2
 10
355.50517923118701
 20
82.000000000000114
 30
0.0
 11
373.81566076057698
 21
120.06652739002941
 31
0.0
  0
LINE
  5
C21
  8
0
 10
379.55191285200942
 20
117.82599895343429
 30
0.0
 11
370.50517923118701
 21
100.8095238095147
 31
0.0
  0
ARC
  5
C22
  8
2
 10
369.6347487280712
 20
80.000000000000114
 30
0.0
 40
9.0
 50
152.00285263875259
 51
264.106013542288
  0
ARC
  5
C23
  8
2
 10
368.50517923118701
 20
69.058150396222572
 30
0.0
 40
2.0
 50
0.0
 51
84.106013542287997
  0
ARC
  5
C24
  8
2
 10
372.91449401883511
 20
120.4999999999814
 30
0.0
 40
1.0
 50
334.31185656433519
 51
90.0
  0
LINE
  5
C25
  8
0
 10
354.50517923118701
 20
220.0
 30
0.0
 11
368.50517923118701
 21
220.0
 31
0.0
  0
ARC
  5
C26
  8
0
 10
354.50517923118701
 20
218.0
 30
0.0
 40
2.0
 50
90.0
 51
180.0
  0
ARC
  5
C27
  8
0
 10
368.50517923118701
 20
218.0
 30
0.0
 40
2.0
 50
0.0
 51
90.0
  0
LINE
  5
C28
  8
2
 10
352.50517923118701
 20
199.5
 30
0.0
 11
354.00517923118701
 21
198.0
 31
0.0
  0
LINE
  5
C29
  8
2
 10
354.00517923118701
 20
198.0
 30
0.0
 11
355.50517923118701
 21
198.0
 31
0.0
  0
LINE
  5
C2A
  8
0
 10
379.55191285200942
 20
162.17400104656559
 30
0.0
 11
370.50517923118701
 21
179.1904761904853
 31
0.0
  0
LINE
  5
C2B
  8
2
 10
355.50517923118701
 20
198.0
 30
0.0
 11
373.81566076057698
 21
159.93347260997049
 31
0.0
  0
ARC
  5
C2C
  8
2
 10
372.91449401883511
 20
159.50000000001859
 30
0.0
 40
1.0
 50
270.0
 51
25.688143435664799
  0
LINE
  5
C2D
  8
2
 10
372.91449401883511
 20
158.50000000001859
 30
0.0
 11
372.50517923118701
 21
158.50000000001859
 31
0.0
  0
ARC
  5
C2E
  8
2
 10
372.50517923118701
 20
157.50000000001859
 30
0.0
 40
1.0
 50
90.0
 51
180.0
  0
ARC
  5
C2F
  8
2
 10
372.50517923118701
 20
122.4999999999813
 30
0.0
 40
1.0
 50
180.0
 51
270.00000000001302
  0
ARC
  5
C30
  8
0
 10
384.84973864672457
 20
115.0094333410527
 30
0.0
 40
6.0
 50
91.500000000002757
 51
152.00285263875259
  0
ARC
  5
C31
  8
0
 10
384.84973864672457
 20
164.99056665894719
 30
0.0
 40
6.0
 50
207.99714736124741
 51
268.49999999999721
  0
ARC
  5
C32
  8
0
 10
402.0051792311869
 20
157.03876469363601
 30
0.0
 40
1.5
 50
0.0
 51
88.499999999997257
  0
ARC
  5
C33
  8
0
 10
402.0051792311869
 20
122.9612353063638
 30
0.0
 40
1.5
 50
271.50000000000267
 51
0.0
  0
LINE
  5
C34
  8
2
 10
372.50517923118701
 20
158.50000000001859
 30
0.0
 11
372.50517923118701
 21
121.4999999999813
 31
0.0
  0
LINE
  5
C35
  8
2
 10
373.91449401883511
 20
159.50000000001859
 30
0.0
 11
373.91449401883511
 21
120.4999999999814
 31
0.0
  0
LINE
  5
C36
  8
2
 10
370.50517923118701
 20
100.8095238095148
 30
0.0
 11
361.68801003599839
 21
84.224848418572492
 31
0.0
  0
LINE
  5
C37
  8
2
 10
370.50517923118701
 20
179.1904761904853
 30
0.0
 11
361.6880100359985
 21
195.77515158142759
 31
0.0
  0
ARC
  5
C38
  8
2
 10
369.6347487280712
 20
199.99999999999989
 30
0.0
 40
9.0
 50
95.893986457711989
 51
207.9971473612438
  0
ARC
  5
C39
  8
2
 10
368.50517923118701
 20
210.9418496037774
 30
0.0
 40
2.0
 50
275.893986457712
 51
0.0
  0
TEXT
  5
D13
  8
0
 62
     3
 10
0.0
 20
0.0
 30
0.0
 40
10.0
  1
NDA160
  7
STANDARD1
  0
ENDSEC
  0
EOF
