  0
SECTION
  2
HEADER
  9
$ACADVER
  1
AC1009
  9
$INSBASE
 10
0.0
 20
0.0
 30
0.0
  9
$EXTMIN
 10
0.0
 20
-2.960436562073669
 30
0.0
  9
$EXTMAX
 10
661.51414339110477
 20
480.0
 30
0.0
  9
$LIMMIN
 10
0.0
 20
0.0
  9
$LIMMAX
 10
750.0
 20
540.0
  9
$ORTHOMODE
 70
     1
  9
$REGENMODE
 70
     1
  9
$FILLMODE
 70
     1
  9
$QTEXTMODE
 70
     0
  9
$MIRRTEXT
 70
     0
  9
$DRAGMODE
 70
     2
  9
$LTSCALE
 40
20.0
  9
$OSMODE
 70
  3071
  9
$ATTMODE
 70
     1
  9
$TEXTSIZE
 40
3.0
  9
$TRACEWID
 40
0.05
  9
$TEXTSTYLE
  7
SIM080
  9
$CLAYER
  8
0
  9
$CELTYPE
  6
BYLAYER
  9
$CECOLOR
 62
   256
  9
$DIMSCALE
 40
2.0
  9
$DIMASZ
 40
3.0
  9
$DIMEXO
 40
2.0
  9
$DIMDLI
 40
0.3799999999999999
  9
$DIMRND
 40
0.0
  9
$DIMDLE
 40
0.0
  9
$DIMEXE
 40
2.0
  9
$DIMTP
 40
0.0
  9
$DIMTM
 40
0.0
  9
$DIMTXT
 40
3.2000000000000002
  9
$DIMCEN
 40
0.09
  9
$DIMTSZ
 40
0.0
  9
$DIMTOL
 70
     0
  9
$DIMLIM
 70
     0
  9
$DIMTIH
 70
     0
  9
$DIMTOH
 70
     0
  9
$DIMSE1
 70
     0
  9
$DIMSE2
 70
     0
  9
$DIMTAD
 70
     1
  9
$DIMZIN
 70
     0
  9
$DIMBLK
  1

  9
$DIMASO
 70
     1
  9
$DIMSHO
 70
     0
  9
$DIMPOST
  1

  9
$DIMAPOST
  1

  9
$DIMALT
 70
     0
  9
$DIMALTD
 70
     2
  9
$DIMALTF
 40
25.399999999999999
  9
$DIMLFAC
 40
1.0
  9
$DIMTOFL
 70
     0
  9
$DIMTVP
 40
1.6000000000000001
  9
$DIMTIX
 70
     1
  9
$DIMSOXD
 70
     0
  9
$DIMSAH
 70
     0
  9
$DIMBLK1
  1

  9
$DIMBLK2
  1

  9
$DIMSTYLE
  2
STANDARD
  9
$DIMCLRD
 70
     0
  9
$DIMCLRE
 70
     0
  9
$DIMCLRT
 70
     0
  9
$DIMTFAC
 40
1.0
  9
$DIMGAP
 40
0.09
  9
$LUNITS
 70
     2
  9
$LUPREC
 70
     4
  9
$SKETCHINC
 40
0.1
  9
$FILLETRAD
 40
0.0
  9
$AUNITS
 70
     0
  9
$AUPREC
 70
     0
  9
$MENU
  1
E:\r13\win\SUPPORT\ACAD
  9
$ELEVATION
 40
0.0
  9
$PELEVATION
 40
0.0
  9
$THICKNESS
 40
0.0
  9
$LIMCHECK
 70
     0
  9
$BLIPMODE
 70
     0
  9
$CHAMFERA
 40
0.0
  9
$CHAMFERB
 40
0.0
  9
$SKPOLY
 70
     0
  9
$TDCREATE
 40
2449840.5988310189
  9
$TDUPDATE
 40
2456597.6876343288
  9
$TDINDWG
 40
0.065357338
  9
$TDUSRTIMER
 40
0.065357338
  9
$USRTIMER
 70
     1
  9
$ANGBASE
 50
0.0
  9
$ANGDIR
 70
     0
  9
$PDMODE
 70
     0
  9
$PDSIZE
 40
0.0
  9
$PLINEWID
 40
0.0
  9
$COORDS
 70
     1
  9
$SPLFRAME
 70
     0
  9
$SPLINETYPE
 70
     6
  9
$SPLINESEGS
 70
     8
  9
$ATTDIA
 70
     0
  9
$ATTREQ
 70
     1
  9
$HANDLING
 70
     1
  9
$HANDSEED
  5
8B4
  9
$SURFTAB1
 70
     6
  9
$SURFTAB2
 70
     6
  9
$SURFTYPE
 70
     6
  9
$SURFU
 70
     6
  9
$SURFV
 70
     6
  9
$UCSNAME
  2

  9
$UCSORG
 10
0.0
 20
0.0
 30
0.0
  9
$UCSXDIR
 10
1.0
 20
0.0
 30
0.0
  9
$UCSYDIR
 10
0.0
 20
1.0
 30
0.0
  9
$PUCSNAME
  2

  9
$PUCSORG
 10
0.0
 20
0.0
 30
0.0
  9
$PUCSXDIR
 10
1.0
 20
0.0
 30
0.0
  9
$PUCSYDIR
 10
0.0
 20
1.0
 30
0.0
  9
$USERI1
 70
     0
  9
$USERI2
 70
     1
  9
$USERI3
 70
     1
  9
$USERI4
 70
     0
  9
$USERI5
 70
     0
  9
$USERR1
 40
0.0
  9
$USERR2
 40
0.0
  9
$USERR3
 40
0.0
  9
$USERR4
 40
0.0
  9
$USERR5
 40
0.0
  9
$WORLDVIEW
 70
     1
  9
$SHADEDGE
 70
     3
  9
$SHADEDIF
 70
    70
  9
$TILEMODE
 70
     1
  9
$MAXACTVP
 70
    16
  9
$PLIMCHECK
 70
     0
  9
$PEXTMIN
 10
1.0000000000000000E+020
 20
1.0000000000000000E+020
 30
1.0000000000000000E+020
  9
$PEXTMAX
 10
-1.0000000000000000E+020
 20
-1.0000000000000000E+020
 30
-1.0000000000000000E+020
  9
$PLIMMIN
 10
0.0
 20
0.0
  9
$PLIMMAX
 10
12.0
 20
9.0
  9
$UNITMODE
 70
     0
  9
$VISRETAIN
 70
     0
  9
$PLINEGEN
 70
     0
  9
$PSLTSCALE
 70
     0
  0
ENDSEC
  0
SECTION
  2
TABLES
  0
TABLE
  2
VPORT
 70
     1
  0
VPORT
  2
*ACTIVE
 70
     0
 10
0.0
 20
0.0
 11
1.0
 21
1.0
 12
374.98855678130462
 22
269.68405869568772
 13
0.0
 23
0.0
 14
20.0
 24
20.0
 15
20.0
 25
20.0
 16
0.0
 26
0.0
 36
1.0
 17
0.0
 27
0.0
 37
0.0
 40
551.57487251346481
 41
2.304913294797688
 42
50.0
 43
0.0
 44
0.0
 50
0.0
 51
0.0
 71
     0
 72
   500
 73
     1
 74
     0
 75
     0
 76
     0
 77
     0
 78
     2
  0
ENDTAB
  0
TABLE
  2
LTYPE
 70
     4
  0
LTYPE
  2
CONTINUOUS
 70
     0
  3
Solid Line
 72
    65
 73
     0
 40
0.0
  0
LTYPE
  2
CENTER
 70
     0
  3
____ _ ____ _ ____ _ ____ _ ____ _ ____ _ ____
 72
    65
 73
     4
 40
2.0
 49
1.25
 49
-0.25
 49
0.25
 49
-0.25
  0
LTYPE
  2
HIDDEN
 70
     0
  3
_ _ _ _ _ _ _ _ _ _ _ _ _ _ _ _ _ _ _ _ _ _ _
 72
    65
 73
     2
 40
0.375
 49
0.25
 49
-0.125
  0
LTYPE
  2
PHANTOM2
 70
     0
  3
___ _ _ ___ _ _ ___ _ _ ___ _ _
 72
    65
 73
     6
 40
1.25
 49
0.625
 49
-0.125
 49
0.125
 49
-0.125
 49
0.125
 49
-0.125
  0
ENDTAB
  0
TABLE
  2
LAYER
 70
     4
  0
LAYER
  2
0
 70
     0
 62
     7
  6
CONTINUOUS
  0
LAYER
  2
1
 70
     0
 62
     1
  6
CENTER
  0
LAYER
  2
2
 70
     0
 62
     2
  6
HIDDEN
  0
LAYER
  2
DEFPOINTS
 70
     0
 62
     7
  6
CONTINUOUS
  0
ENDTAB
  0
TABLE
  2
STYLE
 70
     4
  0
STYLE
  2
STANDARD
 70
     0
 40
0.0
 41
1.0
 50
0.0
 71
     0
 42
0.2
  3
romans.shx
  4

  0
STYLE
  2
SIM080
 70
     0
 40
0.0
 41
1.0
 50
0.0
 71
     0
 42
3.0
  3
romans.shx
  4

  0
STYLE
  2
06000
 70
     0
 40
0.0
 41
0.6
 50
0.0
 71
     0
 42
3.0
  3
simplex.shx
  4
bigfont.shx
  0
STYLE
  2
STANDARD1
 70
     0
 40
0.0
 41
1.0
 50
0.0
 71
     0
 42
3.0
  3
txt
  4

  0
ENDTAB
  0
TABLE
  2
VIEW
 70
     2
  0
VIEW
  2
ALL
 70
     0
 40
540.0
 10
441.98319327731087
 20
270.0
 41
0.0
 11
0.0
 21
0.0
 31
1.0
 12
0.0
 22
0.0
 32
0.0
 42
0.0
 43
0.0
 44
0.0
 50
0.0
 71
     0
  0
VIEW
  2
OLE1
 70
     0
 40
517.53106148520192
 10
324.61148845391932
 20
283.22260693441558
 41
932.67288418736007
 11
0.0
 21
0.0
 31
1.0
 12
0.0
 22
0.0
 32
0.0
 42
50.0
 43
0.0
 44
0.0
 50
0.0
 71
     0
  0
ENDTAB
  0
TABLE
  2
UCS
 70
     0
  0
ENDTAB
  0
TABLE
  2
APPID
 70
     6
  0
APPID
  2
ACAD
 70
     0
  0
APPID
  2
GRADIENTCOLOR1ACI
 70
     0
  0
APPID
  2
GRADIENTCOLOR2ACI
 70
     0
  0
APPID
  2
ACAD_EXEMPT_FROM_CAD_STANDARDS
 70
     0
  0
APPID
  2
ACAD_MLEADERVER
 70
     0
  0
APPID
  2
ACAD_NAV_VCDISPLAY
 70
     0
  0
ENDTAB
  0
TABLE
  2
DIMSTYLE
 70
     1
  0
DIMSTYLE
  2
STANDARD
 70
     0
  3

  4

  5

  6

  7

 40
1.0
 41
0.18
 42
0.0625
 43
0.38
 44
0.18
 45
0.0
 46
0.0
 47
0.0
 48
0.0
140
0.18
141
0.09
142
0.0
143
25.399999999999999
144
1.0
145
0.0
146
1.0
147
0.09
 71
     0
 72
     0
 73
     1
 74
     1
 75
     0
 76
     0
 77
     0
 78
     0
170
     0
171
     2
172
     0
173
     0
174
     0
175
     0
176
     0
177
     0
178
     0
  0
ENDTAB
  0
ENDSEC
  0
SECTION
  2
BLOCKS
  0
BLOCK
  8
0
  2
$MODEL_SPACE
 70
     0
 10
0.0
 20
0.0
 30
0.0
  3
$MODEL_SPACE
  1

  0
ENDBLK
  5
12D
  8
0
  0
BLOCK
 67
     1
  8
0
  2
$PAPER_SPACE
 70
     0
 10
0.0
 20
0.0
 30
0.0
  3
$PAPER_SPACE
  1

  0
ENDBLK
  5
12B
 67
     1
  8
0
  0
ENDSEC
  0
SECTION
  2
ENTITIES
  0
CIRCLE
  5
4CB
  8
0
 10
174.5287781657251
 20
270.0
 30
0.0
 40
50.0
  0
LINE
  5
4CC
  8
1
 10
174.5287781657251
 20
210.0
 30
0.0
 11
174.5287781657251
 21
330.0
 31
0.0
  0
CIRCLE
  5
4CD
  8
0
 10
174.5287781657251
 20
270.0
 30
0.0
 40
14.0
  0
CIRCLE
  5
4CE
  8
0
 10
174.5287781657251
 20
270.0
 30
0.0
 40
32.0
  0
CIRCLE
  5
4CF
  8
0
 10
174.5287781657251
 20
270.0
 30
0.0
 40
33.0
  0
CIRCLE
  5
4D0
  8
0
 10
174.5287781657251
 20
270.0
 30
0.0
 40
13.5
  0
LINE
  5
4D1
  8
1
 10
355.86227592050028
 20
430.0
 30
0.0
 11
413.86227592050039
 21
429.99999999999989
 31
0.0
  0
LINE
  5
4D2
  8
0
 10
365.86227592050039
 20
478.5
 30
0.0
 11
365.86227592050039
 21
381.5
 31
0.0
  0
LINE
  5
4D3
  8
0
 10
367.36227592050051
 20
380.0
 30
0.0
 11
378.36227592050039
 21
380.0
 31
0.0
  0
LINE
  5
4D4
  8
0
 10
403.86227592050028
 20
443.02584312907771
 30
0.0
 11
403.86227592050028
 21
416.97415687092229
 31
0.0
  0
LINE
  5
4D5
  8
2
 10
378.86227592050028
 20
443.49999999999937
 30
0.0
 11
378.86227592050028
 21
416.50000000000051
 31
0.0
  0
ARC
  5
4D6
  8
0
 10
367.36227592050051
 20
381.5
 30
0.0
 40
1.5
 50
180.0
 51
270.0
  0
ARC
  5
4D7
  8
0
 10
378.36227592050039
 20
381.5
 30
0.0
 40
1.5
 50
270.0
 51
0.0
  0
LINE
  5
4D8
  8
2
 10
366.86227592050051
 20
398.0
 30
0.0
 11
367.86227592050039
 21
398.0
 31
0.0
  0
LINE
  5
4D9
  8
2
 10
367.86227592050039
 20
462.0
 30
0.0
 11
367.86227592050039
 21
398.0
 31
0.0
  0
LINE
  5
4DA
  8
2
 10
366.86227592050028
 20
462.0
 30
0.0
 11
366.86227592050051
 21
398.0
 31
0.0
  0
LINE
  5
4DB
  8
2
 10
365.86227592050039
 20
397.0
 30
0.0
 11
366.86227592050051
 21
398.0
 31
0.0
  0
LINE
  5
4DC
  8
2
 10
367.86227592050039
 20
398.0
 30
0.0
 11
380.6069887766555
 21
414.38605938648561
 31
0.0
  0
LINE
  5
4DD
  8
0
 10
385.56737467900882
 20
413.69226983236842
 30
0.0
 11
379.86227592050028
 21
406.35714285714272
 31
0.0
  0
ARC
  5
4DE
  8
2
 10
380.64096049468043
 20
395.95655448724
 30
0.0
 40
7.0
 50
142.1250163488989
 51
254.4499204425023
  0
ARC
  5
4DF
  8
2
 10
378.36227592050039
 20
387.76768419815932
 30
0.0
 40
1.5
 50
0.0
 51
74.449920442502261
  0
LINE
  5
4E2
  8
2
 10
379.81763655927909
 20
416.00000000000051
 30
0.0
 11
379.36227592050028
 21
416.00000000000051
 31
0.0
  0
ARC
  5
4E3
  8
2
 10
379.81763655927909
 20
415.00000000000051
 30
0.0
 40
1.0
 50
322.1250163488989
 51
90.0
  0
LINE
  5
4E7
  8
0
 10
379.86227592050028
 20
381.5
 30
0.0
 11
379.86227592050028
 21
478.5
 31
0.0
  0
ARC
  5
4E8
  8
2
 10
379.81763655927909
 20
444.99999999999937
 30
0.0
 40
1.0
 50
270.0
 51
37.874983651101061
  0
LINE
  5
4E9
  8
2
 10
379.81763655927909
 20
443.99999999999937
 30
0.0
 11
379.36227592050028
 21
443.99999999999937
 31
0.0
  0
LINE
  5
4EA
  8
0
 10
385.56737467900882
 20
446.30773016763158
 30
0.0
 11
379.86227592050028
 21
453.64285714285711
 31
0.0
  0
LINE
  5
4EB
  8
2
 10
367.86227592050039
 20
462.0
 30
0.0
 11
380.6069887766555
 21
445.61394061351427
 31
0.0
  0
LINE
  5
4EC
  8
2
 10
365.86227592050039
 20
463.0
 30
0.0
 11
366.86227592050051
 21
462.0
 31
0.0
  0
LINE
  5
4ED
  8
2
 10
366.86227592050051
 20
462.0
 30
0.0
 11
367.86227592050039
 21
462.0
 31
0.0
  0
LINE
  5
4EE
  8
0
 10
402.8884528688082
 20
444.02550045405332
 30
0.0
 11
389.38325102435113
 21
444.37914661032841
 31
0.0
  0
ARC
  5
4EF
  8
0
 10
378.36227592050039
 20
478.5
 30
0.0
 40
1.5
 50
0.0
 51
90.0
  0
ARC
  5
4F0
  8
0
 10
367.36227592050051
 20
478.5
 30
0.0
 40
1.5
 50
90.0
 51
180.0
  0
LINE
  5
4F1
  8
0
 10
367.36227592050051
 20
480.0
 30
0.0
 11
378.36227592050039
 21
480.0
 31
0.0
  0
LINE
  5
4F2
  8
2
 10
393.86227592050051
 20
432.99999237060769
 30
0.0
 11
393.86227592050028
 21
426.99999999999761
 31
0.0
  0
LINE
  5
4F3
  8
2
 10
403.86227592050022
 20
426.99999999999733
 30
0.0
 11
393.86227592050051
 21
426.99999999999739
 31
0.0
  0
LINE
  5
4F4
  8
2
 10
393.86227592050051
 20
426.99999999999761
 30
0.0
 11
392.1302273153467
 21
429.99999618530268
 31
0.0
  0
LINE
  5
4F5
  8
2
 10
393.86227592050051
 20
432.9999923706078
 30
0.0
 11
392.1302273153467
 21
429.99999618530268
 31
0.0
  0
LINE
  5
4F6
  8
2
 10
403.86227592050022
 20
433.00000000000239
 30
0.0
 11
393.86227592050051
 21
433.00000000000239
 31
0.0
  0
LINE
  5
570
  8
1
 10
234.52877816572521
 20
270.0
 30
0.0
 11
114.5287781657251
 21
270.0
 31
0.0
  0
ARC
  5
57B
  8
0
 10
601.51414339110488
 20
311.0232339599869
 30
0.0
 40
7.0
 50
199.06000879475161
 51
340.93999120524842
  0
ARC
  5
57C
  8
0
 10
610.02073704741349
 20
308.08420956974282
 30
0.0
 40
2.0
 50
77.40149447083985
 51
160.93999120524839
  0
ARC
  5
57D
  8
0
 10
593.00754973479604
 20
308.08420956974282
 30
0.0
 40
2.0
 50
19.06000879475156
 51
102.59850552916009
  0
CIRCLE
  5
588
  8
0
 10
601.51414339110488
 20
270.0
 30
0.0
 40
3.0
  0
LINE
  5
589
  8
1
 10
601.51414339110488
 20
210.0
 30
0.0
 11
601.51414339110488
 21
330.0
 31
0.0
  0
LINE
  5
58A
  8
1
 10
541.51414339110477
 20
270.0
 30
0.0
 11
661.51414339110477
 21
270.0
 31
0.0
  0
ARC
  5
5A5
  8
0
 10
389.5141357658905
 20
449.37743323520613
 30
0.0
 40
5.0
 50
217.87498365109781
 51
268.50000000000381
  0
LINE
  5
5A6
  8
0
 10
402.8884528688082
 20
415.97449954594668
 30
0.0
 11
389.38325102435113
 21
415.62085338967171
 31
0.0
  0
ARC
  5
5A7
  8
0
 10
389.5141357658905
 20
410.62256676479382
 30
0.0
 40
5.0
 50
91.499999999996177
 51
142.12501634890219
  0
ARC
  5
5A9
  8
0
 10
402.86227592050028
 20
443.02584312907771
 30
0.0
 40
1.0
 50
0.0
 51
88.499999999997272
  0
ARC
  5
5AA
  8
0
 10
402.86227592050028
 20
416.97415687092229
 30
0.0
 40
1.0
 50
271.49999999999619
 51
0.0
  0
ARC
  5
5B2
  8
2
 10
379.36227592050028
 20
443.49999999999937
 30
0.0
 40
0.5
 50
90.0
 51
180.0
  0
ARC
  5
5B3
  8
2
 10
379.36227592050028
 20
416.50000000000051
 30
0.0
 40
0.5
 50
180.0
 51
270.0
  0
TEXT
  5
5B7
  8
0
 10
602.82061000729414
 20
249.49997697479949
 30
0.0
 40
5.0
  1
‚P
 50
180.0
 41
0.6
  7
06000
 72
     1
 11
601.52061000729407
 21
246.99997697479941
 31
0.0
 73
     2
  0
TEXT
  5
5B8
  8
0
 10
596.28727737788574
 20
250.16411487831499
 30
0.0
 40
5.0
  1
‚O
 50
161.55487522529049
 41
0.6
  7
06000
 72
     1
 11
594.26307149500724
 21
248.2038622048772
 31
0.0
 73
     2
  0
TEXT
  5
5B9
  8
0
 10
599.6025852452467
 20
249.54752473396019
 30
0.0
 40
5.0
  1
‚O
 50
171.01392357538279
 41
0.6
  7
06000
 72
     1
 11
597.92805492006801
 21
247.28126168875619
 31
0.0
 73
     2
  0
TEXT
  5
5BA
  8
0
 10
606.11011486884649
 20
249.95996914079629
 30
0.0
 40
5.0
  1
‚`
 50
189.01878173367001
 41
0.6
  7
06000
 72
     1
 11
605.11931861768971
 21
247.27141510773441
 31
0.0
 73
     2
  0
TEXT
  5
5BB
  8
0
 10
609.12293606315859
 20
250.88841462105631
 30
0.0
 40
5.0
  1
‚c
 50
197.8416273012518
 41
0.6
  7
06000
 72
     1
 11
608.5562336473389
 21
248.07970524272889
 31
0.0
 73
     2
  0
CIRCLE
  5
5D4
  8
0
 10
601.51414339110488
 20
270.0
 30
0.0
 40
50.0
  0
ARC
  5
5D5
  8
0
 10
601.51414339110488
 20
270.0
 30
0.0
 40
41.0
 50
102.16089367597689
 51
77.839106324023035
  0
CIRCLE
  5
5D6
  8
0
 10
601.51414339110488
 20
270.0
 30
0.0
 40
14.0
  0
LINE
  5
686
  8
2
 10
380.81763655927909
 20
444.99999999999937
 30
0.0
 11
380.81763655927909
 21
415.00000000000051
 31
0.0
  0
LINE
  5
687
  8
2
 10
379.36227592050028
 20
443.99999999999937
 30
0.0
 11
379.36227592050028
 21
416.00000000000051
 31
0.0
  0
LINE
  5
6A4
  8
2
 10
379.86227592050028
 20
406.357142857143
 30
0.0
 11
375.115494973046
 21
400.25413878184429
 31
0.0
  0
LINE
  5
6A5
  8
2
 10
379.86227592050028
 20
453.64285714285728
 30
0.0
 11
375.11549497304611
 21
459.74586121815543
 31
0.0
  0
LINE
  5
6DC
  8
1
 10
355.86227592050039
 20
270.0
 30
0.0
 11
413.86227592050039
 21
270.0
 31
0.0
  0
LINE
  5
6DD
  8
0
 10
365.86227592050039
 20
318.5
 30
0.0
 11
365.86227592050039
 21
221.5
 31
0.0
  0
LINE
  5
6DE
  8
0
 10
367.36227592050051
 20
220.0
 30
0.0
 11
378.36227592050039
 21
220.0
 31
0.0
  0
LINE
  5
6DF
  8
0
 10
403.86227592050028
 20
283.02584312907783
 30
0.0
 11
403.86227592050028
 21
256.97415687092229
 31
0.0
  0
LINE
  5
6E0
  8
2
 10
378.86227592050028
 20
283.49999999999937
 30
0.0
 11
378.86227592050028
 21
256.50000000000063
 31
0.0
  0
ARC
  5
6E1
  8
0
 10
367.36227592050051
 20
221.5
 30
0.0
 40
1.5
 50
180.0
 51
270.0
  0
ARC
  5
6E2
  8
0
 10
378.36227592050039
 20
221.5
 30
0.0
 40
1.5
 50
270.0
 51
0.0
  0
LINE
  5
6E3
  8
2
 10
366.86227592050051
 20
238.0
 30
0.0
 11
367.86227592050039
 21
238.0
 31
0.0
  0
LINE
  5
6E4
  8
2
 10
367.86227592050039
 20
302.0
 30
0.0
 11
367.86227592050039
 21
238.0
 31
0.0
  0
LINE
  5
6E5
  8
2
 10
366.86227592050028
 20
302.0
 30
0.0
 11
366.86227592050051
 21
238.0
 31
0.0
  0
LINE
  5
6E6
  8
2
 10
365.86227592050039
 20
237.0
 30
0.0
 11
366.86227592050051
 21
238.0
 31
0.0
  0
LINE
  5
6E7
  8
2
 10
367.86227592050039
 20
238.0
 30
0.0
 11
380.6069887766555
 21
254.38605938648561
 31
0.0
  0
LINE
  5
6E8
  8
0
 10
385.56737467900882
 20
253.6922698323684
 30
0.0
 11
379.86227592050028
 21
246.3571428571428
 31
0.0
  0
ARC
  5
6E9
  8
2
 10
380.64096049468043
 20
235.95655448724
 30
0.0
 40
7.0
 50
142.1250163488989
 51
254.4499204425023
  0
ARC
  5
6EA
  8
2
 10
378.36227592050039
 20
227.7676841981592
 30
0.0
 40
1.5
 50
0.0
 51
74.449920442502261
  0
LINE
  5
6EB
  8
2
 10
379.81763655927909
 20
256.00000000000063
 30
0.0
 11
379.36227592050028
 21
256.00000000000063
 31
0.0
  0
ARC
  5
6EC
  8
2
 10
379.81763655927909
 20
255.0000000000006
 30
0.0
 40
1.0
 50
322.1250163488989
 51
90.0
  0
LINE
  5
6ED
  8
0
 10
379.86227592050028
 20
221.5
 30
0.0
 11
379.86227592050028
 21
318.5
 31
0.0
  0
ARC
  5
6EE
  8
2
 10
379.81763655927909
 20
284.99999999999937
 30
0.0
 40
1.0
 50
270.0
 51
37.874983651101061
  0
LINE
  5
6EF
  8
2
 10
379.81763655927909
 20
283.99999999999937
 30
0.0
 11
379.36227592050028
 21
283.99999999999937
 31
0.0
  0
LINE
  5
6F0
  8
0
 10
385.56737467900882
 20
286.30773016763158
 30
0.0
 11
379.86227592050028
 21
293.64285714285711
 31
0.0
  0
LINE
  5
6F1
  8
2
 10
367.86227592050039
 20
302.0
 30
0.0
 11
380.6069887766555
 21
285.61394061351439
 31
0.0
  0
LINE
  5
6F2
  8
2
 10
365.86227592050039
 20
303.0
 30
0.0
 11
366.86227592050051
 21
302.0
 31
0.0
  0
LINE
  5
6F3
  8
2
 10
366.86227592050051
 20
302.0
 30
0.0
 11
367.86227592050039
 21
302.0
 31
0.0
  0
LINE
  5
6F4
  8
0
 10
402.8884528688082
 20
284.02550045405337
 30
0.0
 11
389.38325102435113
 21
284.37914661032829
 31
0.0
  0
ARC
  5
6F5
  8
0
 10
378.36227592050039
 20
318.5
 30
0.0
 40
1.5
 50
0.0
 51
90.0
  0
ARC
  5
6F6
  8
0
 10
367.36227592050051
 20
318.5
 30
0.0
 40
1.5
 50
90.0
 51
180.0
  0
LINE
  5
6F7
  8
0
 10
367.36227592050051
 20
320.0
 30
0.0
 11
378.36227592050039
 21
320.0
 31
0.0
  0
LINE
  5
6F8
  8
2
 10
393.86227592050051
 20
272.9999923706078
 30
0.0
 11
393.86227592050028
 21
266.99999999999761
 31
0.0
  0
LINE
  5
6F9
  8
2
 10
403.86227592050022
 20
266.99999999999739
 30
0.0
 11
393.86227592050051
 21
266.9999999999975
 31
0.0
  0
LINE
  5
6FA
  8
2
 10
393.86227592050051
 20
266.99999999999761
 30
0.0
 11
392.1302273153467
 21
269.99999618530268
 31
0.0
  0
LINE
  5
6FB
  8
2
 10
393.86227592050051
 20
272.99999237060791
 30
0.0
 11
392.1302273153467
 21
269.99999618530268
 31
0.0
  0
LINE
  5
6FC
  8
2
 10
403.86227592050022
 20
273.0000000000025
 30
0.0
 11
393.86227592050051
 21
273.0000000000025
 31
0.0
  0
LINE
  5
6FD
  8
2
 10
378.36227592050039
 20
304.02323395998741
 30
0.0
 11
375.87792822961939
 21
304.02323395998752
 31
0.0
  0
ARC
  5
6FE
  8
2
 10
378.36227592050039
 20
305.52323395998741
 30
0.0
 40
1.5
 50
270.0
 51
0.0
  0
ARC
  5
6FF
  8
2
 10
375.87792822961939
 20
302.02323395998752
 30
0.0
 40
2.0
 50
90.0
 51
217.8749836511011
  0
ARC
  5
700
  8
0
 10
389.5141357658905
 20
289.37743323520613
 30
0.0
 40
5.0
 50
217.8749836510965
 51
268.50000000000369
  0
LINE
  5
701
  8
0
 10
402.8884528688082
 20
255.97449954594671
 30
0.0
 11
389.38325102435113
 21
255.62085338967179
 31
0.0
  0
ARC
  5
702
  8
0
 10
389.5141357658905
 20
250.6225667647939
 30
0.0
 40
5.0
 50
91.499999999996206
 51
142.1250163489035
  0
ARC
  5
703
  8
0
 10
402.86227592050028
 20
283.02584312907783
 30
0.0
 40
1.0
 50
0.0
 51
88.499999999997272
  0
ARC
  5
704
  8
0
 10
402.86227592050028
 20
256.97415687092229
 30
0.0
 40
1.0
 50
271.49999999999619
 51
0.0
  0
ARC
  5
705
  8
2
 10
379.36227592050028
 20
283.49999999999937
 30
0.0
 40
0.5
 50
90.0
 51
180.0
  0
ARC
  5
706
  8
2
 10
379.36227592050028
 20
256.50000000000063
 30
0.0
 40
0.5
 50
180.0
 51
270.0
  0
LINE
  5
707
  8
2
 10
380.81763655927909
 20
284.99999999999937
 30
0.0
 11
380.81763655927909
 21
255.0000000000006
 31
0.0
  0
LINE
  5
708
  8
2
 10
379.36227592050028
 20
283.99999999999937
 30
0.0
 11
379.36227592050028
 21
256.00000000000063
 31
0.0
  0
LINE
  5
709
  8
2
 10
379.86227592050028
 20
246.357142857143
 30
0.0
 11
375.115494973046
 21
240.2541387818444
 31
0.0
  0
LINE
  5
70A
  8
2
 10
379.86227592050028
 20
293.64285714285739
 30
0.0
 11
374.29922379486669
 21
300.79535273295761
 31
0.0
  0
ARC
  5
70B
  8
2
 10
380.64096049468043
 20
464.04344551275989
 30
0.0
 40
7.0
 50
105.5500795574977
 51
217.8749836511069
  0
ARC
  5
70C
  8
2
 10
378.36227592050039
 20
472.23231580184068
 30
0.0
 40
1.5
 50
285.55007955749772
 51
0.0
  0
LINE
  5
70F
  8
1
 10
355.86227592050028
 20
109.9999999999999
 30
0.0
 11
413.86227592050039
 21
109.9999999999999
 31
0.0
  0
LINE
  5
710
  8
0
 10
365.86227592050039
 20
158.49999999999989
 30
0.0
 11
365.86227592050039
 21
61.49999999999995
 31
0.0
  0
LINE
  5
711
  8
0
 10
367.36227592050051
 20
59.999999999999943
 30
0.0
 11
378.36227592050039
 21
59.999999999999943
 31
0.0
  0
LINE
  5
712
  8
0
 10
403.86227592050028
 20
123.0258431290777
 30
0.0
 11
403.86227592050028
 21
96.974156870922286
 31
0.0
  0
LINE
  5
713
  8
2
 10
378.86227592050028
 20
123.4999999999994
 30
0.0
 11
378.86227592050028
 21
96.500000000000512
 31
0.0
  0
ARC
  5
714
  8
0
 10
367.36227592050051
 20
61.49999999999995
 30
0.0
 40
1.5
 50
180.0
 51
270.0
  0
ARC
  5
715
  8
0
 10
378.36227592050039
 20
61.49999999999995
 30
0.0
 40
1.5
 50
270.0
 51
0.0
  0
LINE
  5
716
  8
2
 10
366.86227592050051
 20
77.999999999999943
 30
0.0
 11
367.86227592050039
 21
77.999999999999943
 31
0.0
  0
LINE
  5
717
  8
2
 10
367.86227592050039
 20
141.99999999999989
 30
0.0
 11
367.86227592050039
 21
77.999999999999943
 31
0.0
  0
LINE
  5
718
  8
2
 10
366.86227592050028
 20
141.99999999999989
 30
0.0
 11
366.86227592050051
 21
77.999999999999943
 31
0.0
  0
LINE
  5
719
  8
2
 10
365.86227592050039
 20
76.999999999999943
 30
0.0
 11
366.86227592050051
 21
77.999999999999943
 31
0.0
  0
LINE
  5
71A
  8
2
 10
367.86227592050039
 20
77.999999999999943
 30
0.0
 11
380.6069887766555
 21
94.386059386485556
 31
0.0
  0
LINE
  5
71B
  8
0
 10
385.56737467900882
 20
93.692269832368368
 30
0.0
 11
379.86227592050028
 21
86.357142857142705
 31
0.0
  0
ARC
  5
71C
  8
2
 10
380.64096049468043
 20
75.956554487239998
 30
0.0
 40
7.0
 50
142.12501634889909
 51
254.44992044250239
  0
ARC
  5
71D
  8
2
 10
378.36227592050039
 20
67.767684198159202
 30
0.0
 40
1.5
 50
0.0
 51
74.449920442502389
  0
LINE
  5
71E
  8
2
 10
379.81763655927909
 20
96.000000000000512
 30
0.0
 11
379.36227592050028
 21
96.000000000000512
 31
0.0
  0
ARC
  5
71F
  8
2
 10
379.81763655927909
 20
95.000000000000512
 30
0.0
 40
1.0
 50
322.12501634889912
 51
90.0
  0
LINE
  5
720
  8
0
 10
379.86227592050028
 20
61.49999999999995
 30
0.0
 11
379.86227592050028
 21
158.49999999999989
 31
0.0
  0
ARC
  5
721
  8
2
 10
379.81763655927909
 20
124.9999999999994
 30
0.0
 40
1.0
 50
270.0
 51
37.87498365110087
  0
LINE
  5
722
  8
2
 10
379.81763655927909
 20
123.9999999999993
 30
0.0
 11
379.36227592050028
 21
123.9999999999993
 31
0.0
  0
LINE
  5
723
  8
0
 10
385.56737467900882
 20
126.3077301676315
 30
0.0
 11
379.86227592050028
 21
133.642857142857
 31
0.0
  0
LINE
  5
724
  8
2
 10
367.86227592050039
 20
141.99999999999989
 30
0.0
 11
380.6069887766555
 21
125.6139406135143
 31
0.0
  0
LINE
  5
725
  8
2
 10
365.86227592050039
 20
142.99999999999989
 30
0.0
 11
366.86227592050051
 21
141.99999999999989
 31
0.0
  0
LINE
  5
726
  8
2
 10
366.86227592050051
 20
141.99999999999989
 30
0.0
 11
367.86227592050039
 21
141.99999999999989
 31
0.0
  0
LINE
  5
727
  8
0
 10
402.8884528688082
 20
124.0255004540533
 30
0.0
 11
389.38325102435113
 21
124.37914661032831
 31
0.0
  0
ARC
  5
728
  8
0
 10
378.36227592050039
 20
158.49999999999989
 30
0.0
 40
1.5
 50
0.0
 51
90.0
  0
ARC
  5
729
  8
0
 10
367.36227592050051
 20
158.49999999999989
 30
0.0
 40
1.5
 50
90.0
 51
180.0
  0
LINE
  5
72A
  8
0
 10
367.36227592050051
 20
159.99999999999989
 30
0.0
 11
378.36227592050039
 21
159.99999999999989
 31
0.0
  0
LINE
  5
72B
  8
2
 10
393.86227592050051
 20
112.9999923706077
 30
0.0
 11
393.86227592050028
 21
106.9999999999975
 31
0.0
  0
LINE
  5
72C
  8
2
 10
403.86227592050022
 20
106.9999999999973
 30
0.0
 11
393.86227592050051
 21
106.9999999999974
 31
0.0
  0
LINE
  5
72D
  8
2
 10
393.86227592050051
 20
106.9999999999975
 30
0.0
 11
392.1302273153467
 21
109.99999618530261
 31
0.0
  0
LINE
  5
72E
  8
2
 10
393.86227592050051
 20
112.9999923706078
 30
0.0
 11
392.1302273153467
 21
109.99999618530261
 31
0.0
  0
LINE
  5
72F
  8
2
 10
403.86227592050022
 20
113.0000000000024
 30
0.0
 11
393.86227592050051
 21
113.0000000000024
 31
0.0
  0
ARC
  5
730
  8
0
 10
389.5141357658905
 20
129.37743323520601
 30
0.0
 40
5.0
 50
217.87498365109701
 51
268.50000000000369
  0
LINE
  5
731
  8
0
 10
402.8884528688082
 20
95.974499545946685
 30
0.0
 11
389.38325102435113
 21
95.620853389671694
 31
0.0
  0
ARC
  5
732
  8
0
 10
389.5141357658905
 20
90.622566764793817
 30
0.0
 40
5.0
 50
91.499999999996206
 51
142.1250163489029
  0
ARC
  5
733
  8
0
 10
402.86227592050028
 20
123.0258431290777
 30
0.0
 40
1.0
 50
0.0
 51
88.499999999997257
  0
ARC
  5
734
  8
0
 10
402.86227592050028
 20
96.974156870922286
 30
0.0
 40
1.0
 50
271.49999999999619
 51
0.0
  0
ARC
  5
735
  8
2
 10
379.36227592050028
 20
123.4999999999994
 30
0.0
 40
0.5
 50
90.0
 51
180.0
  0
ARC
  5
736
  8
2
 10
379.36227592050028
 20
96.500000000000512
 30
0.0
 40
0.5
 50
180.0
 51
270.0
  0
LINE
  5
737
  8
2
 10
380.81763655927909
 20
124.9999999999994
 30
0.0
 11
380.81763655927909
 21
95.000000000000512
 31
0.0
  0
LINE
  5
738
  8
2
 10
379.36227592050028
 20
123.9999999999993
 30
0.0
 11
379.36227592050028
 21
96.000000000000512
 31
0.0
  0
LINE
  5
739
  8
2
 10
379.86227592050028
 20
86.357142857142946
 30
0.0
 11
375.115494973046
 21
80.254138781844347
 31
0.0
  0
LINE
  5
73A
  8
2
 10
379.86227592050028
 20
133.64285714285731
 30
0.0
 11
375.11549497304611
 21
139.7458612181554
 31
0.0
  0
ARC
  5
73B
  8
2
 10
380.64096049468043
 20
144.04344551275989
 30
0.0
 40
7.0
 50
105.5500795574976
 51
217.87498365110571
  0
ARC
  5
73C
  8
2
 10
378.36227592050039
 20
152.23231580184071
 30
0.0
 40
1.5
 50
285.5500795574975
 51
0.0
  0
TEXT
  5
84F
  8
0
 62
     3
 10
0.0
 20
0.0
 30
0.0
 40
10.0
  1
NDA100
  7
STANDARD1
  0
ENDSEC
  0
EOF
