  0
SECTION
  2
HEADER
  9
$ACADVER
  1
AC1009
  9
$INSBASE
 10
0.0
 20
0.0
 30
0.0
  9
$EXTMIN
 10
0.0
 20
-2.960436562073669
 30
0.0
  9
$EXTMAX
 10
316.903151696782
 20
235.54307999299701
 30
0.0
  9
$LIMMIN
 10
0.0
 20
0.0
  9
$LIMMAX
 10
375.0
 20
270.0
  9
$ORTHOMODE
 70
     0
  9
$REGENMODE
 70
     1
  9
$FILLMODE
 70
     1
  9
$QTEXTMODE
 70
     0
  9
$MIRRTEXT
 70
     0
  9
$DRAGMODE
 70
     2
  9
$LTSCALE
 40
3.0
  9
$OSMODE
 70
  3071
  9
$ATTMODE
 70
     1
  9
$TEXTSIZE
 40
2.5
  9
$TRACEWID
 40
0.05
  9
$TEXTSTYLE
  7
STANDARD
  9
$CLAYER
  8
0
  9
$CELTYPE
  6
BYLAYER
  9
$CECOLOR
 62
   256
  9
$DIMSCALE
 40
1.0
  9
$DIMASZ
 40
3.0
  9
$DIMEXO
 40
2.0
  9
$DIMDLI
 40
0.38
  9
$DIMRND
 40
0.0
  9
$DIMDLE
 40
0.0
  9
$DIMEXE
 40
2.0
  9
$DIMTP
 40
0.0
  9
$DIMTM
 40
0.0
  9
$DIMTXT
 40
3.2000000000000002
  9
$DIMCEN
 40
0.0
  9
$DIMTSZ
 40
0.0
  9
$DIMTOL
 70
     0
  9
$DIMLIM
 70
     0
  9
$DIMTIH
 70
     0
  9
$DIMTOH
 70
     0
  9
$DIMSE1
 70
     0
  9
$DIMSE2
 70
     0
  9
$DIMTAD
 70
     1
  9
$DIMZIN
 70
     0
  9
$DIMBLK
  1

  9
$DIMASO
 70
     1
  9
$DIMSHO
 70
     0
  9
$DIMPOST
  1

  9
$DIMAPOST
  1

  9
$DIMALT
 70
     0
  9
$DIMALTD
 70
     2
  9
$DIMALTF
 40
25.399999999999999
  9
$DIMLFAC
 40
1.0
  9
$DIMTOFL
 70
     1
  9
$DIMTVP
 40
1.6000000000000001
  9
$DIMTIX
 70
     1
  9
$DIMSOXD
 70
     0
  9
$DIMSAH
 70
     0
  9
$DIMBLK1
  1

  9
$DIMBLK2
  1

  9
$DIMSTYLE
  2
STANDARD
  9
$DIMCLRD
 70
     0
  9
$DIMCLRE
 70
     0
  9
$DIMCLRT
 70
     0
  9
$DIMTFAC
 40
1.0
  9
$DIMGAP
 40
0.09
  9
$LUNITS
 70
     2
  9
$LUPREC
 70
     4
  9
$SKETCHINC
 40
0.1
  9
$FILLETRAD
 40
0.0
  9
$AUNITS
 70
     0
  9
$AUPREC
 70
     4
  9
$MENU
  1
E:\r13\win\SUPPORT\ACAD
  9
$ELEVATION
 40
0.0
  9
$PELEVATION
 40
0.0
  9
$THICKNESS
 40
0.0
  9
$LIMCHECK
 70
     0
  9
$BLIPMODE
 70
     0
  9
$CHAMFERA
 40
0.0
  9
$CHAMFERB
 40
0.0
  9
$SKPOLY
 70
     0
  9
$TDCREATE
 40
2450617.5762535878
  9
$TDUPDATE
 40
2456597.6753628012
  9
$TDINDWG
 40
0.0193393287
  9
$TDUSRTIMER
 40
0.0193393287
  9
$USRTIMER
 70
     1
  9
$ANGBASE
 50
0.0
  9
$ANGDIR
 70
     0
  9
$PDMODE
 70
     0
  9
$PDSIZE
 40
0.0
  9
$PLINEWID
 40
0.0
  9
$COORDS
 70
     1
  9
$SPLFRAME
 70
     0
  9
$SPLINETYPE
 70
     6
  9
$SPLINESEGS
 70
     8
  9
$ATTDIA
 70
     0
  9
$ATTREQ
 70
     1
  9
$HANDLING
 70
     1
  9
$HANDSEED
  5
863
  9
$SURFTAB1
 70
     6
  9
$SURFTAB2
 70
     6
  9
$SURFTYPE
 70
     6
  9
$SURFU
 70
     6
  9
$SURFV
 70
     6
  9
$UCSNAME
  2

  9
$UCSORG
 10
0.0
 20
0.0
 30
0.0
  9
$UCSXDIR
 10
1.0
 20
0.0
 30
0.0
  9
$UCSYDIR
 10
0.0
 20
1.0
 30
0.0
  9
$PUCSNAME
  2

  9
$PUCSORG
 10
0.0
 20
0.0
 30
0.0
  9
$PUCSXDIR
 10
1.0
 20
0.0
 30
0.0
  9
$PUCSYDIR
 10
0.0
 20
1.0
 30
0.0
  9
$USERI1
 70
     0
  9
$USERI2
 70
     1
  9
$USERI3
 70
     1
  9
$USERI4
 70
     0
  9
$USERI5
 70
     0
  9
$USERR1
 40
0.0
  9
$USERR2
 40
0.0
  9
$USERR3
 40
0.0
  9
$USERR4
 40
0.0
  9
$USERR5
 40
0.0
  9
$WORLDVIEW
 70
     1
  9
$SHADEDGE
 70
     3
  9
$SHADEDIF
 70
    70
  9
$TILEMODE
 70
     1
  9
$MAXACTVP
 70
    16
  9
$PLIMCHECK
 70
     0
  9
$PEXTMIN
 10
1.0000000000000000E+020
 20
1.0000000000000000E+020
 30
1.0000000000000000E+020
  9
$PEXTMAX
 10
-1.0000000000000000E+020
 20
-1.0000000000000000E+020
 30
-1.0000000000000000E+020
  9
$PLIMMIN
 10
0.0
 20
0.0
  9
$PLIMMAX
 10
12.0
 20
9.0
  9
$UNITMODE
 70
     0
  9
$VISRETAIN
 70
     0
  9
$PLINEGEN
 70
     1
  9
$PSLTSCALE
 70
     0
  0
ENDSEC
  0
SECTION
  2
TABLES
  0
TABLE
  2
VPORT
 70
     1
  0
VPORT
  2
*ACTIVE
 70
     0
 10
0.0
 20
0.0
 11
1.0
 21
1.0
 12
187.49427839065231
 22
134.10366293909439
 13
0.0
 23
0.0
 14
3.0000000000001852
 24
3.0000000000001852
 15
10.0
 25
10.0
 16
0.0
 26
0.0
 36
1.0
 17
0.0
 27
0.0
 37
0.0
 40
277.29405978699532
 41
2.304913294797688
 42
50.0
 43
0.0
 44
0.0
 50
0.0
 51
0.0
 71
     0
 72
   500
 73
     1
 74
     0
 75
     0
 76
     0
 77
     0
 78
     2
  0
ENDTAB
  0
TABLE
  2
LTYPE
 70
     4
  0
LTYPE
  2
CONTINUOUS
 70
     0
  3
Solid Line
 72
    65
 73
     0
 40
0.0
  0
LTYPE
  2
CENTER
 70
     0
  3
____ _ ____ _ ____ _ ____ _ ____ _ ____ _ ____
 72
    65
 73
     4
 40
2.0
 49
1.25
 49
-0.25
 49
0.25
 49
-0.25
  0
LTYPE
  2
PHANTOM
 70
     0
  3
_____ _ _ _____ _ _ _____ _ _ _____ _ _ ____
 72
    65
 73
     6
 40
2.5
 49
1.25
 49
-0.25
 49
0.25
 49
-0.25
 49
0.25
 49
-0.25
  0
LTYPE
  2
PHANTOM2
 70
     0
  3
___ _ _ ___ _ _ ___ _ _ ___ _ _
 72
    65
 73
     6
 40
1.25
 49
0.625
 49
-0.125
 49
0.125
 49
-0.125
 49
0.125
 49
-0.125
  0
ENDTAB
  0
TABLE
  2
LAYER
 70
     4
  0
LAYER
  2
0
 70
     0
 62
     7
  6
CONTINUOUS
  0
LAYER
  2
1
 70
     0
 62
     1
  6
CENTER
  0
LAYER
  2
3
 70
     0
 62
     3
  6
CONTINUOUS
  0
LAYER
  2
5
 70
     0
 62
     3
  6
PHANTOM
  0
ENDTAB
  0
TABLE
  2
STYLE
 70
     2
  0
STYLE
  2
STANDARD
 70
     0
 40
0.0
 41
1.0
 50
0.0
 71
     0
 42
2.5
  3
simplex
  4
bigfont
  0
STYLE
  2
STANDARD1
 70
     0
 40
0.0
 41
1.0
 50
0.0
 71
     0
 42
3.0
  3
txt
  4

  0
ENDTAB
  0
TABLE
  2
VIEW
 70
     1
  0
VIEW
  2
ALL
 70
     0
 40
175.0
 10
143.23529411764699
 20
87.5
 41
0.0
 11
0.0
 21
0.0
 31
1.0
 12
0.0
 22
0.0
 32
0.0
 42
0.0
 43
0.0
 44
0.0
 50
0.0
 71
     0
  0
ENDTAB
  0
TABLE
  2
UCS
 70
     0
  0
ENDTAB
  0
TABLE
  2
APPID
 70
     3
  0
APPID
  2
ACAD
 70
     0
  0
APPID
  2
ACAD_MLEADERVER
 70
     0
  0
APPID
  2
ACAD_NAV_VCDISPLAY
 70
     0
  0
ENDTAB
  0
TABLE
  2
DIMSTYLE
 70
     1
  0
DIMSTYLE
  2
STANDARD
 70
     0
  3

  4

  5

  6

  7

 40
1.0
 41
0.18
 42
0.0625
 43
0.38
 44
0.18
 45
0.0
 46
0.0
 47
0.0
 48
0.0
140
0.18
141
0.09
142
0.0
143
25.399999999999999
144
1.0
145
0.0
146
1.0
147
0.09
 71
     0
 72
     0
 73
     1
 74
     1
 75
     0
 76
     0
 77
     0
 78
     0
170
     0
171
     2
172
     0
173
     0
174
     0
175
     0
176
     0
177
     0
178
     0
  0
ENDTAB
  0
ENDSEC
  0
SECTION
  2
BLOCKS
  0
BLOCK
  8
0
  2
$MODEL_SPACE
 70
     0
 10
0.0
 20
0.0
 30
0.0
  3
$MODEL_SPACE
  1

  0
ENDBLK
  5
6E7
  8
0
  0
BLOCK
 67
     1
  8
0
  2
$PAPER_SPACE
 70
     0
 10
0.0
 20
0.0
 30
0.0
  3
$PAPER_SPACE
  1

  0
ENDBLK
  5
6E5
 67
     1
  8
0
  0
BLOCK
  8
0
  2
*X0
 70
     1
 10
0.0
 20
0.0
 30
0.0
  3
*X0
  1

  0
LINE
  5
2F
  8
0
 62
     0
 10
91.368647765388431
 20
85.711793515896034
 30
0.0
 11
93.621665511228059
 21
87.964811261735647
 31
0.0
  0
LINE
  5
30
  8
0
 62
     0
 10
90.652010396625485
 20
87.823583271879286
 30
0.0
 11
91.540220640641806
 21
88.711793515895579
 31
0.0
  0
LINE
  5
31
  8
0
 62
     0
 10
109.621665511228
 20
86.99424851325854
 30
0.0
 11
111.3392105138651
 21
88.711793515895579
 31
0.0
  0
LINE
  5
32
  8
0
 62
     0
 10
111.16763763861179
 20
85.711793515896076
 30
0.0
 11
112.59132062583051
 21
87.135476503114774
 31
0.0
  0
ENDBLK
  5
33
  8
0
  0
BLOCK
  8
0
  2
*X1
 70
     1
 10
0.0
 20
0.0
 30
0.0
  3
*X1
  1

  0
LINE
  5
35
  8
0
 62
     0
 10
91.797579953522245
 20
93.211793515895323
 30
0.0
 11
92.297579953522217
 21
93.711793515895295
 31
0.0
  0
LINE
  5
36
  8
0
 62
     0
 10
110.1823562643724
 20
93.211793515895309
 30
0.0
 11
110.6823562643724
 21
93.71179351589528
 31
0.0
  0
LINE
  5
37
  8
0
 62
     0
 10
111.59656982674549
 20
93.211793515895309
 30
0.0
 11
112.09656982674549
 21
93.71179351589528
 31
0.0
  0
ENDBLK
  5
38
  8
0
  0
BLOCK
  8
0
  2
*X2
 70
     1
 10
0.0
 20
0.0
 30
0.0
  3
*X2
  1

  0
LINE
  5
3A
  8
0
 62
     0
 10
206.2256601148886
 20
95.351316824837866
 30
0.0
 11
207.2718181226158
 21
96.397474832565081
 31
0.0
  0
LINE
  5
3B
  8
0
 62
     0
 10
205.9539448988838
 20
96.210972458731547
 30
0.0
 11
206.412162488722
 21
96.669190048569817
 31
0.0
  0
LINE
  5
3C
  8
0
 62
     0
 10
221.42141956559109
 20
95.839255226860189
 30
0.0
 11
222.2838797205934
 21
96.701715381862584
 31
0.0
  0
LINE
  5
3D
  8
0
 62
     0
 10
221.9544339246809
 20
95.24089873605152
 30
0.0
 11
222.88223621140199
 21
96.168701022772666
 31
0.0
  0
ENDBLK
  5
3E
  8
0
  0
BLOCK
  8
0
  2
*X3
 70
     1
 10
0.0
 20
0.0
 30
0.0
  3
*X3
  1

  0
LINE
  5
40
  8
0
 62
     0
 10
250.20178448115649
 20
80.724189114147705
 30
0.0
 11
248.2017844383187
 21
82.724189156985517
 31
0.0
  0
LINE
  5
41
  8
0
 62
     0
 10
234.70178417888269
 20
96.224189416421467
 30
0.0
 11
234.2141800794092
 21
96.711793515895053
 31
0.0
  0
LINE
  5
42
  8
0
 62
     0
 10
236.80178417888271
 20
94.124189416421558
 30
0.0
 11
235.7141800794092
 21
95.211793515895067
 31
0.0
  0
LINE
  5
43
  8
0
 62
     0
 10
251.04260720415499
 20
82.711793515895408
 30
0.0
 11
248.2017843900924
 21
85.552616329958013
 31
0.0
  0
LINE
  5
44
  8
0
 62
     0
 10
251.20178341379039
 20
85.381044431006188
 30
0.0
 11
248.87103432890149
 21
87.711793515895067
 31
0.0
  0
LINE
  5
45
  8
0
 62
     0
 10
251.20178341379039
 20
88.209471555752359
 30
0.0
 11
249.6017841788827
 21
89.809470790660015
 31
0.0
  0
LINE
  5
46
  8
0
 62
     0
 10
251.20178341379039
 20
91.037898680498529
 30
0.0
 11
249.6017841788827
 21
92.637897915406242
 31
0.0
  0
LINE
  5
47
  8
0
 62
     0
 10
251.35631570313981
 20
93.711793515895266
 30
0.0
 11
249.8563157031401
 21
95.211793515895053
 31
0.0
  0
LINE
  5
48
  8
0
 62
     0
 10
254.18474282788611
 20
93.711793515895266
 30
0.0
 11
251.70178417888269
 21
96.194752164898688
 31
0.0
  0
LINE
  5
49
  8
0
 62
     0
 10
236.80178417888271
 20
91.295762291675331
 30
0.0
 11
235.20178341379039
 21
92.895763056767649
 31
0.0
  0
LINE
  5
4A
  8
0
 62
     0
 10
234.38575295466279
 20
93.71179351589528
 30
0.0
 11
232.79376818422651
 21
95.303778286331536
 31
0.0
  0
LINE
  5
4B
  8
0
 62
     0
 10
238.20178436426559
 20
87.067334981546324
 30
0.0
 11
237.55732582991669
 21
87.711793515895053
 31
0.0
  0
LINE
  5
4C
  8
0
 62
     0
 10
236.80178417888271
 20
88.467335166929118
 30
0.0
 11
235.20178341379039
 21
90.067335932021422
 31
0.0
  0
LINE
  5
4D
  8
0
 62
     0
 10
238.20178441249189
 20
84.238907808573771
 30
0.0
 11
235.20178341379039
 21
87.238908807275251
 31
0.0
  0
LINE
  5
4E
  8
0
 62
     0
 10
237.40047158042401
 20
82.211793515895437
 30
0.0
 11
235.20178341379039
 21
84.410481682529024
 31
0.0
  0
ENDBLK
  5
4F
  8
0
  0
BLOCK
  8
0
  2
STDGX5
 70
     0
 10
0.0
 20
0.0
 30
0.0
  3
STDGX5
  1

  0
ENDBLK
  5
335
  8
0
  0
BLOCK
  8
0
  2
*X5
 70
     1
 10
0.0
 20
0.0
 30
0.0
  3
*X5
  1

  0
LINE
  5
3AB
  8
0
 62
     0
 10
162.0582287031167
 20
87.104909897342665
 30
0.0
 11
167.7522360368765
 21
92.798917231102465
 31
0.0
  0
LINE
  5
3AC
  8
0
 62
     0
 10
171.9949360368764
 20
97.041617231102464
 30
0.0
 11
177.96766791635409
 21
103.0143491105801
 31
0.0
  0
LINE
  5
3AD
  8
0
 62
     0
 10
168.1551840783375
 20
93.201865272563481
 30
0.0
 11
168.93564918687309
 21
93.982330381099118
 31
0.0
  0
LINE
  5
3AE
  8
0
 62
     0
 10
170.59154518134071
 20
95.638226375566674
 30
0.0
 11
171.5850827780211
 21
96.631763972247114
 31
0.0
  0
LINE
  5
3AF
  8
0
 62
     0
 10
161.3880322418683
 20
87.848926998467391
 30
0.0
 11
166.33802247450339
 21
92.798917231102436
 31
0.0
  0
LINE
  5
3B0
  8
0
 62
     0
 10
174.72224160742621
 20
101.1831363640252
 30
0.0
 11
177.2236508152294
 21
103.68454557182849
 31
0.0
  0
LINE
  5
3B1
  8
0
 62
     0
 10
166.47267448703661
 20
92.933569243635716
 30
0.0
 11
167.07598780452281
 21
93.536882561121885
 31
0.0
  0
LINE
  5
3B2
  8
0
 62
     0
 10
169.6109624745034
 20
96.071857231102442
 30
0.0
 11
172.13802247450329
 21
98.598917231102433
 31
0.0
  0
LINE
  5
3B3
  8
0
 62
     0
 10
160.78171205451019
 20
88.656820373482361
 30
0.0
 11
165.16882698332759
 21
93.043935302299786
 31
0.0
  0
LINE
  5
3B4
  8
0
 62
     0
 10
174.41929537138361
 20
102.29440369035579
 30
0.0
 11
176.41575744021441
 21
104.2908657591866
 31
0.0
  0
LINE
  5
3B5
  8
0
 62
     0
 10
167.75517238018381
 20
95.630280699156003
 30
0.0
 11
170.72380891213021
 21
98.598917231102433
 31
0.0
  0
LINE
  5
3B6
  8
0
 62
     0
 10
160.24179243455251
 20
89.531114315897796
 30
0.0
 11
163.50959534975721
 21
92.798917231102436
 31
0.0
  0
LINE
  5
3B7
  8
0
 62
     0
 10
173.7722297136512
 20
103.0615515949965
 30
0.0
 11
175.54146349779899
 21
104.8307853791442
 31
0.0
  0
LINE
  5
3B8
  8
0
 62
     0
 10
164.35813534975719
 20
93.647457231102464
 30
0.0
 11
165.6864650735327
 21
94.975786954877961
 31
0.0
  0
LINE
  5
3B9
  8
0
 62
     0
 10
166.78253534975721
 20
96.071857231102456
 30
0.0
 11
169.3095953497571
 21
98.598917231102433
 31
0.0
  0
LINE
  5
3BA
  8
0
 62
     0
 10
159.7727654185594
 20
90.476300862277739
 30
0.0
 11
162.0953817873841
 21
92.798917231102436
 31
0.0
  0
LINE
  5
3BB
  8
0
 62
     0
 10
172.82258072173789
 20
103.5261161654562
 30
0.0
 11
174.59627695141899
 21
105.29981239513739
 31
0.0
  0
LINE
  5
3BC
  8
0
 62
     0
 10
162.94392178738411
 20
93.647457231102464
 30
0.0
 11
163.48941178738389
 21
94.192947231102323
 31
0.0
  0
LINE
  5
3BD
  8
0
 62
     0
 10
165.2105655670573
 20
95.914101010775653
 30
0.0
 11
167.8955399464227
 21
98.599075390141024
 31
0.0
  0
LINE
  5
3BE
  8
0
 62
     0
 10
163.974291787384
 20
94.677827231102313
 30
0.0
 11
164.51978178738409
 21
95.223317231102442
 31
0.0
  0
LINE
  5
3BF
  8
0
 62
     0
 10
159.5736605825943
 20
91.691409588685787
 30
0.0
 11
161.25728447220021
 21
93.375033478291712
 31
0.0
  0
LINE
  5
3C0
  8
0
 62
     0
 10
171.481168225011
 20
103.5989172311024
 30
0.0
 11
173.38116822501101
 21
105.4989172311024
 31
0.0
  0
LINE
  5
3C1
  8
0
 62
     0
 10
163.07877006611449
 20
95.196519072205945
 30
0.0
 11
163.10556822501101
 21
95.223317231102442
 31
0.0
  0
LINE
  5
3C2
  8
0
 62
     0
 10
163.954108225011
 20
96.071857231102442
 30
0.0
 11
166.76557730539699
 21
98.883326311488474
 31
0.0
  0
LINE
  5
3C3
  8
0
 62
     0
 10
159.5736605825943
 20
93.105623151058879
 30
0.0
 11
161.77492256240521
 21
95.306885130869816
 31
0.0
  0
LINE
  5
3C4
  8
0
 62
     0
 10
170.0669546626379
 20
103.5989172311024
 30
0.0
 11
171.9669546626379
 21
105.4989172311024
 31
0.0
  0
LINE
  5
3C5
  8
0
 62
     0
 10
162.53989466263789
 20
96.071857231102442
 30
0.0
 11
165.9865608467365
 21
99.518523415201017
 31
0.0
  0
LINE
  5
3C6
  8
0
 62
     0
 10
159.5736605825943
 20
94.519836713431985
 30
0.0
 11
165.50818089163269
 21
100.4543570224703
 31
0.0
  0
LINE
  5
3C7
  8
0
 62
     0
 10
168.65274110026479
 20
103.5989172311024
 30
0.0
 11
170.5527411002648
 21
105.4989172311024
 31
0.0
  0
LINE
  5
3C8
  8
0
 62
     0
 10
159.5736605825943
 20
95.934050275805063
 30
0.0
 11
165.56380541059031
 21
101.924195103801
 31
0.0
  0
LINE
  5
3C9
  8
0
 62
     0
 10
167.0983827098957
 20
103.45877240310639
 30
0.0
 11
169.13852753789169
 21
105.4989172311024
 31
0.0
  0
LINE
  5
3CA
  8
0
 62
     0
 10
159.5736605825943
 20
97.348263838178141
 30
0.0
 11
167.72431397551861
 21
105.4989172311024
 31
0.0
  0
LINE
  5
3CB
  8
0
 62
     0
 10
159.5736605825943
 20
98.762477400551276
 30
0.0
 11
166.31010041314551
 21
105.4989172311024
 31
0.0
  0
LINE
  5
3CC
  8
0
 62
     0
 10
160.8808524843185
 20
101.48388286464851
 30
0.0
 11
163.5886949490482
 21
104.1917253293783
 31
0.0
  0
LINE
  5
3CD
  8
0
 62
     0
 10
162.79140929610901
 20
86.423876927961956
 30
0.0
 11
168.4180110966681
 21
92.050478728521
 31
0.0
  0
LINE
  5
3CE
  8
0
 62
     0
 10
172.88893028173021
 20
96.521397913583115
 30
0.0
 11
178.6487008857348
 21
102.2811685175877
 31
0.0
  0
LINE
  5
3CF
  8
0
 62
     0
 10
170.0739070911356
 20
93.706374722988514
 30
0.0
 11
171.06744468781599
 21
94.699912319668996
 31
0.0
  0
LINE
  5
3D0
  8
0
 62
     0
 10
163.58820248585809
 20
85.806456555337874
 30
0.0
 11
169.3684631616226
 21
91.586717231102455
 31
0.0
  0
LINE
  5
3D1
  8
0
 62
     0
 10
172.37129219152521
 20
94.589546261005012
 30
0.0
 11
179.26612125835891
 21
101.48437532783871
 31
0.0
  0
LINE
  5
3D2
  8
0
 62
     0
 10
169.55626900093051
 20
91.774523070410339
 30
0.0
 11
170.5806631616226
 21
92.798917231102436
 31
0.0
  0
LINE
  5
3D3
  8
0
 62
     0
 10
164.45083554179061
 20
85.254876048897287
 30
0.0
 11
172.64690304603249
 21
93.450943553139226
 31
0.0
  0
LINE
  5
3D4
  8
0
 62
     0
 10
175.26781672399571
 20
96.071857231102456
 30
0.0
 11
179.81770176479949
 21
100.6217422719062
 31
0.0
  0
LINE
  5
3D5
  8
0
 62
     0
 10
165.3834263532232
 20
84.773253297956799
 30
0.0
 11
173.40909028636881
 21
92.798917231102436
 31
0.0
  0
LINE
  5
3D6
  8
0
 62
     0
 10
176.68203028636881
 20
96.071857231102456
 30
0.0
 11
180.29932451574001
 21
99.689151460473582
 31
0.0
  0
LINE
  5
3D7
  8
0
 62
     0
 10
174.00777553590629
 20
93.397602480639947
 30
0.0
 11
176.3074516824928
 21
95.697278627226382
 31
0.0
  0
LINE
  5
3D8
  8
0
 62
     0
 10
166.5233038487419
 20
84.498917231102425
 30
0.0
 11
174.823303848742
 21
92.798917231102436
 31
0.0
  0
LINE
  5
3D9
  8
0
 62
     0
 10
178.09624384874201
 20
96.071857231102456
 30
0.0
 11
180.5736605825943
 21
98.549273964954835
 31
0.0
  0
LINE
  5
3DA
  8
0
 62
     0
 10
167.93751741111501
 20
84.498917231102425
 30
0.0
 11
177.08605741111501
 21
93.647457231102464
 31
0.0
  0
LINE
  5
3DB
  8
0
 62
     0
 10
178.85904242915001
 20
95.420442249137423
 30
0.0
 11
180.5736605825943
 21
97.135060402581757
 31
0.0
  0
LINE
  5
3DC
  8
0
 62
     0
 10
169.35173097348809
 20
84.498917231102425
 30
0.0
 11
177.6517309734881
 21
92.798917231102436
 31
0.0
  0
LINE
  5
3DD
  8
0
 62
     0
 10
178.92044344287669
 20
94.067629700490997
 30
0.0
 11
180.5736605825943
 21
95.720846840208651
 31
0.0
  0
LINE
  5
3DE
  8
0
 62
     0
 10
170.76594453586119
 20
84.498917231102425
 30
0.0
 11
180.5736605825943
 21
94.306633277835545
 31
0.0
  0
LINE
  5
3DF
  8
0
 62
     0
 10
172.1801580982343
 20
84.498917231102425
 30
0.0
 11
180.5736605825943
 21
92.892419715462438
 31
0.0
  0
LINE
  5
3E0
  8
0
 62
     0
 10
173.59437166060741
 20
84.498917231102425
 30
0.0
 11
180.5736605825943
 21
91.478206153089346
 31
0.0
  0
LINE
  5
3E1
  8
0
 62
     0
 10
175.8618677780307
 20
85.352199786152624
 30
0.0
 11
179.72037802754409
 21
89.210710035666111
 31
0.0
  0
LINE
  5
3E2
  8
0
 62
     0
 10
177.7153525208949
 20
86.742583642873825
 30
0.0
 11
171.6590189326663
 21
92.798917231102436
 31
0.0
  0
LINE
  5
3E3
  8
0
 62
     0
 10
168.9595557192909
 20
95.498380444477831
 30
0.0
 11
161.81732699436569
 21
102.64060916940301
 31
0.0
  0
LINE
  5
3E4
  8
0
 62
     0
 10
170.79073150425901
 20
93.667204659509736
 30
0.0
 11
170.2171123053655
 21
94.240823858403232
 31
0.0
  0
LINE
  5
3E5
  8
0
 62
     0
 10
176.9492384664216
 20
86.094484134974095
 30
0.0
 11
169.91825381464281
 21
93.125468786752819
 31
0.0
  0
LINE
  5
3E6
  8
0
 62
     0
 10
166.97186537029319
 20
96.071857231102456
 30
0.0
 11
161.16922748646601
 21
101.8744951149296
 31
0.0
  0
LINE
  5
3E7
  8
0
 62
     0
 10
168.96222181648699
 20
94.081500784908684
 30
0.0
 11
168.82274771827889
 21
94.220974883116739
 31
0.0
  0
LINE
  5
3E8
  8
0
 62
     0
 10
168.27634699993229
 20
94.767375601463357
 30
0.0
 11
167.82841276765311
 21
95.215309833742566
 31
0.0
  0
LINE
  5
3E9
  8
0
 62
     0
 10
176.11856484841189
 20
85.510944190610573
 30
0.0
 11
169.61939532392009
 21
92.010113715102406
 31
0.0
  0
LINE
  5
3EA
  8
0
 62
     0
 10
165.89087053111251
 20
95.738638507910039
 30
0.0
 11
160.58568754210251
 21
101.04382149692
 31
0.0
  0
LINE
  5
3EB
  8
0
 62
     0
 10
168.66336332576429
 20
92.966145713258229
 30
0.0
 11
168.26302012843581
 21
93.366488910586767
 31
0.0
  0
LINE
  5
3EC
  8
0
 62
     0
 10
175.220173014794
 20
84.995122461855416
 30
0.0
 11
168.628578245547
 21
91.586717231102455
 31
0.0
  0
LINE
  5
3ED
  8
0
 62
     0
 10
164.143438245547
 20
96.071857231102442
 30
0.0
 11
160.06986581334729
 21
100.1454296633021
 31
0.0
  0
LINE
  5
3EE
  8
0
 62
     0
 10
168.3645048350416
 20
91.850790641607844
 30
0.0
 11
167.41637824554701
 21
92.798917231102465
 31
0.0
  0
LINE
  5
3EF
  8
0
 62
     0
 10
165.59201204038979
 20
94.623283436259669
 30
0.0
 11
164.99197824554699
 21
95.223317231102442
 31
0.0
  0
LINE
  5
3F0
  8
0
 62
     0
 10
167.12976535637199
 20
93.085530120277426
 30
0.0
 11
166.6436472383611
 21
93.571648238288375
 31
0.0
  0
LINE
  5
3F1
  8
0
 62
     0
 10
174.2487494383318
 20
84.552332475944553
 30
0.0
 11
166.0021646831739
 21
92.798917231102436
 31
0.0
  0
LINE
  5
3F2
  8
0
 62
     0
 10
162.7292246831739
 20
96.071857231102442
 30
0.0
 11
159.62707582743641
 21
99.174006086839896
 31
0.0
  0
LINE
  5
3F3
  8
0
 62
     0
 10
165.2931535496671
 20
93.507928364609285
 30
0.0
 11
164.608134683174
 21
94.192947231102323
 31
0.0
  0
LINE
  5
3F4
  8
0
 62
     0
 10
164.123254683174
 20
94.677827231102313
 30
0.0
 11
163.57776468317391
 21
95.223317231102442
 31
0.0
  0
LINE
  5
3F5
  8
0
 62
     0
 10
172.88795112080081
 20
84.498917231102425
 30
0.0
 11
164.42067586005101
 21
92.966192491852297
 31
0.0
  0
LINE
  5
3F6
  8
0
 62
     0
 10
161.83938946503031
 20
95.54747888687298
 30
0.0
 11
159.5736605825943
 21
97.813207769308946
 31
0.0
  0
LINE
  5
3F7
  8
0
 62
     0
 10
163.73941112080081
 20
93.647457231102464
 30
0.0
 11
163.19392112080089
 21
94.192947231102323
 31
0.0
  0
LINE
  5
3F8
  8
0
 62
     0
 10
171.4737375584277
 20
84.498917231102425
 30
0.0
 11
163.17373755842769
 21
92.798917231102436
 31
0.0
  0
LINE
  5
3F9
  8
0
 62
     0
 10
161.54053097430759
 20
94.432123815222553
 30
0.0
 11
159.5736605825943
 21
96.398994206935839
 31
0.0
  0
LINE
  5
3FA
  8
0
 62
     0
 10
170.05952399605459
 20
84.498917231102425
 30
0.0
 11
161.75952399605461
 21
92.798917231102436
 31
0.0
  0
LINE
  5
3FB
  8
0
 62
     0
 10
161.24167248358501
 20
93.316768743572126
 30
0.0
 11
159.5736605825943
 21
94.984780644562733
 31
0.0
  0
LINE
  5
3FC
  8
0
 62
     0
 10
168.64531043368149
 20
84.498917231102425
 30
0.0
 11
159.5736605825943
 21
93.570567082189655
 31
0.0
  0
LINE
  5
3FD
  8
0
 62
     0
 10
167.23109687130841
 20
84.498917231102425
 30
0.0
 11
159.5736605825943
 21
92.156353519816548
 31
0.0
  0
LINE
  5
3FE
  8
0
 62
     0
 10
165.66859182830439
 20
84.647208711733313
 30
0.0
 11
159.72195206322519
 21
90.593848476812553
 31
0.0
  0
LINE
  5
3FF
  8
0
 62
     0
 10
178.41834560609311
 20
87.453804120048702
 30
0.0
 11
173.07323249503941
 21
92.798917231102436
 31
0.0
  0
LINE
  5
400
  8
0
 62
     0
 10
165.54613692508519
 20
100.32601280105661
 30
0.0
 11
162.52854747154061
 21
103.34360225460119
 31
0.0
  0
LINE
  5
401
  8
0
 62
     0
 10
172.88623407512051
 20
92.985915651021287
 30
0.0
 11
172.14122519295299
 21
93.730924533188798
 31
0.0
  0
LINE
  5
402
  8
0
 62
     0
 10
169.8002924950394
 20
96.071857231102442
 30
0.0
 11
167.1507561525485
 21
98.721393573593303
 31
0.0
  0
LINE
  5
403
  8
0
 62
     0
 10
171.08958999498171
 20
94.782559731160163
 30
0.0
 11
170.5159707960882
 21
95.356178930053645
 31
0.0
  0
LINE
  5
404
  8
0
 62
     0
 10
179.05811883657461
 20
88.228244451940355
 30
0.0
 11
174.1339798423904
 21
93.15238344612456
 31
0.0
  0
LINE
  5
405
  8
0
 62
     0
 10
165.51562157455589
 20
101.770741713959
 30
0.0
 11
163.3029878034323
 21
103.9833754850826
 31
0.0
  0
LINE
  5
406
  8
0
 62
     0
 10
172.55064670355529
 20
94.735716584959633
 30
0.0
 11
172.44008368367571
 21
94.846279604839197
 31
0.0
  0
LINE
  5
407
  8
0
 62
     0
 10
171.3884484857044
 20
95.897914802810547
 30
0.0
 11
168.6874460574125
 21
98.598917231102433
 31
0.0
  0
LINE
  5
408
  8
0
 62
     0
 10
179.63302360115139
 20
89.067553249736605
 30
0.0
 11
175.90165961978559
 21
92.798917231102436
 31
0.0
  0
LINE
  5
409
  8
0
 62
     0
 10
166.00224002490489
 20
102.69833682598311
 30
0.0
 11
164.14229660122851
 21
104.5582802496594
 31
0.0
  0
LINE
  5
40A
  8
0
 62
     0
 10
175.088935108367
 20
93.611641742521016
 30
0.0
 11
173.9850734847418
 21
94.715503366146166
 31
0.0
  0
LINE
  5
40B
  8
0
 62
     0
 10
171.68730697642701
 20
97.013269874460946
 30
0.0
 11
170.10165961978561
 21
98.598917231102433
 31
0.0
  0
LINE
  5
40C
  8
0
 62
     0
 10
173.25775348474181
 20
95.442823366146143
 30
0.0
 11
172.7389421743984
 21
95.961634676489609
 31
0.0
  0
LINE
  5
40D
  8
0
 62
     0
 10
180.1396507797734
 20
89.975139633487714
 30
0.0
 11
176.52866651380711
 21
93.586123899453995
 31
0.0
  0
LINE
  5
40E
  8
0
 62
     0
 10
166.78846741192569
 20
103.3263230013354
 30
0.0
 11
165.0498829849796
 21
105.0649074282815
 31
0.0
  0
LINE
  5
40F
  8
0
 62
     0
 10
175.6104734347723
 20
94.504316978488816
 30
0.0
 11
174.69218026592841
 21
95.422610147332719
 31
0.0
  0
LINE
  5
410
  8
0
 62
     0
 10
174.04293318215869
 20
96.071857231102456
 30
0.0
 11
171.51587318215871
 21
98.598917231102433
 31
0.0
  0
LINE
  5
411
  8
0
 62
     0
 10
180.57235441134461
 20
90.956649564289606
 30
0.0
 11
178.73008674453169
 21
92.798917231102436
 31
0.0
  0
LINE
  5
412
  8
0
 62
     0
 10
167.93008674453179
 20
103.5989172311024
 30
0.0
 11
166.03139291578151
 21
105.4976110598527
 31
0.0
  0
LINE
  5
413
  8
0
 62
     0
 10
177.21483674453179
 20
94.314167231102445
 30
0.0
 11
177.0502048402125
 21
94.478799135421724
 31
0.0
  0
LINE
  5
414
  8
0
 62
     0
 10
176.13201176117761
 20
95.396992214456603
 30
0.0
 11
172.8502820860993
 21
98.678721889534913
 31
0.0
  0
LINE
  5
415
  8
0
 62
     0
 10
180.5736605825943
 20
92.369556955412989
 30
0.0
 11
178.922576132237
 21
94.020641405770235
 31
0.0
  0
LINE
  5
416
  8
0
 62
     0
 10
169.34430030690481
 20
103.5989172311024
 30
0.0
 11
167.44430030690481
 21
105.4989172311024
 31
0.0
  0
LINE
  5
417
  8
0
 62
     0
 10
176.8713603069049
 20
96.071857231102456
 30
0.0
 11
173.79154166567679
 21
99.151675872330486
 31
0.0
  0
LINE
  5
418
  8
0
 62
     0
 10
180.5736605825943
 20
93.783770517786067
 30
0.0
 11
178.8553364150689
 21
95.502094685311448
 31
0.0
  0
LINE
  5
419
  8
0
 62
     0
 10
170.758513869278
 20
103.5989172311024
 30
0.0
 11
168.85851386927791
 21
105.4989172311024
 31
0.0
  0
LINE
  5
41A
  8
0
 62
     0
 10
178.28557386927801
 20
96.071857231102456
 30
0.0
 11
174.43143324635921
 21
99.925997854021205
 31
0.0
  0
LINE
  5
41B
  8
0
 62
     0
 10
180.5736605825943
 20
95.197984080159145
 30
0.0
 11
174.72315200337701
 21
101.04849265937639
 31
0.0
  0
LINE
  5
41C
  8
0
 62
     0
 10
172.172727431651
 20
103.5989172311024
 30
0.0
 11
170.27272743165099
 21
105.4989172311024
 31
0.0
  0
LINE
  5
41D
  8
0
 62
     0
 10
180.5736605825943
 20
96.612197642532252
 30
0.0
 11
171.6869409940241
 21
105.4989172311024
 31
0.0
  0
LINE
  5
41E
  8
0
 62
     0
 10
180.5736605825943
 20
98.026411204905358
 30
0.0
 11
173.10115455639729
 21
105.4989172311024
 31
0.0
  0
LINE
  5
41F
  8
0
 62
     0
 10
180.27720422987559
 20
99.737081119997185
 30
0.0
 11
174.8118244714891
 21
105.2024608783837
 31
0.0
  0
ENDBLK
  5
421
  8
0
  0
BLOCK
  8
0
  2
*X6
 70
     1
 10
0.0
 20
0.0
 30
0.0
  3
*X6
  1

  0
LINE
  5
423
  8
0
 62
     0
 10
159.57354582265549
 20
87.448654141627742
 30
0.0
 11
164.9238089121302
 21
92.798917231102436
 31
0.0
  0
LINE
  5
424
  8
0
 62
     0
 10
172.43629649533119
 20
100.3114048143034
 30
0.0
 11
175.4638345283808
 21
103.338942847353
 31
0.0
  0
LINE
  5
425
  8
0
 62
     0
 10
168.22380891213021
 20
96.098917231102433
 30
0.0
 11
170.85108385570521
 21
98.726192174677365
 31
0.0
  0
LINE
  5
426
  8
0
 62
     0
 10
158.93333026628261
 20
88.222652147627855
 30
0.0
 11
163.50959534975721
 21
92.798917231102436
 31
0.0
  0
LINE
  5
427
  8
0
 62
     0
 10
172.4737399008996
 20
101.7630617822449
 30
0.0
 11
174.68983652238069
 21
103.979158403726
 31
0.0
  0
LINE
  5
428
  8
0
 62
     0
 10
166.8095953497571
 20
96.098917231102433
 30
0.0
 11
169.3095953497571
 21
98.598917231102433
 31
0.0
  0
LINE
  5
429
  8
0
 62
     0
 10
158.35796604958131
 20
89.061501493299716
 30
0.0
 11
162.09538178738401
 21
92.798917231102436
 31
0.0
  0
LINE
  5
42A
  8
0
 62
     0
 10
171.98944123584661
 20
102.69297667956489
 30
0.0
 11
173.8509871767088
 21
104.55452262042721
 31
0.0
  0
LINE
  5
42B
  8
0
 62
     0
 10
165.39538178738411
 20
96.098917231102433
 30
0.0
 11
167.89538178738411
 21
98.598917231102433
 31
0.0
  0
LINE
  5
42C
  8
0
 62
     0
 10
157.85084881408591
 20
89.968597820177322
 30
0.0
 11
160.68116822501099
 21
92.798917231102436
 31
0.0
  0
LINE
  5
42D
  8
0
 62
     0
 10
171.20525450437
 20
103.3230035104614
 30
0.0
 11
172.94389084983121
 21
105.06163985592271
 31
0.0
  0
LINE
  5
42E
  8
0
 62
     0
 10
163.981168225011
 20
96.098917231102433
 30
0.0
 11
166.481168225011
 21
98.598917231102433
 31
0.0
  0
LINE
  5
42F
  8
0
 62
     0
 10
157.41760651859721
 20
90.949569087061818
 30
0.0
 11
159.41357143890619
 21
92.945534007370725
 31
0.0
  0
LINE
  5
430
  8
0
 62
     0
 10
170.0669523764891
 20
103.59891494495361
 30
0.0
 11
171.96291958294671
 21
105.4948821514113
 31
0.0
  0
LINE
  5
431
  8
0
 62
     0
 10
162.5669546626379
 20
96.098917231102433
 30
0.0
 11
165.14475253219911
 21
98.676715100663699
 31
0.0
  0
LINE
  5
432
  8
0
 62
     0
 10
157.4135714389061
 20
92.359747569743774
 30
0.0
 11
159.41357143890619
 21
94.359747569743789
 31
0.0
  0
LINE
  5
433
  8
0
 62
     0
 10
168.65274110026479
 20
103.5989172311024
 30
0.0
 11
170.5527411002648
 21
105.4989172311024
 31
0.0
  0
LINE
  5
434
  8
0
 62
     0
 10
161.15274110026479
 20
96.098917231102433
 30
0.0
 11
164.20113130002201
 21
99.147307430859641
 31
0.0
  0
LINE
  5
435
  8
0
 62
     0
 10
157.4135714389061
 20
93.773961132116881
 30
0.0
 11
159.4135714389061
 21
95.773961132116895
 31
0.0
  0
LINE
  5
436
  8
0
 62
     0
 10
167.23852753789171
 20
103.5989172311024
 30
0.0
 11
169.13852753789169
 21
105.4989172311024
 31
0.0
  0
LINE
  5
437
  8
0
 62
     0
 10
159.73852753789171
 20
96.098917231102433
 30
0.0
 11
163.55920988304379
 21
99.919599576254498
 31
0.0
  0
LINE
  5
438
  8
0
 62
     0
 10
157.4135714389061
 20
95.188174694489945
 30
0.0
 11
163.26429206862889
 21
101.0388953242127
 31
0.0
  0
LINE
  5
439
  8
0
 62
     0
 10
165.82431397551861
 20
103.5989172311024
 30
0.0
 11
167.72431397551861
 21
105.4989172311024
 31
0.0
  0
LINE
  5
43A
  8
0
 62
     0
 10
157.4135714389061
 20
96.602388256863065
 30
0.0
 11
166.31010041314551
 21
105.4989172311024
 31
0.0
  0
LINE
  5
43B
  8
0
 62
     0
 10
157.4135714389061
 20
98.016601819236143
 30
0.0
 11
164.8958868507724
 21
105.4989172311024
 31
0.0
  0
LINE
  5
43C
  8
0
 62
     0
 10
157.70156074640479
 20
99.718804689107884
 30
0.0
 11
163.19368398090069
 21
105.2109279236038
 31
0.0
  0
LINE
  5
43D
  8
0
 62
     0
 10
160.27697533170669
 20
86.737870088305854
 30
0.0
 11
166.3380224745033
 21
92.798917231102436
 31
0.0
  0
LINE
  5
43E
  8
0
 62
     0
 10
169.63802247450329
 20
96.098917231102433
 30
0.0
 11
176.1746185817027
 21
102.63551333830181
 31
0.0
  0
LINE
  5
43F
  8
0
 62
     0
 10
161.04353040002431
 20
86.090211594250349
 30
0.0
 11
167.75223603687641
 21
92.798917231102436
 31
0.0
  0
LINE
  5
440
  8
0
 62
     0
 10
171.05223603687639
 20
96.098917231102433
 30
0.0
 11
176.82227707575819
 21
101.8689582699842
 31
0.0
  0
LINE
  5
441
  8
0
 62
     0
 10
161.87466068134
 20
85.507128313192865
 30
0.0
 11
169.16644959924949
 21
92.798917231102436
 31
0.0
  0
LINE
  5
442
  8
0
 62
     0
 10
172.4664495992495
 20
96.098917231102433
 30
0.0
 11
177.40536035681569
 21
101.0378279886686
 31
0.0
  0
LINE
  5
443
  8
0
 62
     0
 10
162.77353792584259
 20
84.991791995322487
 30
0.0
 11
170.5806631616226
 21
92.798917231102436
 31
0.0
  0
LINE
  5
444
  8
0
 62
     0
 10
173.88066316162261
 20
96.098917231102433
 30
0.0
 11
177.9206966746861
 21
100.1389507441659
 31
0.0
  0
LINE
  5
445
  8
0
 62
     0
 10
163.7454929344681
 20
84.549533441574866
 30
0.0
 11
171.9948767239957
 21
92.798917231102436
 31
0.0
  0
LINE
  5
446
  8
0
 62
     0
 10
175.29487672399571
 20
96.098917231102433
 30
0.0
 11
178.36295522843369
 21
99.166995735540439
 31
0.0
  0
LINE
  5
447
  8
0
 62
     0
 10
165.1090902863688
 20
84.498917231102425
 30
0.0
 11
173.40909028636881
 21
92.798917231102436
 31
0.0
  0
LINE
  5
448
  8
0
 62
     0
 10
176.41357143890619
 20
95.803398383639774
 30
0.0
 11
178.4135714389061
 21
97.803398383639745
 31
0.0
  0
LINE
  5
449
  8
0
 62
     0
 10
166.5233038487419
 20
84.498917231102425
 30
0.0
 11
174.82330384874189
 21
92.798917231102436
 31
0.0
  0
LINE
  5
44A
  8
0
 62
     0
 10
176.41357143890619
 20
94.389184821266653
 30
0.0
 11
178.4135714389061
 21
96.389184821266653
 31
0.0
  0
LINE
  5
44B
  8
0
 62
     0
 10
167.93751741111501
 20
84.498917231102425
 30
0.0
 11
176.23751741111499
 21
92.798917231102436
 31
0.0
  0
LINE
  5
44C
  8
0
 62
     0
 10
176.41357143890619
 20
92.974971258893589
 30
0.0
 11
178.4135714389061
 21
94.974971258893561
 31
0.0
  0
LINE
  5
44D
  8
0
 62
     0
 10
169.35173097348809
 20
84.498917231102425
 30
0.0
 11
178.4135714389061
 21
93.560757696520497
 31
0.0
  0
LINE
  5
44E
  8
0
 62
     0
 10
170.76594453586119
 20
84.498917231102425
 30
0.0
 11
178.4135714389061
 21
92.146544134147405
 31
0.0
  0
LINE
  5
44F
  8
0
 62
     0
 10
172.33574511409191
 20
84.65450424696003
 30
0.0
 11
178.25798442304861
 21
90.576743555916678
 31
0.0
  0
LINE
  5
450
  8
0
 62
     0
 10
175.2011257534844
 20
86.428383285538047
 30
0.0
 11
168.83059180792009
 21
92.798917231102436
 31
0.0
  0
LINE
  5
451
  8
0
 62
     0
 10
165.5305918079201
 20
96.098917231102433
 30
0.0
 11
159.3430374933418
 21
102.2864715456807
 31
0.0
  0
LINE
  5
452
  8
0
 62
     0
 10
174.40477950939939
 20
85.810515967250083
 30
0.0
 11
167.41637824554701
 21
92.798917231102436
 31
0.0
  0
LINE
  5
453
  8
0
 62
     0
 10
164.116378245547
 20
96.098917231102433
 30
0.0
 11
158.72517017505379
 21
101.4901253015956
 31
0.0
  0
LINE
  5
454
  8
0
 62
     0
 10
173.54261487679329
 20
85.258467037483072
 30
0.0
 11
166.0021646831739
 21
92.798917231102436
 31
0.0
  0
LINE
  5
455
  8
0
 62
     0
 10
162.70216468317389
 20
96.098917231102433
 30
0.0
 11
158.17312124528681
 21
100.6279606689896
 31
0.0
  0
LINE
  5
456
  8
0
 62
     0
 10
172.6105287041795
 20
84.776339647723773
 30
0.0
 11
164.5879511208008
 21
92.798917231102436
 31
0.0
  0
LINE
  5
457
  8
0
 62
     0
 10
161.28795112080081
 20
96.098917231102433
 30
0.0
 11
157.69099385552749
 21
99.695874496375794
 31
0.0
  0
LINE
  5
458
  8
0
 62
     0
 10
171.4737375584277
 20
84.498917231102425
 30
0.0
 11
163.17373755842769
 21
92.798917231102436
 31
0.0
  0
LINE
  5
459
  8
0
 62
     0
 10
159.87373755842779
 20
96.098917231102433
 30
0.0
 11
157.4135714389061
 21
98.559083350624036
 31
0.0
  0
LINE
  5
45A
  8
0
 62
     0
 10
170.05952399605459
 20
84.498917231102425
 30
0.0
 11
161.75952399605461
 21
92.798917231102436
 31
0.0
  0
LINE
  5
45B
  8
0
 62
     0
 10
159.4135714389061
 20
95.144869788250901
 30
0.0
 11
157.4135714389061
 21
97.144869788250915
 31
0.0
  0
LINE
  5
45C
  8
0
 62
     0
 10
168.64531043368149
 20
84.498917231102425
 30
0.0
 11
160.3453104336815
 21
92.798917231102436
 31
0.0
  0
LINE
  5
45D
  8
0
 62
     0
 10
159.41357143890619
 20
93.730656225877794
 30
0.0
 11
157.4135714389061
 21
95.730656225877851
 31
0.0
  0
LINE
  5
45E
  8
0
 62
     0
 10
167.23109687130841
 20
84.498917231102425
 30
0.0
 11
157.4135714389061
 21
94.316442663504745
 31
0.0
  0
LINE
  5
45F
  8
0
 62
     0
 10
165.8168833089353
 20
84.498917231102425
 30
0.0
 11
157.4135714389061
 21
92.902229101131667
 31
0.0
  0
LINE
  5
460
  8
0
 62
     0
 10
164.4026697465622
 20
84.498917231102425
 30
0.0
 11
157.4135714389061
 21
91.48801553875856
 31
0.0
  0
LINE
  5
461
  8
0
 62
     0
 10
162.14978389667169
 20
85.337589518619893
 30
0.0
 11
158.25224372642359
 21
89.235129688867985
 31
0.0
  0
LINE
  5
462
  8
0
 62
     0
 10
175.9338690653058
 20
87.109853536089773
 30
0.0
 11
170.24480537029319
 21
92.798917231102436
 31
0.0
  0
LINE
  5
463
  8
0
 62
     0
 10
166.94480537029321
 20
96.098917231102433
 30
0.0
 11
160.02450774389339
 21
103.01921485750211
 31
0.0
  0
LINE
  5
464
  8
0
 62
     0
 10
176.60362731289871
 20
87.854308850870027
 30
0.0
 11
171.6590189326663
 21
92.798917231102436
 31
0.0
  0
LINE
  5
465
  8
0
 62
     0
 10
163.26532766644641
 20
101.1926084973224
 30
0.0
 11
160.76896305867371
 21
103.688973105095
 31
0.0
  0
LINE
  5
466
  8
0
 62
     0
 10
168.35901893266629
 20
96.098917231102433
 30
0.0
 11
165.85901893266629
 21
98.598917231102433
 31
0.0
  0
LINE
  5
467
  8
0
 62
     0
 10
177.20949764244921
 20
88.662652083692592
 30
0.0
 11
173.07323249503941
 21
92.798917231102436
 31
0.0
  0
LINE
  5
468
  8
0
 62
     0
 10
163.57140249906911
 20
102.3007472270727
 30
0.0
 11
161.57730629149631
 21
104.2948434346455
 31
0.0
  0
LINE
  5
469
  8
0
 62
     0
 10
169.77323249503939
 20
96.098917231102433
 30
0.0
 11
167.27323249503939
 21
98.598917231102433
 31
0.0
  0
LINE
  5
46A
  8
0
 62
     0
 10
177.74894356878741
 20
89.537419719727524
 30
0.0
 11
174.48744605741251
 21
92.798917231102436
 31
0.0
  0
LINE
  5
46B
  8
0
 62
     0
 10
164.22049234454749
 20
103.0658709439674
 30
0.0
 11
162.45207392753119
 21
104.8342893609837
 31
0.0
  0
LINE
  5
46C
  8
0
 62
     0
 10
171.1874460574125
 20
96.098917231102433
 30
0.0
 11
168.6874460574125
 21
98.598917231102433
 31
0.0
  0
LINE
  5
46D
  8
0
 62
     0
 10
178.2174575521282
 20
90.483119298759803
 30
0.0
 11
175.90165961978551
 21
92.798917231102436
 31
0.0
  0
LINE
  5
46E
  8
0
 62
     0
 10
165.17253011460011
 20
103.52804673628791
 30
0.0
 11
163.39777350656351
 21
105.3028033443244
 31
0.0
  0
LINE
  5
46F
  8
0
 62
     0
 10
172.60165961978549
 20
96.098917231102433
 30
0.0
 11
170.10137379974989
 21
98.599203051138119
 31
0.0
  0
LINE
  5
470
  8
0
 62
     0
 10
178.4135714389061
 20
91.701218974354944
 30
0.0
 11
176.41357143890619
 21
93.701218974354944
 31
0.0
  0
LINE
  5
471
  8
0
 62
     0
 10
166.51587318215871
 20
103.5989172311024
 30
0.0
 11
164.61587318215871
 21
105.4989172311024
 31
0.0
  0
LINE
  5
472
  8
0
 62
     0
 10
174.01587318215871
 20
96.098917231102433
 30
0.0
 11
171.2280890037309
 21
98.88670140953019
 31
0.0
  0
LINE
  5
473
  8
0
 62
     0
 10
178.4135714389061
 20
93.115432536728051
 30
0.0
 11
176.41357143890619
 21
95.115432536728036
 31
0.0
  0
LINE
  5
474
  8
0
 62
     0
 10
167.93008674453179
 20
103.5989172311024
 30
0.0
 11
166.03008674453179
 21
105.4989172311024
 31
0.0
  0
LINE
  5
475
  8
0
 62
     0
 10
175.43008674453179
 20
96.098917231102433
 30
0.0
 11
172.0050715757597
 21
99.523932399874582
 31
0.0
  0
LINE
  5
476
  8
0
 62
     0
 10
178.4135714389061
 20
94.529646099101157
 30
0.0
 11
172.48110684390679
 21
100.4621106941005
 31
0.0
  0
LINE
  5
477
  8
0
 62
     0
 10
169.3443003069049
 20
103.5989172311024
 30
0.0
 11
167.44430030690481
 21
105.4989172311024
 31
0.0
  0
LINE
  5
478
  8
0
 62
     0
 10
178.4135714389061
 20
95.943859661474235
 30
0.0
 11
172.4180669051253
 21
101.9393641952551
 31
0.0
  0
LINE
  5
479
  8
0
 62
     0
 10
170.90401840305881
 20
103.4534126973216
 30
0.0
 11
168.85851386927791
 21
105.4989172311024
 31
0.0
  0
LINE
  5
47A
  8
0
 62
     0
 10
178.4135714389061
 20
97.358073223847313
 30
0.0
 11
170.27272743165099
 21
105.4989172311024
 31
0.0
  0
LINE
  5
47B
  8
0
 62
     0
 10
178.4135714389061
 20
98.77228678622042
 30
0.0
 11
171.6869409940241
 21
105.4989172311024
 31
0.0
  0
LINE
  5
47C
  8
0
 62
     0
 10
177.08257391782701
 20
101.5174978696726
 30
0.0
 11
174.4321520774763
 21
104.1679197100233
 31
0.0
  0
ENDBLK
  5
47E
  8
0
  0
ENDSEC
  0
SECTION
  2
ENTITIES
  0
LINE
  5
5D
  8
0
 10
307.97463224682508
 20
120.7575069451526
 30
0.0
 11
304.46347773069789
 21
120.7575069451526
 31
0.0
  0
LINE
  5
5E
  8
0
 10
286.03532201762027
 20
123.7575069451522
 30
0.0
 11
289.54647805465891
 21
123.7575069451522
 31
0.0
  0
LINE
  5
5F
  8
0
 10
286.03532201762022
 20
123.7575069451522
 30
0.0
 11
286.03532201762022
 21
120.7575069451526
 31
0.0
  0
LINE
  5
60
  8
0
 10
307.97463224682508
 20
123.7575069451522
 30
0.0
 11
307.97463224682508
 21
120.7575069451526
 31
0.0
  0
LINE
  5
61
  8
0
 10
304.00497819958878
 20
115.257506945152
 30
0.0
 11
290.6804216978943
 21
115.257506945152
 31
0.0
  0
LINE
  5
62
  8
0
 10
289.00497713222268
 20
128.75750694515179
 30
0.0
 11
289.00497713222268
 21
117.757506945152
 31
0.0
  0
LINE
  5
63
  8
0
 10
305.00497713222268
 20
128.75750694515179
 30
0.0
 11
305.00497713222268
 21
117.757506945152
 31
0.0
  0
LINE
  5
64
  8
0
 10
286.50497713222268
 20
128.2575069451519
 30
0.0
 11
286.50497713222268
 21
128.75750694515179
 31
0.0
  0
LINE
  5
65
  8
0
 10
307.50497713222262
 20
128.2575069451519
 30
0.0
 11
307.50497713222262
 21
128.75750694515179
 31
0.0
  0
LINE
  5
66
  8
0
 10
286.50497713222262
 20
128.2575069451519
 30
0.0
 11
289.00497713222268
 21
128.2575069451519
 31
0.0
  0
LINE
  5
67
  8
0
 10
286.00497713222268
 20
128.75750694515179
 30
0.0
 11
289.546477969406
 21
128.75750694515179
 31
0.0
  0
LINE
  5
68
  8
0
 10
306.00497713222359
 20
131.75750694515159
 30
0.0
 11
288.00497713222182
 21
131.75750694515159
 31
0.0
  0
LINE
  5
69
  8
0
 10
286.00497713222268
 20
128.75750694515179
 30
0.0
 11
286.00497713222268
 21
129.75750694515179
 31
0.0
  0
LINE
  5
6A
  8
0
 10
286.00497713222268
 20
129.75750694515179
 30
0.0
 11
288.00497713222182
 21
131.75750694515159
 31
0.0
  0
LINE
  5
6B
  8
0
 10
308.00497713222262
 20
129.75750694515179
 30
0.0
 11
306.00497713222359
 21
131.75750694515159
 31
0.0
  0
LINE
  5
6C
  8
0
 10
308.00497713222262
 20
128.75750694515179
 30
0.0
 11
308.00497713222262
 21
129.75750694515179
 31
0.0
  0
LINE
  5
6D
  8
1
 10
297.00497819958878
 20
108.257506945152
 30
0.0
 11
297.00497768508018
 21
148.25750529334201
 31
0.0
  0
LINE
  5
6E
  8
0
 10
64.430039532969218
 20
120.7575036039898
 30
0.0
 11
83.430039532968976
 21
120.7575042519118
 31
0.0
  0
LINE
  5
6F
  8
0
 10
83.430039430665545
 20
123.7575042519113
 30
0.0
 11
64.430039430665744
 21
123.75750360398941
 31
0.0
  0
LINE
  5
70
  8
0
 10
83.430039430665545
 20
123.7575042519113
 30
0.0
 11
83.430039532968976
 21
120.7575042519118
 31
0.0
  0
LINE
  5
71
  8
0
 10
64.430039430665744
 20
123.75750360398941
 30
0.0
 11
64.430039532969218
 21
120.7575036039898
 31
0.0
  0
LINE
  5
72
  8
0
 10
73.930039430665644
 20
123.7575039279503
 30
0.0
 11
73.930039532969104
 21
120.75750392795079
 31
0.0
  0
CIRCLE
  5
73
  8
0
 10
126.63675370781441
 20
55.913082484720348
 30
0.0
 40
7.0000010673660711
  0
ARC
  5
74
  8
0
 10
126.63675370781441
 20
55.913082484720348
 30
0.0
 40
8.0
 50
343.95502437185343
 51
16.044975628135539
  0
LINE
  5
75
  8
0
 10
132.121581265115
 20
65.413082484720206
 30
0.0
 11
121.1519261505137
 21
65.413082484720206
 31
0.0
  0
LINE
  5
76
  8
0
 10
132.121581265115
 20
46.413082484720512
 30
0.0
 11
121.1519261505137
 21
46.413082484720491
 31
0.0
  0
LINE
  5
77
  8
0
 10
132.121581265115
 20
65.413082484720206
 30
0.0
 11
137.60640882241691
 21
55.913082484720348
 31
0.0
  0
LINE
  5
78
  8
0
 10
137.60640882241691
 20
55.913082484720348
 30
0.0
 11
132.121581265115
 21
46.413082484720491
 31
0.0
  0
LINE
  5
79
  8
0
 10
121.1519261505138
 20
65.413082484720206
 30
0.0
 11
115.6670985932119
 21
55.913082484720348
 31
0.0
  0
LINE
  5
7A
  8
0
 10
115.6670985932119
 20
55.913082484720348
 30
0.0
 11
121.1519261505138
 21
46.413082484720491
 31
0.0
  0
CIRCLE
  5
7B
  8
0
 10
126.63675370781441
 20
55.913082484720348
 30
0.0
 40
11.0
  0
LINE
  5
7C
  8
0
 10
305.00497713222268
 20
128.2575069451519
 30
0.0
 11
307.50497713222262
 21
128.2575069451519
 31
0.0
  0
LINE
  5
7D
  8
0
 10
305.00497713222268
 20
117.757506945152
 30
0.0
 11
304.00497819958878
 21
117.757506945152
 31
0.0
  0
LINE
  5
7E
  8
0
 10
290.00497819958878
 20
117.257506945152
 30
0.0
 11
290.00497819958878
 21
117.757506945152
 31
0.0
  0
LINE
  5
7F
  8
0
 10
304.00497819958878
 20
115.257506945152
 30
0.0
 11
304.00497819958878
 21
117.757506945152
 31
0.0
  0
LINE
  5
80
  8
0
 10
290.00497819958878
 20
117.757506945152
 30
0.0
 11
289.00497713222268
 21
117.757506945152
 31
0.0
  0
LINE
  5
81
  8
3
 10
289.5464781143358
 20
117.757506945152
 30
0.0
 11
289.546477969406
 21
128.75750694515179
 31
0.0
  0
LINE
  5
82
  8
0
 10
308.0049787042858
 20
128.75750694515179
 30
0.0
 11
304.46347786710248
 21
128.75750694515179
 31
0.0
  0
LINE
  5
83
  8
3
 10
304.46347772217263
 20
117.757506945152
 30
0.0
 11
304.46347786710248
 21
128.75750694515179
 31
0.0
  0
LINE
  5
84
  8
0
 10
304.46347778184969
 20
123.7575069451522
 30
0.0
 11
307.97463224682508
 21
123.7575069451522
 31
0.0
  0
LINE
  5
85
  8
0
 10
289.54647810581059
 20
120.7575069451526
 30
0.0
 11
286.03532201762027
 21
120.7575069451526
 31
0.0
  0
LINE
  5
86
  8
0
 10
300.00497819958878
 20
113.257506945152
 30
0.0
 11
294.00497819958878
 21
113.257506945152
 31
0.0
  0
LINE
  5
87
  8
0
 10
294.00497819958878
 20
115.257506945152
 30
0.0
 11
294.00497819958878
 21
113.257506945152
 31
0.0
  0
LINE
  5
88
  8
0
 10
300.00497819958878
 20
115.257506945152
 30
0.0
 11
300.00497819958878
 21
113.257506945152
 31
0.0
  0
LINE
  5
89
  8
0
 10
294.35922688852349
 20
115.257506945152
 30
0.0
 11
294.35922688852349
 21
113.257506945152
 31
0.0
  0
LINE
  5
8A
  8
0
 10
299.65072951065412
 20
115.257506945152
 30
0.0
 11
299.65072951065412
 21
113.257506945152
 31
0.0
  0
LINE
  5
8B
  8
3
 10
294.35922688852349
 20
115.257506945152
 30
0.0
 11
299.65072951065412
 21
113.257506945152
 31
0.0
  0
LINE
  5
8C
  8
3
 10
294.35922688852349
 20
113.257506945152
 30
0.0
 11
299.65072951065412
 21
115.257506945152
 31
0.0
  0
INSERT
  5
8D
  8
3
  2
*X0
 10
195.38331162099459
 20
35.04571342925658
 30
0.0
  0
LINE
  5
8E
  8
0
 10
288.50497713222268
 20
128.75750694515179
 30
0.0
 11
288.50497713222268
 21
128.2575069451519
 31
0.0
  0
LINE
  5
8F
  8
0
 10
305.50497713222268
 20
128.75750694515179
 30
0.0
 11
305.50497713222268
 21
128.2575069451519
 31
0.0
  0
INSERT
  5
90
  8
3
  2
*X1
 10
195.38331162099459
 20
35.04571342925658
 30
0.0
  0
LINE
  5
91
  8
1
 10
126.63675370781441
 20
71.913082484720348
 30
0.0
 11
126.63675370781441
 21
39.913082484720363
 31
0.0
  0
ARC
  5
92
  8
0
 10
126.63675370781441
 20
55.913082484720348
 30
0.0
 40
10.5
 50
4.7912347032330542
 51
55.208765296771418
  0
ARC
  5
93
  8
0
 10
126.63675370781441
 20
55.91308248472037
 30
0.0
 40
10.5
 50
64.791234703233059
 51
115.2087652967714
  0
ARC
  5
94
  8
0
 10
126.63675370781441
 20
55.913082484720348
 30
0.0
 40
10.5
 50
124.791234703233
 51
175.20876529677139
  0
ARC
  5
95
  8
0
 10
126.63675370781441
 20
55.913082484720348
 30
0.0
 40
10.5
 50
184.79123470323299
 51
235.20876529677139
  0
ARC
  5
96
  8
0
 10
126.63675370781441
 20
55.91308248472037
 30
0.0
 40
10.5
 50
244.79123470323299
 51
295.20876529677139
  0
ARC
  5
97
  8
0
 10
126.63675370781441
 20
55.913082484720348
 30
0.0
 40
10.5
 50
304.7912347032331
 51
355.20876529677139
  0
ARC
  5
98
  8
3
 10
126.63675370781441
 20
55.913082484720348
 30
0.0
 40
7.4585003667259011
 50
335.19444978522029
 51
24.805550214766981
  0
CIRCLE
  5
99
  8
0
 10
126.63675370781441
 20
55.913082484720348
 30
0.0
 40
5.0
  0
LINE
  5
9A
  8
0
 10
123.63675370781429
 20
58.558833795784508
 30
0.0
 11
123.63675370781429
 21
53.2673311736567
 31
0.0
  0
LINE
  5
9B
  8
0
 10
120.31219720612
 20
52.913082484720299
 30
0.0
 11
122.63675370781461
 21
52.913082484720299
 31
0.0
  0
LINE
  5
9C
  8
0
 10
129.63675370781431
 20
53.267331173655514
 30
0.0
 11
129.63675370781431
 21
58.558833795785212
 31
0.0
  0
LINE
  5
9D
  8
0
 10
129.28250501887931
 20
58.913082484720299
 30
0.0
 11
123.99100239674949
 21
58.913082484720299
 31
0.0
  0
CIRCLE
  5
9E
  8
0
 10
126.63675370781441
 20
55.913082484720348
 30
0.0
 40
2.0669999999999988
  0
CIRCLE
  5
9F
  8
3
 10
126.63675370781441
 20
55.913082484720348
 30
0.0
 40
2.5
  0
LINE
  5
A0
  8
3
 10
123.9910023967491
 20
113.257506945152
 30
0.0
 11
129.2825050188797
 21
115.257506945152
 31
0.0
  0
LINE
  5
A1
  8
3
 10
123.9910023967491
 20
115.257506945152
 30
0.0
 11
129.2825050188797
 21
113.257506945152
 31
0.0
  0
LINE
  5
A2
  8
0
 10
129.2825050188797
 20
115.257506945152
 30
0.0
 11
129.2825050188797
 21
113.257506945152
 31
0.0
  0
LINE
  5
A3
  8
0
 10
123.9910023967491
 20
115.257506945152
 30
0.0
 11
123.9910023967491
 21
113.257506945152
 31
0.0
  0
LINE
  5
A4
  8
0
 10
129.63675370781439
 20
115.257506945152
 30
0.0
 11
129.63675370781439
 21
113.257506945152
 31
0.0
  0
LINE
  5
A5
  8
0
 10
123.63675370781441
 20
115.257506945152
 30
0.0
 11
123.63675370781441
 21
113.257506945152
 31
0.0
  0
LINE
  5
A6
  8
0
 10
129.63675370781439
 20
113.257506945152
 30
0.0
 11
123.63675370781441
 21
113.257506945152
 31
0.0
  0
LINE
  5
A7
  8
0
 10
137.60640775505081
 20
120.7575069451527
 30
0.0
 11
115.6670975258459
 21
120.7575069451526
 31
0.0
  0
LINE
  5
A8
  8
3
 10
134.09525323039821
 20
117.757506945152
 30
0.0
 11
134.0952532389235
 21
120.7575069451527
 31
0.0
  0
LINE
  5
A9
  8
3
 10
119.1782536225615
 20
117.757506945152
 30
0.0
 11
119.17825361403619
 21
120.7575069451527
 31
0.0
  0
LINE
  5
AA
  8
0
 10
134.63675264044829
 20
117.757506945152
 30
0.0
 11
118.63675264044829
 21
117.757506945152
 31
0.0
  0
LINE
  5
AB
  8
0
 10
133.63675370781439
 20
115.257506945152
 30
0.0
 11
133.63675370781439
 21
117.757506945152
 31
0.0
  0
LINE
  5
AC
  8
0
 10
119.63675370781441
 20
117.257506945152
 30
0.0
 11
119.63675370781441
 21
117.757506945152
 31
0.0
  0
LINE
  5
AD
  8
1
 10
126.6367538878924
 20
88.457506945151863
 30
0.0
 11
126.6367538878924
 21
175.58996262316589
 31
0.0
  0
LINE
  5
AE
  8
0
 10
137.63675264044829
 20
128.75750694515179
 30
0.0
 11
137.63675264044829
 21
129.75750694515179
 31
0.0
  0
LINE
  5
AF
  8
0
 10
137.63675264044829
 20
129.75750694515179
 30
0.0
 11
135.6367526404492
 21
131.75750694515159
 31
0.0
  0
LINE
  5
B0
  8
0
 10
115.63675264044829
 20
129.75750694515179
 30
0.0
 11
117.6367526404474
 21
131.75750694515159
 31
0.0
  0
LINE
  5
B1
  8
0
 10
115.63675264044829
 20
128.75750694515179
 30
0.0
 11
115.63675264044829
 21
129.75750694515179
 31
0.0
  0
LINE
  5
B2
  8
0
 10
135.6367526404492
 20
131.75750694515159
 30
0.0
 11
117.6367526404474
 21
131.75750694515159
 31
0.0
  0
LINE
  5
B3
  8
0
 10
115.63675264044829
 20
128.75750694515179
 30
0.0
 11
137.63675264044829
 21
128.75750694515179
 31
0.0
  0
LINE
  5
B4
  8
0
 10
116.13675264044819
 20
128.2575069451519
 30
0.0
 11
137.13675264044829
 21
128.2575069451519
 31
0.0
  0
LINE
  5
B5
  8
0
 10
137.13675264044829
 20
128.2575069451519
 30
0.0
 11
137.13675264044829
 21
128.75750694515179
 31
0.0
  0
LINE
  5
B6
  8
0
 10
116.13675264044829
 20
128.2575069451519
 30
0.0
 11
116.13675264044829
 21
128.75750694515179
 31
0.0
  0
LINE
  5
B7
  8
0
 10
134.63675264044829
 20
128.2575069451519
 30
0.0
 11
134.63675264044829
 21
123.7575069451522
 31
0.0
  0
LINE
  5
B8
  8
0
 10
118.63675264044829
 20
128.2575069451519
 30
0.0
 11
118.63675264044829
 21
123.7575069451522
 31
0.0
  0
LINE
  5
B9
  8
0
 10
133.63675370781439
 20
115.257506945152
 30
0.0
 11
120.31219720612
 21
115.257506945152
 31
0.0
  0
LINE
  5
BA
  8
0
 10
137.60640775505081
 20
123.7575069451522
 30
0.0
 11
137.60640775505081
 21
120.7575069451526
 31
0.0
  0
LINE
  5
BB
  8
0
 10
115.6670975258458
 20
123.7575069451522
 30
0.0
 11
115.6670975258458
 21
120.7575069451526
 31
0.0
  0
LINE
  5
BC
  8
0
 10
115.6670975258459
 20
123.7575069451522
 30
0.0
 11
137.6064077550507
 21
123.7575069451522
 31
0.0
  0
LINE
  5
BD
  8
3
 10
134.09525329007531
 20
123.7575069451522
 30
0.0
 11
134.09525336680281
 21
128.2575069451519
 31
0.0
  0
LINE
  5
BE
  8
0
 10
134.63675264044829
 20
120.7575069451527
 30
0.0
 11
134.63675264044829
 21
117.757506945152
 31
0.0
  0
LINE
  5
BF
  8
0
 10
118.63675264044829
 20
120.7575069451527
 30
0.0
 11
118.63675264044829
 21
117.757506945152
 31
0.0
  0
LINE
  5
C0
  8
3
 10
119.17825356288451
 20
123.7575069451522
 30
0.0
 11
119.1782534861569
 21
128.2575069451519
 31
0.0
  0
LINE
  5
C1
  8
0
 10
121.1519250831476
 20
123.7575069451522
 30
0.0
 11
121.1519250831476
 21
120.7575069451526
 31
0.0
  0
LINE
  5
C2
  8
0
 10
132.1215801977489
 20
123.7575069451522
 30
0.0
 11
132.1215801977489
 21
120.7575069451526
 31
0.0
  0
LINE
  5
C3
  8
0
 10
118.9483934519825
 20
53.7019478039403
 30
0.0
 11
124.4256190270339
 21
48.224722228888972
 31
0.0
  0
LINE
  5
C4
  8
0
 10
128.8478883885945
 20
48.224722228888602
 30
0.0
 11
134.32511396364549
 21
53.701947803939589
 31
0.0
  0
LINE
  5
C5
  8
0
 10
134.32511396364691
 20
58.124217165499282
 30
0.0
 11
128.84788838859399
 21
63.601442740552223
 31
0.0
  0
LINE
  5
C6
  8
0
 10
124.4256190270345
 20
63.601442740551938
 30
0.0
 11
118.9483934519825
 21
58.124217165499942
 31
0.0
  0
ARC
  5
C7
  8
0
 10
126.63675370781441
 20
55.913082484720348
 30
0.0
 40
7.4585003667259011
 50
24.805550214766981
 51
65.194449785232564
  0
ARC
  5
C8
  8
3
 10
126.63675370781441
 20
55.913082484720348
 30
0.0
 40
8.0
 50
16.044975628135539
 51
73.9550243718639
  0
ARC
  5
C9
  8
0
 10
126.63675370781441
 20
55.913082484720348
 30
0.0
 40
7.4585003667259011
 50
114.805550214767
 51
155.19444978523251
  0
ARC
  5
CA
  8
3
 10
126.63675370781441
 20
55.913082484720348
 30
0.0
 40
8.0
 50
106.0449756281355
 51
163.95502437186391
  0
ARC
  5
CB
  8
3
 10
126.63675370781441
 20
55.913082484720348
 30
0.0
 40
7.4585003667259011
 50
65.194449785220343
 51
114.805550214767
  0
ARC
  5
CC
  8
0
 10
126.63675370781441
 20
55.913082484720348
 30
0.0
 40
8.0
 50
73.955024371853384
 51
106.0449756281355
  0
ARC
  5
CD
  8
0
 10
126.63675370781441
 20
55.913082484720341
 30
0.0
 40
7.4585003667259011
 50
204.80555021476701
 51
245.19444978523259
  0
ARC
  5
CE
  8
3
 10
126.63675370781441
 20
55.913082484720341
 30
0.0
 40
8.0
 50
196.04497562813549
 51
253.95502437186391
  0
ARC
  5
CF
  8
3
 10
126.63675370781441
 20
55.913082484720341
 30
0.0
 40
7.4585003667259011
 50
155.19444978522031
 51
204.80555021476701
  0
ARC
  5
D0
  8
0
 10
126.63675370781441
 20
55.913082484720341
 30
0.0
 40
8.0
 50
163.95502437185331
 51
196.04497562813549
  0
ARC
  5
D1
  8
0
 10
126.63675370781441
 20
55.913082484720348
 30
0.0
 40
7.4585003667259011
 50
294.80555021476698
 51
335.19444978523262
  0
ARC
  5
D2
  8
3
 10
126.63675370781441
 20
55.913082484720348
 30
0.0
 40
8.0
 50
286.04497562813549
 51
343.95502437186389
  0
ARC
  5
D3
  8
3
 10
126.63675370781441
 20
55.913082484720348
 30
0.0
 40
7.4585003667259011
 50
245.1944497852204
 51
294.80555021476698
  0
ARC
  5
D4
  8
0
 10
126.63675370781441
 20
55.913082484720348
 30
0.0
 40
8.0
 50
253.9550243718534
 51
286.04497562813549
  0
LINE
  5
D5
  8
0
 10
124.4256190270349
 20
117.757506945152
 30
0.0
 11
124.4256190270349
 21
120.7575069451527
 31
0.0
  0
LINE
  5
D6
  8
0
 10
118.9483934519825
 20
117.757506945152
 30
0.0
 11
118.9483934519825
 21
120.7575069451527
 31
0.0
  0
LINE
  5
D7
  8
3
 10
124.10342928732599
 20
128.2575069451519
 30
0.0
 11
121.89412821503601
 21
123.7575069451522
 31
0.0
  0
LINE
  5
D8
  8
3
 10
119.2705831916914
 20
128.2575069451519
 30
0.0
 11
121.4798842639814
 21
123.7575069451522
 31
0.0
  0
LINE
  5
D9
  8
0
 10
118.9483934519825
 20
123.7575069451522
 30
0.0
 11
118.9483934519825
 21
128.2575069451519
 31
0.0
  0
LINE
  5
DA
  8
0
 10
124.4256190270349
 20
123.7575069451522
 30
0.0
 11
124.4256190270349
 21
128.2575069451519
 31
0.0
  0
LINE
  5
DB
  8
0
 10
134.3251135649021
 20
123.7575069451522
 30
0.0
 11
134.3251135649021
 21
128.2575069451519
 31
0.0
  0
LINE
  5
DC
  8
0
 10
134.3251135649021
 20
117.757506945152
 30
0.0
 11
134.3251135649021
 21
120.7575069451527
 31
0.0
  0
LINE
  5
DD
  8
0
 10
128.84788798984971
 20
117.757506945152
 30
0.0
 11
128.8478879898496
 21
120.7575069451527
 31
0.0
  0
LINE
  5
DE
  8
0
 10
128.84788798984971
 20
123.7575069451522
 30
0.0
 11
128.84788798984971
 21
128.2575069451519
 31
0.0
  0
LINE
  5
DF
  8
3
 10
129.17007772955861
 20
128.2575069451519
 30
0.0
 11
131.3793788018485
 21
123.7575069451522
 31
0.0
  0
LINE
  5
E0
  8
3
 10
134.00292382519319
 20
128.2575069451519
 30
0.0
 11
131.79362275290319
 21
123.7575069451522
 31
0.0
  0
LINE
  5
E1
  8
0
 10
120.31219720612
 20
115.257506945152
 30
0.0
 11
120.31219720612
 21
117.257506945152
 31
0.0
  0
LINE
  5
E2
  8
0
 10
129.63675370781431
 20
115.257506945152
 30
0.0
 11
129.63675370781431
 21
117.257506945152
 31
0.0
  0
LINE
  5
E3
  8
0
 10
129.63675370781431
 20
117.257506945152
 30
0.0
 11
119.63675370781441
 21
117.257506945152
 31
0.0
  0
LINE
  5
E4
  8
0
 10
121.6367535920499
 20
115.257506945152
 30
0.0
 11
121.6367535920499
 21
117.257506945152
 31
0.0
  0
LINE
  5
E5
  8
0
 10
292.00497816548761
 20
117.257506945152
 30
0.0
 11
290.00497819958878
 21
117.257506945152
 31
0.0
  0
LINE
  5
E6
  8
0
 10
290.6804216978943
 20
115.257506945152
 30
0.0
 11
290.6804216978943
 21
117.257506945152
 31
0.0
  0
LINE
  5
E7
  8
0
 10
78.930040521154893
 20
115.257506945152
 30
0.0
 11
78.930040521154879
 21
117.257506945152
 31
0.0
  0
LINE
  5
E8
  8
0
 10
70.930040405390443
 20
117.2575069451518
 30
0.0
 11
80.930040405390329
 21
117.2575069451518
 31
0.0
  0
LINE
  5
E9
  8
0
 10
70.930040405390471
 20
115.257506945152
 30
0.0
 11
70.930040405390443
 21
117.257506945152
 31
0.0
  0
LINE
  5
EA
  8
0
 10
80.254596907084803
 20
115.257506945152
 30
0.0
 11
80.254596907084832
 21
117.257506945152
 31
0.0
  0
LINE
  5
EB
  8
3
 10
66.563870288011543
 20
128.2575069451519
 30
0.0
 11
68.773172927951364
 21
123.7575037520952
 31
0.0
  0
LINE
  5
EC
  8
3
 10
71.396716383646137
 20
128.2575069451519
 30
0.0
 11
69.187413750641682
 21
123.7575037662213
 31
0.0
  0
LINE
  5
ED
  8
0
 10
71.718906123355083
 20
123.7575069451522
 30
0.0
 11
71.718906123355069
 21
128.2575069451519
 31
0.0
  0
LINE
  5
EE
  8
0
 10
71.718906123355083
 20
117.757506945152
 30
0.0
 11
71.718906123355083
 21
120.7575069451527
 31
0.0
  0
LINE
  5
EF
  8
0
 10
66.241680548302654
 20
117.757506945152
 30
0.0
 11
66.241680548302654
 21
120.7575069451527
 31
0.0
  0
LINE
  5
F0
  8
0
 10
66.241680548302654
 20
123.7575069451522
 30
0.0
 11
66.241680548302654
 21
128.2575069451519
 31
0.0
  0
LINE
  5
F1
  8
0
 10
76.141175086169866
 20
123.7575069451522
 30
0.0
 11
76.141175086169866
 21
128.2575069451519
 31
0.0
  0
LINE
  5
F2
  8
0
 10
81.61840066122231
 20
123.7575069451522
 30
0.0
 11
81.61840066122231
 21
128.2575069451519
 31
0.0
  0
LINE
  5
F3
  8
3
 10
81.296210921513364
 20
128.2575069451519
 30
0.0
 11
79.086908454247791
 21
123.7575041038055
 31
0.0
  0
LINE
  5
F4
  8
3
 10
76.463364825878827
 20
128.2575069451519
 30
0.0
 11
78.672667300079624
 21
123.7575040896794
 31
0.0
  0
LINE
  5
F5
  8
0
 10
81.61840066122231
 20
117.757506945152
 30
0.0
 11
81.618400661222296
 21
120.7575069451527
 31
0.0
  0
LINE
  5
F6
  8
0
 10
76.141175086169866
 20
117.757506945152
 30
0.0
 11
76.141175086169838
 21
120.7575069451527
 31
0.0
  0
LINE
  5
F7
  8
3
 10
81.388540550320286
 20
123.7575069451522
 30
0.0
 11
81.388540627047874
 21
128.2575069451519
 31
0.0
  0
LINE
  5
F8
  8
0
 10
81.930041472756486
 20
120.7575069451527
 30
0.0
 11
81.930041472756457
 21
117.757506945152
 31
0.0
  0
LINE
  5
F9
  8
0
 10
65.930041472756415
 20
120.7575069451527
 30
0.0
 11
65.930041472756415
 21
117.757506945152
 31
0.0
  0
LINE
  5
FA
  8
3
 10
66.471540823129502
 20
123.7575069451522
 30
0.0
 11
66.471540746401914
 21
128.2575069451519
 31
0.0
  0
LINE
  5
FB
  8
0
 10
66.930040405390386
 20
115.257506945152
 30
0.0
 11
80.254596907084803
 21
115.257506945152
 31
0.0
  0
LINE
  5
FC
  8
0
 10
81.930041472756457
 20
128.2575069451519
 30
0.0
 11
81.930041472756457
 21
123.7575069451522
 31
0.0
  0
LINE
  5
FD
  8
0
 10
65.930041472756415
 20
128.2575069451519
 30
0.0
 11
65.930041472756415
 21
123.7575069451522
 31
0.0
  0
LINE
  5
FE
  8
0
 10
84.430041472756457
 20
128.2575069451519
 30
0.0
 11
84.430041472756457
 21
128.75750694515179
 31
0.0
  0
LINE
  5
FF
  8
0
 10
63.430041472756422
 20
128.2575069451519
 30
0.0
 11
63.430041472756422
 21
128.75750694515179
 31
0.0
  0
LINE
  5
100
  8
0
 10
84.430041472756557
 20
128.2575069451519
 30
0.0
 11
63.430041472756422
 21
128.2575069451519
 31
0.0
  0
LINE
  5
101
  8
0
 10
84.930041472756457
 20
128.75750694515179
 30
0.0
 11
62.930041472756429
 21
128.75750694515179
 31
0.0
  0
LINE
  5
102
  8
0
 10
84.930041472756457
 20
128.75750694515179
 30
0.0
 11
84.930041472756457
 21
129.75750694515179
 31
0.0
  0
LINE
  5
103
  8
0
 10
84.930041472756457
 20
129.75750694515179
 30
0.0
 11
82.930041472757367
 21
131.75750694515159
 31
0.0
  0
LINE
  5
104
  8
0
 10
62.930041472756429
 20
129.75750694515179
 30
0.0
 11
64.930041472755519
 21
131.75750694515159
 31
0.0
  0
LINE
  5
105
  8
0
 10
62.930041472756429
 20
128.75750694515179
 30
0.0
 11
62.930041472756429
 21
129.75750694515179
 31
0.0
  0
LINE
  5
106
  8
1
 10
73.930040200282193
 20
88.457506945152005
 30
0.0
 11
73.930040919898985
 21
148.25750374981601
 31
0.0
  0
LINE
  5
107
  8
0
 10
66.930040405390386
 20
115.257506945152
 30
0.0
 11
66.930040405390386
 21
117.757506945152
 31
0.0
  0
LINE
  5
108
  8
0
 10
65.930041472756457
 20
117.757506945152
 30
0.0
 11
81.930041472756457
 21
117.757506945152
 31
0.0
  0
LINE
  5
109
  8
3
 10
81.388540490643265
 20
117.757506945152
 30
0.0
 11
81.388540499168542
 21
120.7575069451527
 31
0.0
  0
LINE
  5
10A
  8
3
 10
66.471540882806536
 20
117.757506945152
 30
0.0
 11
66.471540874281217
 21
120.7575069451527
 31
0.0
  0
LINE
  5
10B
  8
0
 10
70.930040405390329
 20
113.257506945152
 30
0.0
 11
76.930040405390358
 21
113.257506945152
 31
0.0
  0
LINE
  5
10C
  8
0
 10
76.930040405390358
 20
115.257506945152
 30
0.0
 11
76.930040405390358
 21
113.257506945152
 31
0.0
  0
LINE
  5
10D
  8
0
 10
70.930040405390329
 20
115.257506945152
 30
0.0
 11
70.930040405390329
 21
113.257506945152
 31
0.0
  0
LINE
  5
10E
  8
0
 10
76.575791716455612
 20
115.257506945152
 30
0.0
 11
76.575791716455612
 21
113.257506945152
 31
0.0
  0
LINE
  5
10F
  8
0
 10
71.284289094325047
 20
115.257506945152
 30
0.0
 11
71.284289094325047
 21
113.257506945152
 31
0.0
  0
LINE
  5
110
  8
3
 10
76.575791716455612
 20
115.257506945152
 30
0.0
 11
71.284289094325047
 21
113.257506945152
 31
0.0
  0
LINE
  5
111
  8
3
 10
76.575791716455612
 20
113.257506945152
 30
0.0
 11
71.284289094325047
 21
115.257506945152
 31
0.0
  0
LINE
  5
112
  8
3
 10
181.23004655863659
 20
113.257506945152
 30
0.0
 11
186.5215491807671
 21
115.257506945152
 31
0.0
  0
LINE
  5
113
  8
3
 10
181.23004655863659
 20
115.257506945152
 30
0.0
 11
186.5215491807671
 21
113.257506945152
 31
0.0
  0
LINE
  5
114
  8
0
 10
186.5215491807671
 20
115.257506945152
 30
0.0
 11
186.5215491807671
 21
113.257506945152
 31
0.0
  0
LINE
  5
115
  8
0
 10
181.23004655863659
 20
115.257506945152
 30
0.0
 11
181.23004655863659
 21
113.257506945152
 31
0.0
  0
LINE
  5
116
  8
0
 10
186.87579786970181
 20
115.257506945152
 30
0.0
 11
186.87579786970181
 21
113.257506945152
 31
0.0
  0
LINE
  5
117
  8
0
 10
180.87579786970181
 20
115.257506945152
 30
0.0
 11
180.87579786970181
 21
113.257506945152
 31
0.0
  0
LINE
  5
118
  8
0
 10
186.87579786970181
 20
113.257506945152
 30
0.0
 11
180.87579786970181
 21
113.257506945152
 31
0.0
  0
LINE
  5
119
  8
3
 10
191.33429739228561
 20
117.757506945152
 30
0.0
 11
191.3342974008109
 21
120.7575069451527
 31
0.0
  0
LINE
  5
11A
  8
3
 10
176.41729778444889
 20
117.757506945152
 30
0.0
 11
176.4172977759236
 21
120.7575069451527
 31
0.0
  0
LINE
  5
11B
  8
0
 10
191.87579680233571
 20
117.757506945152
 30
0.0
 11
175.87579680233571
 21
117.757506945152
 31
0.0
  0
LINE
  5
11C
  8
0
 10
190.87579786970181
 20
115.257506945152
 30
0.0
 11
190.87579786970181
 21
117.757506945152
 31
0.0
  0
LINE
  5
11D
  8
0
 10
176.87579786970181
 20
117.257506945152
 30
0.0
 11
176.87579786970181
 21
117.757506945152
 31
0.0
  0
LINE
  5
11E
  8
0
 10
194.87579680233571
 20
128.75750694515179
 30
0.0
 11
194.87579680233571
 21
129.75750694515179
 31
0.0
  0
LINE
  5
11F
  8
0
 10
194.87579680233571
 20
129.75750694515179
 30
0.0
 11
192.87579680233671
 21
131.75750694515159
 31
0.0
  0
LINE
  5
120
  8
0
 10
172.87579680233571
 20
129.75750694515179
 30
0.0
 11
174.8757968023348
 21
131.75750694515159
 31
0.0
  0
LINE
  5
121
  8
0
 10
172.87579680233571
 20
128.75750694515179
 30
0.0
 11
172.87579680233571
 21
129.75750694515179
 31
0.0
  0
LINE
  5
122
  8
0
 10
192.87579680233671
 20
131.75750694515159
 30
0.0
 11
187.87579756742801
 21
131.75750694515159
 31
0.0
  0
LINE
  5
123
  8
0
 10
172.87579680233571
 20
128.75750694515179
 30
0.0
 11
194.87579680233571
 21
128.75750694515179
 31
0.0
  0
LINE
  5
124
  8
0
 10
173.3757968023356
 20
128.2575069451519
 30
0.0
 11
194.37579680233571
 21
128.2575069451519
 31
0.0
  0
LINE
  5
125
  8
0
 10
194.37579680233571
 20
128.2575069451519
 30
0.0
 11
194.37579680233571
 21
128.75750694515179
 31
0.0
  0
LINE
  5
126
  8
0
 10
173.37579680233571
 20
128.2575069451519
 30
0.0
 11
173.37579680233571
 21
128.75750694515179
 31
0.0
  0
LINE
  5
127
  8
0
 10
191.87579680233571
 20
128.2575069451519
 30
0.0
 11
191.87579680233571
 21
123.7575069451522
 31
0.0
  0
LINE
  5
128
  8
0
 10
175.87579680233571
 20
128.2575069451519
 30
0.0
 11
175.87579680233571
 21
123.7575069451522
 31
0.0
  0
LINE
  5
129
  8
0
 10
190.87579786970181
 20
115.257506945152
 30
0.0
 11
177.5512413680074
 21
115.257506945152
 31
0.0
  0
LINE
  5
12A
  8
3
 10
191.3342974519627
 20
123.7575069451522
 30
0.0
 11
191.33429752869031
 21
128.2575069451519
 31
0.0
  0
LINE
  5
12B
  8
0
 10
191.87579680233571
 20
120.7575069451527
 30
0.0
 11
191.87579680233571
 21
117.757506945152
 31
0.0
  0
LINE
  5
12C
  8
0
 10
175.87579680233571
 20
120.7575069451527
 30
0.0
 11
175.87579680233571
 21
117.757506945152
 31
0.0
  0
LINE
  5
12D
  8
3
 10
176.41729772477191
 20
123.7575069451522
 30
0.0
 11
176.4172976480443
 21
128.2575069451519
 31
0.0
  0
LINE
  5
12E
  8
0
 10
181.6646631889223
 20
117.757506945152
 30
0.0
 11
181.6646631889223
 21
120.7575069451527
 31
0.0
  0
LINE
  5
12F
  8
0
 10
176.18743761386989
 20
117.757506945152
 30
0.0
 11
176.18743761386989
 21
120.7575069451527
 31
0.0
  0
LINE
  5
130
  8
3
 10
181.34247344921329
 20
128.2575069451519
 30
0.0
 11
179.13317097501249
 21
123.7575040896794
 31
0.0
  0
LINE
  5
131
  8
3
 10
176.50962735357879
 20
128.2575069451519
 30
0.0
 11
178.71892982084441
 21
123.7575041038055
 31
0.0
  0
LINE
  5
132
  8
0
 10
176.18743761386989
 20
123.7575069451522
 30
0.0
 11
176.18743761386989
 21
128.2575069451519
 31
0.0
  0
LINE
  5
133
  8
0
 10
181.6646631889223
 20
123.7575069451522
 30
0.0
 11
181.6646631889223
 21
128.2575069451519
 31
0.0
  0
LINE
  5
134
  8
0
 10
191.56415772678949
 20
123.7575069451522
 30
0.0
 11
191.56415772678949
 21
128.2575069451519
 31
0.0
  0
LINE
  5
135
  8
0
 10
191.56415772678949
 20
117.757506945152
 30
0.0
 11
191.56415772678949
 21
120.7575069451527
 31
0.0
  0
LINE
  5
136
  8
0
 10
186.0869321517371
 20
117.757506945152
 30
0.0
 11
186.0869321517371
 21
120.7575069451527
 31
0.0
  0
LINE
  5
137
  8
0
 10
186.0869321517371
 20
123.7575069451522
 30
0.0
 11
186.0869321517371
 21
128.2575069451519
 31
0.0
  0
LINE
  5
138
  8
3
 10
186.40912189144601
 20
128.2575069451519
 30
0.0
 11
188.61842452445049
 21
123.7575037662213
 31
0.0
  0
LINE
  5
139
  8
3
 10
191.24196798708061
 20
128.2575069451519
 30
0.0
 11
189.03266534714081
 21
123.7575037520952
 31
0.0
  0
LINE
  5
13A
  8
0
 10
177.5512413680074
 20
115.257506945152
 30
0.0
 11
177.55124136800731
 21
117.257506945152
 31
0.0
  0
LINE
  5
13B
  8
0
 10
177.55124136800731
 20
117.257506945152
 30
0.0
 11
176.87579786970181
 21
117.257506945152
 31
0.0
  0
LINE
  5
13C
  8
0
 10
183.8757988444265
 20
123.7575039279503
 30
0.0
 11
183.8757987421231
 21
120.75750392795079
 31
0.0
  0
LINE
  5
13D
  8
0
 10
193.37579884442641
 20
123.75750360398941
 30
0.0
 11
193.37579874212301
 21
120.7575036039898
 31
0.0
  0
LINE
  5
13E
  8
0
 10
174.37579884442661
 20
123.7575042519113
 30
0.0
 11
174.37579874212321
 21
120.7575042519118
 31
0.0
  0
LINE
  5
13F
  8
0
 10
174.37579884442661
 20
123.7575042519113
 30
0.0
 11
193.37579884442641
 21
123.75750360398941
 31
0.0
  0
LINE
  5
140
  8
0
 10
193.37579874212301
 20
120.7575036039898
 30
0.0
 11
174.37579874212321
 21
120.7575042519118
 31
0.0
  0
LINE
  5
141
  8
0
 10
246.07700145945691
 20
117.257506945152
 30
0.0
 11
246.75244495776241
 21
117.257506945152
 31
0.0
  0
LINE
  5
142
  8
0
 10
246.07700145945691
 20
115.257506945152
 30
0.0
 11
246.07700145945691
 21
117.257506945152
 31
0.0
  0
LINE
  5
143
  8
3
 10
232.38627484038369
 20
128.2575069451519
 30
0.0
 11
234.5955759126737
 21
123.7575069451522
 31
0.0
  0
LINE
  5
144
  8
3
 10
237.2191209360183
 20
128.2575069451519
 30
0.0
 11
235.0098198637283
 21
123.7575069451522
 31
0.0
  0
LINE
  5
145
  8
0
 10
237.5413106757272
 20
123.7575069451522
 30
0.0
 11
237.5413106757272
 21
128.2575069451519
 31
0.0
  0
LINE
  5
146
  8
0
 10
237.5413106757272
 20
117.757506945152
 30
0.0
 11
237.5413106757272
 21
120.7575069451527
 31
0.0
  0
LINE
  5
147
  8
0
 10
232.06408510067479
 20
117.757506945152
 30
0.0
 11
232.06408510067479
 21
120.7575069451527
 31
0.0
  0
LINE
  5
148
  8
0
 10
232.06408510067479
 20
123.7575069451522
 30
0.0
 11
232.06408510067479
 21
128.2575069451519
 31
0.0
  0
LINE
  5
149
  8
0
 10
241.963579638542
 20
123.7575069451522
 30
0.0
 11
241.963579638542
 21
128.2575069451519
 31
0.0
  0
LINE
  5
14A
  8
0
 10
247.44080521359439
 20
123.7575069451522
 30
0.0
 11
247.44080521359439
 21
128.2575069451519
 31
0.0
  0
LINE
  5
14B
  8
3
 10
247.11861547388551
 20
128.2575069451519
 30
0.0
 11
244.90931440159551
 21
123.7575069451522
 31
0.0
  0
LINE
  5
14C
  8
3
 10
242.2857693782509
 20
128.2575069451519
 30
0.0
 11
244.49507045054091
 21
123.7575069451522
 31
0.0
  0
LINE
  5
14D
  8
0
 10
247.44080521359439
 20
117.757506945152
 30
0.0
 11
247.44080521359439
 21
120.7575069451527
 31
0.0
  0
LINE
  5
14E
  8
0
 10
241.963579638542
 20
117.757506945152
 30
0.0
 11
241.963579638542
 21
120.7575069451527
 31
0.0
  0
LINE
  5
14F
  8
0
 10
234.26761846782799
 20
123.7575069451522
 30
0.0
 11
234.26761846782799
 21
120.7575069451526
 31
0.0
  0
LINE
  5
150
  8
0
 10
245.23727358242931
 20
123.7575069451522
 30
0.0
 11
245.23727358242931
 21
120.7575069451526
 31
0.0
  0
LINE
  5
151
  8
3
 10
247.21094510269239
 20
123.7575069451522
 30
0.0
 11
247.21094517942001
 21
128.2575069451519
 31
0.0
  0
LINE
  5
152
  8
0
 10
247.75244602512859
 20
120.7575069451527
 30
0.0
 11
247.75244602512859
 21
117.757506945152
 31
0.0
  0
LINE
  5
153
  8
0
 10
231.75244602512859
 20
120.7575069451527
 30
0.0
 11
231.75244602512859
 21
117.757506945152
 31
0.0
  0
LINE
  5
154
  8
3
 10
232.29394537550161
 20
123.7575069451522
 30
0.0
 11
232.29394529877399
 21
128.2575069451519
 31
0.0
  0
LINE
  5
155
  8
0
 10
250.722101139731
 20
123.7575069451522
 30
0.0
 11
228.7827909105261
 21
123.7575069451522
 31
0.0
  0
LINE
  5
156
  8
0
 10
250.72210113973111
 20
123.7575069451522
 30
0.0
 11
250.72210113973111
 21
120.7575069451526
 31
0.0
  0
LINE
  5
157
  8
0
 10
228.7827909105261
 20
123.7575069451522
 30
0.0
 11
228.7827909105261
 21
120.7575069451526
 31
0.0
  0
LINE
  5
158
  8
0
 10
232.75244495776249
 20
115.257506945152
 30
0.0
 11
246.07700145945691
 21
115.257506945152
 31
0.0
  0
LINE
  5
159
  8
0
 10
247.75244602512859
 20
128.2575069451519
 30
0.0
 11
247.75244602512859
 21
123.7575069451522
 31
0.0
  0
LINE
  5
15A
  8
0
 10
231.75244602512859
 20
128.2575069451519
 30
0.0
 11
231.75244602512859
 21
123.7575069451522
 31
0.0
  0
LINE
  5
15B
  8
0
 10
250.25244602512859
 20
128.2575069451519
 30
0.0
 11
250.25244602512859
 21
128.75750694515179
 31
0.0
  0
LINE
  5
15C
  8
0
 10
229.25244602512859
 20
128.2575069451519
 30
0.0
 11
229.25244602512859
 21
128.75750694515179
 31
0.0
  0
LINE
  5
15D
  8
0
 10
250.25244602512871
 20
128.2575069451519
 30
0.0
 11
229.25244602512859
 21
128.2575069451519
 31
0.0
  0
LINE
  5
15E
  8
0
 10
250.75244602512859
 20
128.75750694515179
 30
0.0
 11
228.75244602512859
 21
128.75750694515179
 31
0.0
  0
LINE
  5
15F
  8
0
 10
230.7524460251276
 20
131.75750694515159
 30
0.0
 11
248.7524460251295
 21
131.75750694515159
 31
0.0
  0
LINE
  5
160
  8
0
 10
250.75244602512859
 20
128.75750694515179
 30
0.0
 11
250.75244602512859
 21
129.75750694515179
 31
0.0
  0
LINE
  5
161
  8
0
 10
250.75244602512859
 20
129.75750694515179
 30
0.0
 11
248.7524460251295
 21
131.75750694515159
 31
0.0
  0
LINE
  5
162
  8
0
 10
228.75244602512859
 20
129.75750694515179
 30
0.0
 11
230.7524460251276
 21
131.75750694515159
 31
0.0
  0
LINE
  5
163
  8
0
 10
228.75244602512859
 20
128.75750694515179
 30
0.0
 11
228.75244602512859
 21
129.75750694515179
 31
0.0
  0
LINE
  5
164
  8
0
 10
246.75244495776241
 20
117.257506945152
 30
0.0
 11
246.75244495776249
 21
117.757506945152
 31
0.0
  0
LINE
  5
165
  8
0
 10
232.75244495776249
 20
115.257506945152
 30
0.0
 11
232.75244495776249
 21
117.757506945152
 31
0.0
  0
LINE
  5
166
  8
0
 10
231.75244602512859
 20
117.757506945152
 30
0.0
 11
247.75244602512859
 21
117.757506945152
 31
0.0
  0
LINE
  5
167
  8
3
 10
247.21094504301541
 20
117.757506945152
 30
0.0
 11
247.2109450515407
 21
120.7575069451527
 31
0.0
  0
LINE
  5
168
  8
3
 10
232.2939454351787
 20
117.757506945152
 30
0.0
 11
232.29394542665341
 21
120.7575069451527
 31
0.0
  0
LINE
  5
169
  8
0
 10
228.7827909105261
 20
120.7575069451527
 30
0.0
 11
250.722101139731
 21
120.7575069451526
 31
0.0
  0
LINE
  5
16A
  8
0
 10
236.75244495776249
 20
113.257506945152
 30
0.0
 11
242.75244495776241
 21
113.257506945152
 31
0.0
  0
LINE
  5
16B
  8
0
 10
242.75244495776241
 20
115.257506945152
 30
0.0
 11
242.75244495776241
 21
113.257506945152
 31
0.0
  0
LINE
  5
16C
  8
0
 10
236.75244495776249
 20
115.257506945152
 30
0.0
 11
236.75244495776249
 21
113.257506945152
 31
0.0
  0
LINE
  5
16D
  8
0
 10
242.39819626882769
 20
115.257506945152
 30
0.0
 11
242.39819626882769
 21
113.257506945152
 31
0.0
  0
LINE
  5
16E
  8
0
 10
237.10669364669721
 20
115.257506945152
 30
0.0
 11
237.10669364669721
 21
113.257506945152
 31
0.0
  0
LINE
  5
16F
  8
3
 10
242.39819626882769
 20
115.257506945152
 30
0.0
 11
237.10669364669721
 21
113.257506945152
 31
0.0
  0
LINE
  5
170
  8
3
 10
242.39819626882769
 20
113.257506945152
 30
0.0
 11
237.10669364669721
 21
115.257506945152
 31
0.0
  0
LINE
  5
171
  8
0
 10
78.180040306891996
 20
96.457506945151962
 30
0.0
 11
69.68004030689211
 21
96.457506945152033
 31
0.0
  0
LINE
  5
172
  8
0
 10
76.430040405390315
 20
96.457506945151962
 30
0.0
 11
76.430040405390358
 21
101.557506945152
 31
0.0
  0
LINE
  5
173
  8
3
 10
75.997040405390536
 20
97.257506945152002
 30
0.0
 11
75.997040405390536
 21
101.99050694515179
 31
0.0
  0
LINE
  5
174
  8
3
 10
71.863040405390123
 20
97.257506945152002
 30
0.0
 11
71.863040405390151
 21
101.99050694515169
 31
0.0
  0
LINE
  5
175
  8
0
 10
71.430040405390315
 20
96.457506945151962
 30
0.0
 11
71.430040405390315
 21
101.557506945152
 31
0.0
  0
LINE
  5
176
  8
0
 10
72.330040405390335
 20
102.45750694515201
 30
0.0
 11
75.530040405390352
 21
102.45750694515201
 31
0.0
  0
LINE
  5
177
  8
0
 10
71.430040405390315
 20
97.257506945152002
 30
0.0
 11
76.430040405390315
 21
97.257506945152002
 31
0.0
  0
LINE
  5
178
  8
0
 10
71.430040405390315
 20
101.557506945152
 30
0.0
 11
72.330040405390335
 21
102.45750694515201
 31
0.0
  0
LINE
  5
179
  8
0
 10
75.530040405390352
 20
102.45750694515201
 30
0.0
 11
76.430040405390358
 21
101.557506945152
 31
0.0
  0
LINE
  5
17A
  8
0
 10
71.430040405390358
 20
101.5575069451519
 30
0.0
 11
76.430040405390358
 21
101.5575069451519
 31
0.0
  0
LINE
  5
17B
  8
1
 10
183.8757980497798
 20
88.457506945151863
 30
0.0
 11
183.87579735519321
 21
148.25750529334201
 31
0.0
  0
LINE
  5
17C
  8
1
 10
239.7524451378404
 20
88.457506945151863
 30
0.0
 11
239.75244444325381
 21
148.25750529334201
 31
0.0
  0
LINE
  5
17D
  8
0
 10
292.00497819958878
 20
115.25750692810141
 30
0.0
 11
292.00497807170939
 21
122.7575069451516
 31
0.0
  0
LINE
  5
17E
  8
0
 10
302.00497819958878
 20
115.2575069622026
 30
0.0
 11
302.00497807170939
 21
122.7575069451516
 31
0.0
  0
LINE
  5
17F
  8
0
 10
290.75497789731492
 20
130.25750694515159
 30
0.0
 11
290.75497789731492
 21
122.7575069451516
 31
0.0
  0
LINE
  5
180
  8
0
 10
303.25497789731492
 20
130.25750694515159
 30
0.0
 11
303.25497789731497
 21
122.7575069451516
 31
0.0
  0
LINE
  5
181
  8
0
 10
288.50497789731497
 20
131.75750694515159
 30
0.0
 11
288.50497789731492
 21
130.25750694515159
 31
0.0
  0
LINE
  5
182
  8
0
 10
305.50497789731492
 20
131.75750694515159
 30
0.0
 11
305.50497789731492
 21
130.25750694515159
 31
0.0
  0
LINE
  5
183
  8
0
 10
305.50497789731492
 20
130.25750694515159
 30
0.0
 11
288.50497789731492
 21
130.25750694515159
 31
0.0
  0
LINE
  5
184
  8
0
 10
303.40497789731501
 20
122.7575069451516
 30
0.0
 11
290.60497789731488
 21
122.7575069451516
 31
0.0
  0
LINE
  5
185
  8
0
 10
290.60497789731488
 20
130.25750694515159
 30
0.0
 11
290.60497789731488
 21
122.7575069451516
 31
0.0
  0
LINE
  5
186
  8
0
 10
303.40497789731501
 20
130.25750694515159
 30
0.0
 11
303.40497789731501
 21
122.7575069451516
 31
0.0
  0
LINE
  5
187
  8
0
 10
304.00497789731492
 20
131.75750694515159
 30
0.0
 11
304.00497789731492
 21
130.25750694515159
 31
0.0
  0
LINE
  5
188
  8
0
 10
290.00497789731492
 20
131.75750694515159
 30
0.0
 11
290.00497789731492
 21
130.25750694515159
 31
0.0
  0
LINE
  5
189
  8
0
 10
288.75497789731497
 20
131.75750694515159
 30
0.0
 11
288.75497789731497
 21
132.25750694515159
 31
0.0
  0
LINE
  5
18A
  8
0
 10
305.25497789731492
 20
131.75750694515159
 30
0.0
 11
305.25497789731492
 21
132.25750694515159
 31
0.0
  0
CIRCLE
  5
18B
  8
0
 10
289.25497789731492
 20
131.00750694515159
 30
0.0
 40
0.75
  0
CIRCLE
  5
18C
  8
0
 10
304.75497789731492
 20
131.00750694515159
 30
0.0
 40
0.75
  0
INSERT
  5
18D
  8
3
  2
*X2
 10
82.593636465756447
 20
35.045713429256601
 30
0.0
  0
ARC
  5
18E
  8
0
 10
126.63675334122701
 20
208.92462349167499
 30
0.0
 40
8.2500000643136104
 50
35.828839840875553
 51
144.17116015912021
  0
LINE
  5
18F
  8
0
 10
305.74651002181059
 20
142.75750694515159
 30
0.0
 11
288.26344577281941
 21
142.75750694515159
 31
0.0
  0
LINE
  5
190
  8
0
 10
118.3263681926052
 20
204.92462349167499
 30
0.0
 11
111.63675334122701
 21
204.92462349167499
 31
0.0
  0
LINE
  5
191
  8
0
 10
118.3263681926052
 20
212.92462349167499
 30
0.0
 11
111.63675334122701
 21
212.92462349167499
 31
0.0
  0
LINE
  5
192
  8
0
 10
110.63675334122701
 20
205.92462349167499
 30
0.0
 11
110.63675334122701
 21
211.92462349167499
 31
0.0
  0
LINE
  5
193
  8
0
 10
289.78954291463589
 20
132.25750694515159
 30
0.0
 11
288.3881338631943
 21
132.25750694515159
 31
0.0
  0
LINE
  5
194
  8
0
 10
286.22304850657753
 20
130.25750694515159
 30
0.0
 11
281.00497783300142
 21
130.25750694515159
 31
0.0
  0
LINE
  5
195
  8
0
 10
281.00497783300142
 20
130.25750694515159
 30
0.0
 11
286.46039965788282
 21
141.62296908032121
 31
0.0
  0
LINE
  5
196
  8
0
 10
303.50497722770592
 20
143.25750789882869
 30
0.0
 11
304.00497722770592
 21
142.75750694515159
 31
0.0
  0
LINE
  5
197
  8
0
 10
290.50497722770592
 20
143.25750789882869
 30
0.0
 11
290.00497722770592
 21
142.75750694515159
 31
0.0
  0
LINE
  5
198
  8
0
 10
290.50497462222421
 20
143.25750529334201
 30
0.0
 11
303.50497983318769
 21
143.25750529334201
 31
0.0
  0
ARC
  5
199
  8
0
 10
288.26344577281941
 20
140.75750694515159
 30
0.0
 40
2.0
 50
90.0
 51
154.35899417569459
  0
LINE
  5
19A
  8
0
 10
313.00497796162858
 20
130.25750694515159
 30
0.0
 11
307.54955613674713
 21
141.62296908032121
 31
0.0
  0
ARC
  5
19B
  8
0
 10
305.74651002181059
 20
140.75750694515159
 30
0.0
 40
2.0
 50
25.641005824305442
 51
89.999999999999943
  0
LINE
  5
19C
  8
0
 10
307.78690728805248
 20
130.25750694515159
 30
0.0
 11
313.00497796162853
 21
130.25750694515159
 31
0.0
  0
LINE
  5
19D
  8
0
 10
289.78954291463589
 20
141.75750694515159
 30
0.0
 11
289.78954291463589
 21
132.25750694515159
 31
0.0
  0
LINE
  5
19E
  8
0
 10
304.22041287999411
 20
132.25750694515159
 30
0.0
 11
305.62182193143559
 21
132.25750694515159
 31
0.0
  0
LINE
  5
19F
  8
0
 10
304.22041287999411
 20
141.75750694515159
 30
0.0
 11
304.22041287999411
 21
132.25750694515159
 31
0.0
  0
ARC
  5
1A0
  8
0
 10
118.3263681926052
 20
214.92462349167499
 30
0.0
 40
2.0
 50
270.0
 51
324.17116015912268
  0
ARC
  5
1A1
  8
0
 10
118.3263681926052
 20
202.92462349167499
 30
0.0
 40
2.0
 50
35.82883984087735
 51
90.0
  0
ARC
  5
1A2
  8
0
 10
134.9471384898487
 20
202.92462349167499
 30
0.0
 40
2.0
 50
90.000000000000028
 51
144.17116015912271
  0
ARC
  5
1A3
  8
0
 10
134.9471384898487
 20
214.92462349167499
 30
0.0
 40
2.0
 50
215.82883984087729
 51
270.00000000000011
  0
LINE
  5
1A4
  8
0
 10
142.63675334122701
 20
205.92462349167499
 30
0.0
 11
142.63675334122701
 21
211.92462349167499
 31
0.0
  0
LINE
  5
1A5
  8
0
 10
134.9471384898487
 20
212.92462349167499
 30
0.0
 11
141.63675334122701
 21
212.92462349167499
 31
0.0
  0
LINE
  5
1A6
  8
0
 10
134.9471384898487
 20
204.92462349167499
 30
0.0
 11
141.63675334122701
 21
204.92462349167499
 31
0.0
  0
ARC
  5
1A7
  8
0
 10
111.63675334122701
 20
211.92462349167499
 30
0.0
 40
1.0
 50
90.0
 51
179.99999999999989
  0
ARC
  5
1A8
  8
0
 10
111.63675334122701
 20
205.92462349167499
 30
0.0
 40
1.0
 50
180.0
 51
270.00000000000011
  0
ARC
  5
1A9
  8
0
 10
141.63675334122701
 20
205.92462349167499
 30
0.0
 40
1.0
 50
269.99999999999989
 51
0.0
  0
ARC
  5
1AA
  8
0
 10
141.63675334122701
 20
211.92462349167499
 30
0.0
 40
1.0
 50
0.0
 51
90.0
  0
ARC
  5
1AB
  8
0
 10
141.63675370781431
 20
58.913082484720341
 30
0.0
 40
1.0
 50
0.0
 51
90.0
  0
ARC
  5
1AC
  8
0
 10
141.63675370781431
 20
52.913082484720348
 30
0.0
 40
1.0
 50
269.99999999999989
 51
0.0
  0
ARC
  5
1AD
  8
0
 10
111.63675370781441
 20
52.913082484720348
 30
0.0
 40
1.0
 50
180.0
 51
270.00000000000011
  0
ARC
  5
1AE
  8
0
 10
111.63675370781441
 20
58.913082484720363
 30
0.0
 40
1.0
 50
90.0
 51
179.99999999999989
  0
LINE
  5
1AF
  8
0
 10
136.883704473774
 20
51.913082484720363
 30
0.0
 11
141.63675370781431
 21
51.913082484720363
 31
0.0
  0
LINE
  5
1B0
  8
0
 10
136.88370447377409
 20
59.913082484720341
 30
0.0
 11
141.63675370781431
 21
59.913082484720341
 31
0.0
  0
LINE
  5
1B1
  8
0
 10
142.63675370781431
 20
52.913082484720348
 30
0.0
 11
142.63675370781431
 21
58.913082484720341
 31
0.0
  0
ARC
  5
1B2
  8
0
 10
126.63675370781441
 20
55.913082484720348
 30
0.0
 40
11.5
 50
339.6455936017627
 51
20.35440639823786
  0
ARC
  5
1B3
  8
0
 10
126.63675370781441
 20
55.913082484720348
 30
0.0
 40
11.5
 50
159.6455936017621
 51
200.3544063982373
  0
LINE
  5
1B4
  8
0
 10
110.63675370781441
 20
52.913082484720348
 30
0.0
 11
110.63675370781441
 21
58.913082484720363
 31
0.0
  0
LINE
  5
1B5
  8
0
 10
116.3898029418548
 20
59.913082484720348
 30
0.0
 11
111.63675370781441
 21
59.913082484720348
 31
0.0
  0
LINE
  5
1B6
  8
0
 10
116.3898029418547
 20
51.913082484720363
 30
0.0
 11
111.63675370781441
 21
51.913082484720363
 31
0.0
  0
ARC
  5
1B7
  8
0
 10
126.63675334122701
 20
208.92462349167499
 30
0.0
 40
8.2500000643136104
 50
215.82883984087979
 51
324.17116015912461
  0
CIRCLE
  5
1B8
  8
0
 10
126.63675334122701
 20
208.92462349167499
 30
0.0
 40
7.0000006052953827
  0
CIRCLE
  5
1B9
  8
0
 10
126.63675334122701
 20
208.92462349167499
 30
0.0
 40
6.5000020001863561
  0
LINE
  5
1BA
  8
1
 10
126.63675334122701
 20
222.1746235559886
 30
0.0
 11
126.63675334122701
 21
195.67462342736141
 31
0.0
  0
LINE
  5
1BB
  8
1
 10
105.63675334122701
 20
208.92462349167499
 30
0.0
 11
147.63675334122701
 21
208.92462349167499
 31
0.0
  0
LINE
  5
1BC
  8
0
 10
116.63675334122701
 20
211.92462349167499
 30
0.0
 11
116.63675334122701
 21
205.92462349167499
 31
0.0
  0
LINE
  5
1BD
  8
0
 10
136.63675334122709
 20
211.92462349167499
 30
0.0
 11
136.63675334122701
 21
205.92462349167499
 31
0.0
  0
LINE
  5
1BE
  8
0
 10
122.6367527359304
 20
208.724623491675
 30
0.0
 11
122.6367527359304
 21
209.92462349167499
 31
0.0
  0
LINE
  5
1BF
  8
0
 10
122.6367527359304
 20
209.92462349167499
 30
0.0
 11
125.13675334122701
 21
209.92462349167499
 31
0.0
  0
LINE
  5
1C0
  8
0
 10
128.1367527359304
 20
209.92462349167499
 30
0.0
 11
128.1367527359304
 21
207.92462349167499
 31
0.0
  0
ARC
  5
1C1
  8
0
 10
126.13675334122701
 20
208.92462349167499
 30
0.0
 40
1.75
 50
186.56242786863669
 51
325.15009542094242
  0
ARC
  5
1C2
  8
0
 10
126.13675334122701
 20
208.92462349167499
 30
0.0
 40
1.75
 50
34.849904579082803
 51
145.15009542091721
  0
LINE
  5
1C3
  8
1
 10
105.63675370781441
 20
55.913082484720348
 30
0.0
 11
147.63675370781431
 21
55.913082484720348
 31
0.0
  0
ARC
  5
1C4
  8
0
 10
126.63675370781441
 20
55.913082484720348
 30
0.0
 40
4.0
 50
41.409622109274707
 51
48.590377890728639
  0
ARC
  5
1C5
  8
0
 10
126.63675370781441
 20
55.913082484720348
 30
0.0
 40
4.0
 50
131.40962210927469
 51
138.5903778907286
  0
ARC
  5
1C6
  8
0
 10
126.63675370781441
 20
55.913082484720348
 30
0.0
 40
4.0
 50
221.40962210927469
 51
228.5903778907286
  0
ARC
  5
1C7
  8
0
 10
126.63675370781441
 20
55.913082484720348
 30
0.0
 40
4.0
 50
311.40962210927472
 51
318.59037789072858
  0
LINE
  5
1C8
  8
0
 10
123.9910023967501
 20
52.913082484720299
 30
0.0
 11
129.28250501887899
 21
52.913082484720299
 31
0.0
  0
LINE
  5
1C9
  8
0
 10
129.63675370781431
 20
59.913082484720519
 30
0.0
 11
129.63675370781431
 21
62.237638986415178
 31
0.0
  0
LINE
  5
1CA
  8
0
 10
119.4213184228614
 20
141.75750540162571
 30
0.0
 11
119.4213184228614
 21
132.25750540162559
 31
0.0
  0
ARC
  5
1CB
  8
0
 10
117.8952212810449
 20
140.75750540162559
 30
0.0
 40
2.0
 50
90.0
 51
154.35899417569459
  0
LINE
  5
1CC
  8
0
 10
120.1367501304498
 20
143.25750374981601
 30
0.0
 11
133.13675534141319
 21
143.25750374981601
 31
0.0
  0
LINE
  5
1CD
  8
0
 10
120.13675273593149
 20
143.2575063553027
 30
0.0
 11
119.63675273593149
 21
142.75750540162571
 31
0.0
  0
LINE
  5
1CE
  8
0
 10
110.63675334122701
 20
130.25750540162571
 30
0.0
 11
116.0921751661084
 21
141.62296753679519
 31
0.0
  0
LINE
  5
1CF
  8
0
 10
135.37828553003621
 20
142.75750540162571
 30
0.0
 11
117.8952212810449
 21
142.75750540162571
 31
0.0
  0
LINE
  5
1D0
  8
0
 10
133.8521883882197
 20
141.75750540162571
 30
0.0
 11
133.8521883882197
 21
132.25750540162559
 31
0.0
  0
LINE
  5
1D1
  8
0
 10
133.8521883882197
 20
132.25750540162559
 30
0.0
 11
135.25359743966121
 21
132.25750540162571
 31
0.0
  0
ARC
  5
1D2
  8
0
 10
135.37828553003621
 20
140.75750540162559
 30
0.0
 40
2.0
 50
25.641005824305442
 51
89.999999999999943
  0
LINE
  5
1D3
  8
0
 10
142.6367534698542
 20
130.25750540162571
 30
0.0
 11
137.18133164497269
 21
141.62296753679519
 31
0.0
  0
LINE
  5
1D4
  8
0
 10
133.13675273593151
 20
143.2575063553027
 30
0.0
 11
133.63675273593151
 21
142.75750540162571
 31
0.0
  0
LINE
  5
1D5
  8
0
 10
134.8867534055405
 20
131.75750540162559
 30
0.0
 11
134.8867534055405
 21
132.25750540162571
 31
0.0
  0
LINE
  5
1D6
  8
0
 10
137.41868279627801
 20
130.25750540162571
 30
0.0
 11
142.63675346985411
 21
130.25750540162571
 31
0.0
  0
LINE
  5
1D7
  8
0
 10
119.4213184228614
 20
132.25750540162559
 30
0.0
 11
118.0199093714199
 21
132.25750540162571
 31
0.0
  0
LINE
  5
1D8
  8
0
 10
118.3867534055405
 20
131.75750540162559
 30
0.0
 11
118.3867534055405
 21
132.25750540162571
 31
0.0
  0
LINE
  5
1D9
  8
0
 10
115.854824014803
 20
130.25750540162571
 30
0.0
 11
110.63675334122701
 21
130.25750540162571
 31
0.0
  0
LINE
  5
1DA
  8
0
 10
246.9678796381678
 20
141.75750643064299
 30
0.0
 11
246.9678796381678
 21
132.25750643064291
 31
0.0
  0
LINE
  5
1DB
  8
0
 10
246.9678796381678
 20
132.25750643064291
 30
0.0
 11
248.36928868960931
 21
132.25750643064299
 31
0.0
  0
LINE
  5
1DC
  8
0
 10
232.53700967280949
 20
141.75750643064299
 30
0.0
 11
232.53700967280949
 21
132.25750643064291
 31
0.0
  0
ARC
  5
1DD
  8
0
 10
248.49397677998431
 20
140.75750643064299
 30
0.0
 40
2.0
 50
25.641005824305442
 51
89.999999999999943
  0
LINE
  5
1DE
  8
0
 10
255.75244471980221
 20
130.25750643064299
 30
0.0
 11
250.29702289492079
 21
141.62296856581261
 31
0.0
  0
ARC
  5
1DF
  8
0
 10
231.01091253099301
 20
140.75750643064299
 30
0.0
 40
2.0
 50
90.0
 51
154.35899417569459
  0
LINE
  5
1E0
  8
0
 10
233.2524413803979
 20
143.25750477883329
 30
0.0
 11
246.25244659136141
 21
143.25750477883329
 31
0.0
  0
LINE
  5
1E1
  8
0
 10
233.25244398587961
 20
143.25750738432001
 30
0.0
 11
232.75244398587961
 21
142.75750643064299
 31
0.0
  0
LINE
  5
1E2
  8
0
 10
246.25244398587961
 20
143.25750738432001
 30
0.0
 11
246.75244398587961
 21
142.75750643064299
 31
0.0
  0
LINE
  5
1E3
  8
0
 10
223.75244459117511
 20
130.25750643064299
 30
0.0
 11
229.2078664160565
 21
141.62296856581261
 31
0.0
  0
LINE
  5
1E4
  8
0
 10
232.53700967280949
 20
132.25750643064291
 30
0.0
 11
231.13560062136801
 21
132.25750643064299
 31
0.0
  0
LINE
  5
1E5
  8
0
 10
248.49397677998431
 20
142.75750643064299
 30
0.0
 11
231.01091253099301
 21
142.75750643064299
 31
0.0
  0
LINE
  5
1E6
  8
0
 10
248.0024446554886
 20
131.75750643064299
 30
0.0
 11
248.0024446554886
 21
132.25750643064299
 31
0.0
  0
LINE
  5
1E7
  8
0
 10
231.5024446554886
 20
131.75750643064299
 30
0.0
 11
231.5024446554886
 21
132.25750643064299
 31
0.0
  0
LINE
  5
1E8
  8
0
 10
228.9705152647511
 20
130.25750643064299
 30
0.0
 11
223.75244459117511
 21
130.25750643064299
 31
0.0
  0
LINE
  5
1E9
  8
0
 10
250.53437404622619
 20
130.25750643064299
 30
0.0
 11
255.75244471980221
 21
130.25750643064299
 31
0.0
  0
LINE
  5
1EA
  8
0
 10
175.6257975674279
 20
131.75750591613439
 30
0.0
 11
175.6257975674279
 21
141.75750591613439
 31
0.0
  0
LINE
  5
1EB
  8
0
 10
192.1257975674279
 20
131.75750591613439
 30
0.0
 11
192.12579756742741
 21
141.75750591613439
 31
0.0
  0
LINE
  5
1EC
  8
0
 10
190.37579689781899
 20
143.25750686981141
 30
0.0
 11
190.87579689781899
 21
142.75750591613439
 31
0.0
  0
LINE
  5
1ED
  8
0
 10
177.37579689781899
 20
143.25750686981141
 30
0.0
 11
176.87579689781899
 21
142.75750591613439
 31
0.0
  0
LINE
  5
1EE
  8
0
 10
177.37579429233719
 20
143.25750426432469
 30
0.0
 11
190.3757995033007
 21
143.25750426432469
 31
0.0
  0
LINE
  5
1EF
  8
0
 10
191.12579756742741
 20
142.75750591613439
 30
0.0
 11
176.62579756742801
 21
142.75750591613439
 31
0.0
  0
ARC
  5
1F0
  8
0
 10
176.62579756742801
 20
141.75750591613439
 30
0.0
 40
1.0
 50
90.0
 51
179.99999999999989
  0
ARC
  5
1F1
  8
0
 10
191.12579756742741
 20
141.75750591613439
 30
0.0
 40
1.0
 50
0.0000000000032569
 51
90.0
  0
LINE
  5
1F2
  8
0
 10
179.8757975674279
 20
130.25750643064299
 30
0.0
 11
179.87579756742801
 21
141.75750591613439
 31
0.0
  0
LINE
  5
1F3
  8
0
 10
187.87579756742801
 20
130.25750643064299
 30
0.0
 11
187.8757975674279
 21
141.75750591613439
 31
0.0
  0
LINE
  5
1F4
  8
0
 10
187.87579756742801
 20
130.25750643064299
 30
0.0
 11
179.8757975674279
 21
130.25750643064299
 31
0.0
  0
ARC
  5
1F5
  8
0
 10
186.8757975674279
 20
141.75750591613439
 30
0.0
 40
1.0
 50
0.0
 51
90.0
  0
ARC
  5
1F6
  8
0
 10
180.8757975674279
 20
141.75750591613439
 30
0.0
 40
1.0
 50
90.0
 51
179.9999999999998
  0
LINE
  5
1F7
  8
0
 10
179.8757975674279
 20
131.75750694515159
 30
0.0
 11
174.8757968023348
 21
131.75750694515159
 31
0.0
  0
LINE
  5
1F8
  8
0
 10
69.930041132133752
 20
131.7575079741689
 30
0.0
 11
64.930040367040633
 21
131.7575079741689
 31
0.0
  0
ARC
  5
1F9
  8
0
 10
70.93004113213378
 20
141.7575069451517
 30
0.0
 40
1.0
 50
90.0
 51
179.9999999999998
  0
ARC
  5
1FA
  8
0
 10
76.930041132133752
 20
141.7575069451517
 30
0.0
 40
1.0
 50
0.0
 51
90.0
  0
LINE
  5
1FB
  8
0
 10
77.93004113213378
 20
130.2575074596603
 30
0.0
 11
69.930041132133752
 21
130.2575074596603
 31
0.0
  0
LINE
  5
1FC
  8
0
 10
77.93004113213378
 20
130.2575074596603
 30
0.0
 11
77.930041132133752
 21
141.7575069451517
 31
0.0
  0
LINE
  5
1FD
  8
0
 10
69.930041132133752
 20
130.2575074596603
 30
0.0
 11
69.93004113213378
 21
141.7575069451517
 31
0.0
  0
ARC
  5
1FE
  8
0
 10
81.18004113213324
 20
141.7575069451517
 30
0.0
 40
1.0
 50
0.0000000000032569
 51
90.0
  0
ARC
  5
1FF
  8
0
 10
66.680041132133795
 20
141.7575069451517
 30
0.0
 40
1.0
 50
90.0
 51
179.99999999999989
  0
LINE
  5
200
  8
0
 10
81.18004113213324
 20
142.7575069451517
 30
0.0
 11
66.680041132133795
 21
142.7575069451517
 31
0.0
  0
LINE
  5
201
  8
0
 10
67.430037857043018
 20
143.25750529334201
 30
0.0
 11
80.430043068006498
 21
143.25750529334201
 31
0.0
  0
LINE
  5
202
  8
0
 10
67.430040462524786
 20
143.25750789882869
 30
0.0
 11
66.930040462524786
 21
142.7575069451517
 31
0.0
  0
LINE
  5
203
  8
0
 10
80.430040462524786
 20
143.25750789882869
 30
0.0
 11
80.930040462524786
 21
142.7575069451517
 31
0.0
  0
LINE
  5
204
  8
0
 10
82.18004113213378
 20
131.7575069451517
 30
0.0
 11
82.180041132133226
 21
141.7575069451517
 31
0.0
  0
LINE
  5
205
  8
0
 10
65.68004113213378
 20
131.7575069451517
 30
0.0
 11
65.680041132133795
 21
141.7575069451517
 31
0.0
  0
LINE
  5
206
  8
0
 10
82.93004036704248
 20
131.7575079741689
 30
0.0
 11
77.93004113213378
 21
131.7575079741689
 31
0.0
  0
CIRCLE
  5
207
  8
0
 10
297.00497801307949
 20
120.2575069451516
 30
0.0
 40
1.75
  0
LINE
  5
208
  8
1
 10
301.75497801307949
 20
120.2575069451516
 30
0.0
 11
292.25497801307949
 21
120.2575069451516
 31
0.0
  0
LINE
  5
209
  8
0
 10
80.930040585468348
 20
117.2575069451518
 30
0.0
 11
80.930040585468348
 21
117.757506945152
 31
0.0
  0
LINE
  5
20A
  8
3
 10
67.71454634445621
 20
120.7575037159953
 30
0.0
 11
66.241680548302682
 21
117.757506945152
 31
0.0
  0
LINE
  5
20B
  8
3
 10
70.246040284818932
 20
120.75750380232211
 30
0.0
 11
71.718906123355154
 21
117.757506945152
 31
0.0
  0
LINE
  5
20C
  8
3
 10
77.614041048062276
 20
120.7575040535795
 30
0.0
 11
76.14117508616981
 21
117.757506945152
 31
0.0
  0
LINE
  5
20D
  8
3
 10
80.14553465694712
 20
120.7575041399063
 30
0.0
 11
81.618400661222225
 21
117.757506945152
 31
0.0
  0
LINE
  5
20E
  8
3
 10
120.42126083350951
 20
120.7575069451527
 30
0.0
 11
118.9483934519825
 21
117.757506945152
 31
0.0
  0
LINE
  5
20F
  8
3
 10
122.9527516455079
 20
120.7575069451527
 30
0.0
 11
124.425619027035
 21
117.757506945152
 31
0.0
  0
LINE
  5
210
  8
3
 10
130.32075537137669
 20
120.7575069451527
 30
0.0
 11
128.8478879898496
 21
117.757506945152
 31
0.0
  0
LINE
  5
211
  8
3
 10
132.852246183375
 20
120.7575069451527
 30
0.0
 11
134.3251135649021
 21
117.757506945152
 31
0.0
  0
LINE
  5
212
  8
3
 10
177.66030361814501
 20
120.7575041399064
 30
0.0
 11
176.18743761386989
 21
117.757506945152
 31
0.0
  0
LINE
  5
213
  8
3
 10
180.19179722702989
 20
120.7575040535795
 30
0.0
 11
181.6646631889223
 21
117.757506945152
 31
0.0
  0
LINE
  5
214
  8
3
 10
187.55979799027321
 20
120.75750380232211
 30
0.0
 11
186.08693215173699
 21
117.757506945152
 31
0.0
  0
LINE
  5
215
  8
3
 10
190.091291930636
 20
120.7575037159953
 30
0.0
 11
191.56415772678949
 21
117.757506945152
 31
0.0
  0
LINE
  5
216
  8
3
 10
233.53695248220191
 20
120.7575069451527
 30
0.0
 11
232.0640851006749
 21
117.757506945152
 31
0.0
  0
LINE
  5
217
  8
3
 10
236.06844329420019
 20
120.7575069451527
 30
0.0
 11
237.54131067572729
 21
117.757506945152
 31
0.0
  0
LINE
  5
218
  8
3
 10
243.43644702006901
 20
120.7575069451527
 30
0.0
 11
241.96357963854189
 21
117.757506945152
 31
0.0
  0
LINE
  5
219
  8
3
 10
245.96793783206741
 20
120.7575069451527
 30
0.0
 11
247.44080521359439
 21
117.757506945152
 31
0.0
  0
LINE
  5
21A
  8
1
 10
131.38675352130511
 20
120.2575069451516
 30
0.0
 11
121.8867535213051
 21
120.2575069451516
 31
0.0
  0
ARC
  5
21B
  8
0
 10
126.6367535213051
 20
120.2575069451516
 30
0.0
 40
1.75
 50
163.3984504009367
 51
16.601549599062881
  0
LINE
  5
21C
  8
1
 10
78.680040218881004
 20
120.2575069451516
 30
0.0
 11
69.180040218881004
 21
120.2575069451516
 31
0.0
  0
ARC
  5
21D
  8
0
 10
73.930040218881018
 20
120.2575069451516
 30
0.0
 40
1.75
 50
163.3984504009367
 51
16.601549599062881
  0
INSERT
  5
21E
  8
3
  2
*X3
 10
53.803193718432247
 20
35.045713429256601
 30
0.0
  0
LINE
  5
21F
  8
0
 10
286.22304850657753
 20
130.25750694515159
 30
0.0
 11
286.22304850657753
 21
130.75750694515159
 31
0.0
  0
LINE
  5
220
  8
0
 10
286.22304850657753
 20
130.75750694515159
 30
0.0
 11
288.3881338631943
 21
132.25750694515159
 31
0.0
  0
LINE
  5
221
  8
0
 10
307.78690728805248
 20
130.25750694515159
 30
0.0
 11
307.78690728805248
 21
130.75750694515159
 31
0.0
  0
LINE
  5
222
  8
0
 10
307.78690728805248
 20
130.75750694515159
 30
0.0
 11
305.62182193143559
 21
132.25750694515159
 31
0.0
  0
LINE
  5
223
  8
0
 10
228.97051526475121
 20
130.75750694515159
 30
0.0
 11
231.13560062136801
 21
132.25750694515159
 31
0.0
  0
LINE
  5
224
  8
0
 10
228.97051526475121
 20
130.25750694515159
 30
0.0
 11
228.97051526475121
 21
130.75750694515159
 31
0.0
  0
LINE
  5
225
  8
0
 10
250.53437404622619
 20
130.75750694515159
 30
0.0
 11
248.36928868960931
 21
132.25750694515159
 31
0.0
  0
LINE
  5
226
  8
0
 10
250.53437404622619
 20
130.25750694515159
 30
0.0
 11
250.53437404622619
 21
130.75750694515159
 31
0.0
  0
LINE
  5
227
  8
0
 10
115.8548240148031
 20
130.75750694515159
 30
0.0
 11
118.0199093714199
 21
132.25750694515159
 31
0.0
  0
LINE
  5
228
  8
0
 10
115.8548240148031
 20
130.2575069451517
 30
0.0
 11
115.8548240148031
 21
130.75750694515159
 31
0.0
  0
LINE
  5
229
  8
0
 10
137.41868279627809
 20
130.75750694515159
 30
0.0
 11
135.25359743966121
 21
132.25750694515159
 31
0.0
  0
LINE
  5
22A
  8
0
 10
137.41868279627809
 20
130.2575069451517
 30
0.0
 11
137.41868279627809
 21
130.75750694515159
 31
0.0
  0
LINE
  5
22B
  8
0
 10
77.680040306891996
 20
93.457506945151977
 30
0.0
 11
70.18004030689211
 21
93.457506945152048
 31
0.0
  0
LINE
  5
22C
  8
0
 10
69.68004030689211
 20
96.457506945152033
 30
0.0
 11
69.68004030689211
 21
93.957506945152048
 31
0.0
  0
LINE
  5
22D
  8
0
 10
78.180040306891996
 20
96.457506945151962
 30
0.0
 11
78.180040306891996
 21
93.957506945151977
 31
0.0
  0
ARC
  5
22E
  8
0
 10
70.18004030689211
 20
93.957506945152048
 30
0.0
 40
0.5
 50
180.0
 51
269.99999999999949
  0
ARC
  5
22F
  8
0
 10
77.680040306891996
 20
93.957506945151977
 30
0.0
 40
0.5
 50
269.99999999999949
 51
0.0000000000001145
  0
ARC
  5
230
  8
0
 10
130.386753609316
 20
93.957506945151806
 30
0.0
 40
0.5
 50
269.99999999999949
 51
0.0000000000001145
  0
ARC
  5
231
  8
0
 10
122.8867536093161
 20
93.957506945151877
 30
0.0
 40
0.5
 50
180.0
 51
269.99999999999949
  0
LINE
  5
232
  8
0
 10
130.886753609316
 20
96.457506945151792
 30
0.0
 11
130.886753609316
 21
93.957506945151806
 31
0.0
  0
LINE
  5
233
  8
0
 10
122.3867536093161
 20
96.457506945151863
 30
0.0
 11
122.3867536093161
 21
93.957506945151877
 31
0.0
  0
LINE
  5
234
  8
0
 10
130.386753609316
 20
93.457506945151806
 30
0.0
 11
127.23675382357879
 21
93.457506945151835
 31
0.0
  0
LINE
  5
235
  8
0
 10
124.13675370781429
 20
101.5575069451518
 30
0.0
 11
129.13675370781431
 21
101.5575069451518
 31
0.0
  0
LINE
  5
236
  8
0
 10
128.23675370781439
 20
102.45750694515181
 30
0.0
 11
129.13675370781431
 21
101.5575069451518
 31
0.0
  0
LINE
  5
237
  8
0
 10
124.13675370781429
 20
101.5575069451518
 30
0.0
 11
125.0367537078143
 21
102.45750694515181
 31
0.0
  0
LINE
  5
238
  8
0
 10
124.13675370781429
 20
97.257506945151846
 30
0.0
 11
129.13675370781431
 21
97.257506945151846
 31
0.0
  0
LINE
  5
239
  8
0
 10
125.0367537078143
 20
102.45750694515181
 30
0.0
 11
128.23675370781439
 21
102.45750694515181
 31
0.0
  0
LINE
  5
23A
  8
0
 10
124.13675370781429
 20
96.457506945151792
 30
0.0
 11
124.13675370781429
 21
101.5575069451518
 31
0.0
  0
LINE
  5
23B
  8
3
 10
124.5697537078141
 20
97.257506945151846
 30
0.0
 11
124.5697537078142
 21
101.99050694515159
 31
0.0
  0
LINE
  5
23C
  8
3
 10
128.70375370781451
 20
97.257506945151846
 30
0.0
 11
128.70375370781451
 21
101.99050694515159
 31
0.0
  0
LINE
  5
23D
  8
0
 10
129.13675370781431
 20
96.457506945151792
 30
0.0
 11
129.13675370781431
 21
101.5575069451518
 31
0.0
  0
LINE
  5
23E
  8
0
 10
130.886753609316
 20
96.457506945151792
 30
0.0
 11
122.3867536093161
 21
96.457506945151863
 31
0.0
  0
LINE
  5
23F
  8
0
 10
127.2367538042847
 20
94.957506945151835
 30
0.0
 11
126.0367538042847
 21
94.957506945151835
 31
0.0
  0
LINE
  5
240
  8
0
 10
126.03675382357881
 20
93.457506937434204
 30
0.0
 11
126.0367538042847
 21
94.957506937434204
 31
0.0
  0
LINE
  5
241
  8
0
 10
127.23675382357879
 20
93.457506952869466
 30
0.0
 11
127.2367538042847
 21
94.957506952869466
 31
0.0
  0
LINE
  5
242
  8
0
 10
126.03675382357881
 20
93.457506945151849
 30
0.0
 11
122.8867536093161
 21
93.457506945151863
 31
0.0
  0
LINE
  5
243
  8
0
 10
239.15244507352691
 20
93.457506945151849
 30
0.0
 11
236.00244485926419
 21
93.457506945151863
 31
0.0
  0
LINE
  5
244
  8
0
 10
240.35244507352689
 20
93.457506952869466
 30
0.0
 11
240.35244505423279
 21
94.957506952869466
 31
0.0
  0
LINE
  5
245
  8
0
 10
239.15244507352691
 20
93.457506937434204
 30
0.0
 11
239.1524450542328
 21
94.957506937434204
 31
0.0
  0
LINE
  5
246
  8
0
 10
240.35244505423279
 20
94.957506945151835
 30
0.0
 11
239.1524450542328
 21
94.957506945151835
 31
0.0
  0
LINE
  5
247
  8
0
 10
244.0024448592641
 20
96.457506945151792
 30
0.0
 11
235.50244485926419
 21
96.457506945151863
 31
0.0
  0
LINE
  5
248
  8
0
 10
242.25244495776241
 20
96.457506945151792
 30
0.0
 11
242.25244495776249
 21
101.5575069451518
 31
0.0
  0
LINE
  5
249
  8
3
 10
241.81944495776261
 20
97.257506945151846
 30
0.0
 11
241.81944495776261
 21
101.99050694515159
 31
0.0
  0
LINE
  5
24A
  8
3
 10
237.6854449577622
 20
97.257506945151846
 30
0.0
 11
237.6854449577622
 21
101.99050694515159
 31
0.0
  0
LINE
  5
24B
  8
0
 10
237.25244495776241
 20
96.457506945151792
 30
0.0
 11
237.25244495776241
 21
101.5575069451518
 31
0.0
  0
LINE
  5
24C
  8
0
 10
238.1524449577625
 20
102.45750694515181
 30
0.0
 11
241.3524449577624
 21
102.45750694515181
 31
0.0
  0
LINE
  5
24D
  8
0
 10
237.25244495776241
 20
97.257506945151846
 30
0.0
 11
242.25244495776241
 21
97.257506945151846
 31
0.0
  0
LINE
  5
24E
  8
0
 10
237.25244495776241
 20
101.5575069451518
 30
0.0
 11
238.1524449577625
 21
102.45750694515181
 31
0.0
  0
LINE
  5
24F
  8
0
 10
241.3524449577624
 20
102.45750694515181
 30
0.0
 11
242.25244495776249
 21
101.5575069451518
 31
0.0
  0
LINE
  5
250
  8
0
 10
237.25244495776249
 20
101.5575069451518
 30
0.0
 11
242.25244495776249
 21
101.5575069451518
 31
0.0
  0
LINE
  5
251
  8
0
 10
243.5024448592641
 20
93.457506945151806
 30
0.0
 11
240.35244507352689
 21
93.457506945151835
 31
0.0
  0
LINE
  5
252
  8
0
 10
235.50244485926419
 20
96.457506945151863
 30
0.0
 11
235.50244485926419
 21
93.957506945151877
 31
0.0
  0
LINE
  5
253
  8
0
 10
244.0024448592641
 20
96.457506945151792
 30
0.0
 11
244.0024448592641
 21
93.957506945151806
 31
0.0
  0
ARC
  5
254
  8
0
 10
236.00244485926419
 20
93.957506945151877
 30
0.0
 40
0.5
 50
180.0
 51
269.99999999999949
  0
ARC
  5
255
  8
0
 10
243.5024448592641
 20
93.957506945151806
 30
0.0
 40
0.5
 50
269.99999999999949
 51
0.0000000000001145
  0
ARC
  5
256
  8
0
 10
187.62579777120339
 20
93.957506945151806
 30
0.0
 40
0.5
 50
269.99999999999949
 51
0.0000000000001145
  0
ARC
  5
257
  8
0
 10
180.12579777120359
 20
93.957506945151877
 30
0.0
 40
0.5
 50
180.0
 51
269.99999999999949
  0
LINE
  5
258
  8
0
 10
188.12579777120351
 20
96.457506945151792
 30
0.0
 11
188.12579777120351
 21
93.957506945151806
 31
0.0
  0
LINE
  5
259
  8
0
 10
179.62579777120359
 20
96.457506945151863
 30
0.0
 11
179.62579777120359
 21
93.957506945151877
 31
0.0
  0
LINE
  5
25A
  8
0
 10
187.62579777120339
 20
93.457506945151806
 30
0.0
 11
180.12579777120351
 21
93.457506945151863
 31
0.0
  0
LINE
  5
25B
  8
0
 10
181.37579786970181
 20
101.5575069451518
 30
0.0
 11
186.37579786970181
 21
101.5575069451518
 31
0.0
  0
LINE
  5
25C
  8
0
 10
185.47579786970181
 20
102.45750694515181
 30
0.0
 11
186.37579786970181
 21
101.5575069451518
 31
0.0
  0
LINE
  5
25D
  8
0
 10
181.3757978697017
 20
101.5575069451518
 30
0.0
 11
182.27579786970179
 21
102.45750694515181
 31
0.0
  0
LINE
  5
25E
  8
0
 10
181.3757978697017
 20
97.257506945151846
 30
0.0
 11
186.3757978697017
 21
97.257506945151846
 31
0.0
  0
LINE
  5
25F
  8
0
 10
182.27579786970179
 20
102.45750694515181
 30
0.0
 11
185.47579786970181
 21
102.45750694515181
 31
0.0
  0
LINE
  5
260
  8
0
 10
181.3757978697017
 20
96.457506945151792
 30
0.0
 11
181.3757978697017
 21
101.5575069451518
 31
0.0
  0
LINE
  5
261
  8
3
 10
181.80879786970161
 20
97.257506945151846
 30
0.0
 11
181.80879786970161
 21
101.99050694515159
 31
0.0
  0
LINE
  5
262
  8
3
 10
185.94279786970199
 20
97.257506945151846
 30
0.0
 11
185.94279786970199
 21
101.99050694515159
 31
0.0
  0
LINE
  5
263
  8
0
 10
186.3757978697017
 20
96.457506945151792
 30
0.0
 11
186.37579786970181
 21
101.5575069451518
 31
0.0
  0
LINE
  5
264
  8
0
 10
188.12579777120351
 20
96.457506945151792
 30
0.0
 11
179.62579777120359
 21
96.457506945151863
 31
0.0
  0
LINE
  5
265
  8
0
 10
68.930040470138493
 20
108.257506945152
 30
0.0
 11
78.930040470138493
 21
108.257506945152
 31
0.0
  0
LINE
  5
266
  8
0
 10
68.930040461143292
 20
107.45750694515201
 30
0.0
 11
78.930040461143292
 21
107.45750694515201
 31
0.0
  0
LINE
  5
267
  8
0
 10
68.930040470138493
 20
108.257506945152
 30
0.0
 11
68.930040461143292
 21
107.45750694515201
 31
0.0
  0
LINE
  5
268
  8
0
 10
78.930040470138493
 20
108.257506945152
 30
0.0
 11
78.930040461143292
 21
107.45750694515201
 31
0.0
  0
LINE
  5
269
  8
0
 10
131.63675377256251
 20
108.257506945152
 30
0.0
 11
131.6367537635673
 21
107.45750694515201
 31
0.0
  0
LINE
  5
26A
  8
0
 10
121.6367537725626
 20
108.257506945152
 30
0.0
 11
121.6367537635673
 21
107.45750694515201
 31
0.0
  0
LINE
  5
26B
  8
0
 10
121.6367537635673
 20
107.45750694515201
 30
0.0
 11
131.6367537635673
 21
107.45750694515201
 31
0.0
  0
LINE
  5
26C
  8
0
 10
121.6367537725626
 20
108.257506945152
 30
0.0
 11
131.63675377256251
 21
108.257506945152
 31
0.0
  0
LINE
  5
26D
  8
0
 10
188.87579793444999
 20
108.257506945152
 30
0.0
 11
188.87579792545469
 21
107.45750694515201
 31
0.0
  0
LINE
  5
26E
  8
0
 10
178.87579793444999
 20
108.257506945152
 30
0.0
 11
178.8757979254548
 21
107.45750694515201
 31
0.0
  0
LINE
  5
26F
  8
0
 10
178.8757979254548
 20
107.45750694515201
 30
0.0
 11
188.87579792545469
 21
107.45750694515201
 31
0.0
  0
LINE
  5
270
  8
0
 10
178.87579793444999
 20
108.257506945152
 30
0.0
 11
188.87579793444999
 21
108.257506945152
 31
0.0
  0
LINE
  5
271
  8
0
 10
244.7524450225107
 20
108.257506945152
 30
0.0
 11
244.7524450135154
 21
107.45750694515201
 31
0.0
  0
LINE
  5
272
  8
0
 10
234.75244502251061
 20
108.257506945152
 30
0.0
 11
234.7524450135154
 21
107.45750694515201
 31
0.0
  0
LINE
  5
273
  8
0
 10
234.7524450135154
 20
107.45750694515201
 30
0.0
 11
244.7524450135154
 21
107.45750694515201
 31
0.0
  0
LINE
  5
274
  8
0
 10
234.75244502251061
 20
108.257506945152
 30
0.0
 11
244.7524450225107
 21
108.257506945152
 31
0.0
  0
LINE
  5
2AE
  8
0
 10
126.13675334122701
 20
209.92462349167499
 30
0.0
 11
126.13675334122701
 21
209.824623491675
 31
0.0
  0
LINE
  5
2AF
  8
0
 10
125.13675334122701
 20
209.92462349167499
 30
0.0
 11
125.13675334122701
 21
209.824623491675
 31
0.0
  0
ARC
  5
2B0
  8
0
 10
125.63675334122701
 20
209.824623491675
 30
0.0
 40
0.5
 50
180.0
 51
0.0
  0
ARC
  5
2B1
  8
0
 10
126.63675334122701
 20
208.02462349167499
 30
0.0
 40
0.5
 50
0.0
 51
180.0
  0
LINE
  5
2B2
  8
0
 10
127.13675334122701
 20
207.92462349167499
 30
0.0
 11
127.13675334122701
 21
208.02462349167499
 31
0.0
  0
LINE
  5
2B3
  8
0
 10
126.13675334122701
 20
207.92462349167499
 30
0.0
 11
126.13675334122701
 21
208.02462349167499
 31
0.0
  0
LINE
  5
2B4
  8
0
 10
124.70061267959311
 20
207.92462349167499
 30
0.0
 11
126.13675334122701
 21
207.92462349167499
 31
0.0
  0
LINE
  5
2B5
  8
0
 10
124.3982194761564
 20
208.724623491675
 30
0.0
 11
122.6367527359304
 21
208.724623491675
 31
0.0
  0
LINE
  5
2B6
  8
0
 10
126.13675334122701
 20
209.92462349167499
 30
0.0
 11
128.1367527359304
 21
209.92462349167499
 31
0.0
  0
LINE
  5
2B7
  8
0
 10
127.13675334122701
 20
207.92462349167499
 30
0.0
 11
128.1367527359304
 21
207.92462349167499
 31
0.0
  0
TEXT
  5
319
  8
3
 10
295.90415695875259
 20
217.44191860621041
 30
0.0
 40
2.0
  1
2233X
 50
0.0000000000000368
 72
     4
 11
300.38034743494302
 21
218.44191860621041
 31
0.0
  0
ARC
  5
326
  8
0
 10
126.63675334122701
 20
208.92462349167499
 30
0.0
 40
11.0
 50
21.323686263497581
 51
158.67631373650241
  0
ARC
  5
327
  8
0
 10
126.63675334122701
 20
208.92462349167499
 30
0.0
 40
11.0
 50
201.3236862634979
 51
338.67631373650238
  0
INSERT
  5
492
  8
0
  2
STDGX5
 10
397.10687078574853
 20
25.507984303851689
 30
0.0
  0
INSERT
  5
493
  8
0
  2
STDGX5
 10
397.10687078574853
 20
25.507984303851689
 30
0.0
  0
INSERT
  5
494
  8
0
  2
STDGX5
 10
672.10687078574836
 20
25.507984303851689
 30
0.0
  0
INSERT
  5
495
  8
0
  2
STDGX5
 10
672.10687078574836
 20
25.507984303851689
 30
0.0
  0
INSERT
  5
539
  8
3
  2
*X5
 10
73.861975633043016
 20
124.0441627618945
 30
0.0
1001
ACAD
1000
HATCH
1002
{
1070
    19
1000
_U
1040
1.0
1040
0.7853981633974483
1070
     1
1002
}
  0
ARC
  5
53A
  8
0
 10
243.9356362156374
 20
219.04307999299701
 30
0.0
 40
11.25
 50
291.03946978131728
 51
338.960530218683
  0
ARC
  5
53B
  8
0
 10
243.9356362156374
 20
219.04307999299701
 30
0.0
 40
11.25
 50
201.039469781317
 51
248.96053021868269
  0
ARC
  5
53C
  8
0
 10
243.9356362156374
 20
219.04307999299701
 30
0.0
 40
12.25
 50
200.1530742571083
 51
249.84692574289161
  0
ARC
  5
53D
  8
0
 10
243.9356362156374
 20
219.04307999299701
 30
0.0
 40
12.25
 50
290.15307425710819
 51
339.84692574289181
  0
LINE
  5
53E
  8
1
 10
243.9356362156374
 20
235.54307999299701
 30
0.0
 11
243.9356362156374
 21
177.16916253779499
 31
0.0
  0
LINE
  5
53F
  8
0
 10
239.89676261028649
 20
208.54307999299701
 30
0.0
 11
247.97450982098829
 21
208.54307999299701
 31
0.0
  0
LINE
  5
540
  8
0
 10
239.7151504616038
 20
207.54307999299701
 30
0.0
 11
248.15612196967089
 21
207.54307999299701
 31
0.0
  0
LINE
  5
541
  8
1
 10
227.4356362156374
 20
219.04307999299701
 30
0.0
 11
260.43563621563737
 21
219.04307999299701
 31
0.0
  0
LINE
  5
542
  8
3
 10
234.96489022206251
 20
216.84307999299699
 30
0.0
 11
238.2378302220624
 21
216.84307999299699
 31
0.0
  0
LINE
  5
543
  8
3
 10
235.84187185193801
 20
220.116019992997
 30
0.0
 11
234.96489022206251
 21
216.84307999299699
 31
0.0
  0
ARC
  5
544
  8
0
 10
243.9356362156374
 20
219.04307999299701
 30
0.0
 40
11.25
 50
111.03946978131729
 51
158.960530218683
  0
ARC
  5
545
  8
0
 10
243.9356362156374
 20
219.04307999299701
 30
0.0
 40
12.25
 50
110.1530742571083
 51
159.8469257428917
  0
LINE
  5
546
  8
0
 10
233.4356362156374
 20
223.08195359834781
 30
0.0
 11
233.4356362156374
 21
215.00420638764609
 31
0.0
  0
LINE
  5
547
  8
0
 10
232.4356362156374
 20
223.2635657470305
 30
0.0
 11
232.4356362156374
 21
214.82259423896349
 31
0.0
  0
ARC
  5
548
  8
0
 10
246.08563621563729
 20
225.143079992997
 30
0.0
 40
2.5
 50
270.0
 51
90.0
  0
ARC
  5
549
  8
0
 10
241.7856362156374
 20
225.143079992997
 30
0.0
 40
2.5
 50
90.0
 51
270.0
  0
ARC
  5
54A
  8
0
 10
243.9356362156374
 20
219.04307999299701
 30
0.0
 40
11.25
 50
21.039469781316999
 51
68.96053021868272
  0
ARC
  5
54B
  8
0
 10
243.9356362156374
 20
219.04307999299701
 30
0.0
 40
12.25
 50
20.153074257108258
 51
69.84692574289177
  0
LINE
  5
54C
  8
3
 10
246.89029826078971
 20
221.085779992997
 30
0.0
 11
245.5568782607898
 21
221.085779992997
 31
0.0
  0
LINE
  5
54D
  8
3
 10
245.75347022206211
 20
216.84307999299699
 30
0.0
 11
246.12699943478691
 21
218.23710999299689
 31
0.0
  0
LINE
  5
54E
  8
0
 10
241.7856362156374
 20
222.643079992997
 30
0.0
 11
246.08563621563729
 21
222.643079992997
 31
0.0
  0
LINE
  5
54F
  8
3
 10
245.5568782607898
 20
221.085779992997
 30
0.0
 11
244.4200502220622
 21
216.84307999299699
 31
0.0
  0
LINE
  5
550
  8
3
 10
238.61135943478709
 20
218.23710999299689
 30
0.0
 11
238.7412826392131
 21
218.7219899929969
 31
0.0
  0
LINE
  5
551
  8
3
 10
243.36792221099719
 20
215.630879992997
 30
0.0
 11
244.5697118519378
 21
220.116019992997
 31
0.0
  0
LINE
  5
552
  8
3
 10
242.983982639213
 20
218.7219899929969
 30
0.0
 11
242.1557222109972
 21
215.630879992997
 31
0.0
  0
LINE
  5
553
  8
3
 10
241.75321022206219
 20
216.84307999299699
 30
0.0
 11
242.983982639213
 21
218.7219899929969
 31
0.0
  0
LINE
  5
554
  8
3
 10
240.80202263921291
 20
218.7219899929969
 30
0.0
 11
241.0258902220622
 21
216.84307999299699
 31
0.0
  0
LINE
  5
555
  8
3
 10
240.29857022206221
 20
216.84307999299699
 30
0.0
 11
240.80202263921291
 21
218.7219899929969
 31
0.0
  0
LINE
  5
556
  8
3
 10
239.84213185193789
 20
220.116019992997
 30
0.0
 11
238.96515022206219
 21
216.84307999299699
 31
0.0
  0
LINE
  5
557
  8
3
 10
238.4651958298079
 20
217.691619992997
 30
0.0
 11
236.52567582980791
 21
217.691619992997
 31
0.0
  0
LINE
  5
558
  8
3
 10
236.67183943478719
 20
218.23710999299689
 30
0.0
 11
238.61135943478709
 21
218.23710999299689
 31
0.0
  0
LINE
  5
559
  8
3
 10
236.52567582980791
 20
217.691619992997
 30
0.0
 11
236.67183943478719
 21
218.23710999299689
 31
0.0
  0
LINE
  5
55A
  8
3
 10
238.2378302220624
 20
216.84307999299699
 30
0.0
 11
238.4651958298079
 21
217.691619992997
 31
0.0
  0
LINE
  5
55B
  8
3
 10
238.96515022206219
 20
216.84307999299699
 30
0.0
 11
240.29857022206221
 21
216.84307999299699
 31
0.0
  0
LINE
  5
55C
  8
3
 10
242.1557222109972
 20
215.630879992997
 30
0.0
 11
243.36792221099719
 21
215.630879992997
 31
0.0
  0
LINE
  5
55D
  8
3
 10
241.0258902220622
 20
216.84307999299699
 30
0.0
 11
241.75321022206219
 21
216.84307999299699
 31
0.0
  0
LINE
  5
55E
  8
3
 10
244.4200502220622
 20
216.84307999299699
 30
0.0
 11
245.75347022206211
 21
216.84307999299699
 31
0.0
  0
LINE
  5
55F
  8
3
 10
241.53921185193781
 20
220.116019992997
 30
0.0
 11
239.84213185193789
 21
220.116019992997
 31
0.0
  0
LINE
  5
560
  8
3
 10
239.1148118519379
 20
220.116019992997
 30
0.0
 11
235.84187185193801
 21
220.116019992997
 31
0.0
  0
LINE
  5
561
  8
3
 10
236.94792624419259
 20
219.26747999299701
 30
0.0
 11
238.88744624419229
 21
219.26747999299701
 31
0.0
  0
LINE
  5
562
  8
3
 10
238.7412826392131
 20
218.7219899929969
 30
0.0
 11
236.80176263921311
 21
218.7219899929969
 31
0.0
  0
LINE
  5
563
  8
3
 10
236.80176263921311
 20
218.7219899929969
 30
0.0
 11
236.94792624419259
 21
219.26747999299701
 31
0.0
  0
LINE
  5
564
  8
3
 10
238.88744624419229
 20
219.26747999299701
 30
0.0
 11
239.1148118519379
 21
220.116019992997
 31
0.0
  0
LINE
  5
565
  8
3
 10
243.35751185193769
 20
220.116019992997
 30
0.0
 11
241.82804103699991
 21
218.47954999299679
 31
0.0
  0
LINE
  5
566
  8
3
 10
241.82804103699991
 20
218.47954999299679
 30
0.0
 11
241.53921185193781
 21
220.116019992997
 31
0.0
  0
LINE
  5
567
  8
3
 10
244.5697118519378
 20
220.116019992997
 30
0.0
 11
243.35751185193769
 21
220.116019992997
 31
0.0
  0
LINE
  5
568
  8
3
 10
247.41423358236531
 20
218.32685059262121
 30
0.0
 11
249.20340298274121
 21
220.116019992997
 31
0.0
  0
LINE
  5
569
  8
3
 10
251.39298505918561
 20
219.34591646358521
 30
0.0
 11
250.8159956073691
 21
218.358329992997
 31
0.0
  0
LINE
  5
56A
  8
3
 10
251.4378093110729
 20
218.358329992997
 30
0.0
 11
251.39298505918561
 21
219.34591646358521
 31
0.0
  0
LINE
  5
56B
  8
3
 10
250.38827185193759
 20
220.116019992997
 30
0.0
 11
248.47608298274119
 21
216.84307999299699
 31
0.0
  0
LINE
  5
56C
  8
3
 10
252.84000298274111
 20
216.84307999299699
 30
0.0
 11
252.6914518519377
 21
220.116019992997
 31
0.0
  0
LINE
  5
56D
  8
0
 10
254.4356362156374
 20
215.00420638764609
 30
0.0
 11
254.4356362156374
 21
223.08195359834781
 31
0.0
  0
LINE
  5
56E
  8
0
 10
255.4356362156374
 20
214.82259423896349
 30
0.0
 11
255.4356362156374
 21
223.2635657470305
 31
0.0
  0
LINE
  5
56F
  8
3
 10
250.8159956073691
 20
218.358329992997
 30
0.0
 11
251.4378093110729
 21
218.358329992997
 31
0.0
  0
LINE
  5
570
  8
3
 10
250.4264756525329
 20
217.691619992997
 30
0.0
 11
251.4680697266069
 21
217.691619992997
 31
0.0
  0
LINE
  5
571
  8
3
 10
248.47608298274119
 20
216.84307999299699
 30
0.0
 11
249.9307229827412
 21
216.84307999299699
 31
0.0
  0
LINE
  5
572
  8
3
 10
248.17787022206221
 20
216.84307999299699
 30
0.0
 11
247.41423358236531
 21
218.32685059262121
 31
0.0
  0
LINE
  5
573
  8
3
 10
246.84445022206219
 20
216.84307999299699
 30
0.0
 11
248.17787022206221
 21
216.84307999299699
 31
0.0
  0
LINE
  5
574
  8
3
 10
246.12699943478691
 20
218.23710999299689
 30
0.0
 11
246.84445022206219
 21
216.84307999299699
 31
0.0
  0
LINE
  5
575
  8
3
 10
249.9307229827412
 20
216.84307999299699
 30
0.0
 11
250.4264756525329
 21
217.691619992997
 31
0.0
  0
LINE
  5
576
  8
3
 10
251.50658298274109
 20
216.84307999299699
 30
0.0
 11
252.84000298274111
 21
216.84307999299699
 31
0.0
  0
LINE
  5
577
  8
3
 10
251.4680697266069
 20
217.691619992997
 30
0.0
 11
251.50658298274109
 21
216.84307999299699
 31
0.0
  0
LINE
  5
578
  8
3
 10
252.6914518519377
 20
220.116019992997
 30
0.0
 11
250.38827185193759
 21
220.116019992997
 31
0.0
  0
LINE
  5
579
  8
3
 10
249.20340298274121
 20
220.116019992997
 30
0.0
 11
247.74876298274111
 21
220.116019992997
 31
0.0
  0
LINE
  5
57A
  8
3
 10
246.22112156872871
 20
218.5883785789845
 30
0.0
 11
246.89029826078971
 21
221.085779992997
 31
0.0
  0
LINE
  5
57B
  8
3
 10
247.74876298274111
 20
220.116019992997
 30
0.0
 11
246.22112156872871
 21
218.5883785789845
 31
0.0
  0
LINE
  5
57C
  8
0
 10
241.7856362156374
 20
227.643079992997
 30
0.0
 11
246.08563621563729
 21
227.643079992997
 31
0.0
  0
LINE
  5
57D
  8
0
 10
247.97450982098829
 20
229.54307999299701
 30
0.0
 11
239.89676261028649
 21
229.54307999299701
 31
0.0
  0
LINE
  5
57E
  8
0
 10
248.15612196967089
 20
230.54307999299701
 30
0.0
 11
239.7151504616038
 21
230.54307999299701
 31
0.0
  0
LINE
  5
57F
  8
0
 10
239.48129046617191
 20
203.07452430793211
 30
0.0
 11
240.63563621563739
 21
203.07452430793211
 31
0.0
  0
LINE
  5
580
  8
0
 10
247.2356362156375
 20
203.07452430793211
 30
0.0
 11
247.2356362156375
 21
183.47452430793211
 31
0.0
  0
LINE
  5
581
  8
0
 10
240.63563621563739
 20
203.07452430793211
 30
0.0
 11
240.63563621563739
 21
198.5245243079321
 31
0.0
  0
LINE
  5
582
  8
0
 10
241.4856362156375
 20
197.6745243079321
 30
0.0
 11
241.4856362156375
 21
196.12452430793221
 31
0.0
  0
LINE
  5
583
  8
0
 10
241.4856362156375
 20
197.6745243079321
 30
0.0
 11
240.63563621563739
 21
198.5245243079321
 31
0.0
  0
LINE
  5
584
  8
0
 10
242.23563621563741
 20
195.37452430793209
 30
0.0
 11
242.23563621563741
 21
194.17452430793199
 31
0.0
  0
LINE
  5
585
  8
0
 10
242.23563621563741
 20
195.37452430793201
 30
0.0
 11
241.4856362156373
 21
196.12452430793209
 31
0.0
  0
LINE
  5
586
  8
0
 10
242.23563621563741
 20
194.17452430793199
 30
0.0
 11
241.4856362156373
 21
193.42452430793199
 31
0.0
  0
LINE
  5
587
  8
0
 10
241.4856362156375
 20
193.4245243079321
 30
0.0
 11
241.4856362156375
 21
191.87452430793209
 31
0.0
  0
LINE
  5
588
  8
0
 10
241.4856362156375
 20
191.87452430793209
 30
0.0
 11
240.73563621563741
 21
191.12452430793209
 31
0.0
  0
LINE
  5
589
  8
0
 10
240.73563621563741
 20
191.12452430793209
 30
0.0
 11
240.73563621563741
 21
185.47452430793211
 31
0.0
  0
LINE
  5
58A
  8
0
 10
240.73563621563741
 20
185.47452430793211
 30
0.0
 11
243.21085022998639
 21
182.5246791138922
 31
0.0
  0
LINE
  5
58B
  8
0
 10
247.2356362156375
 20
183.47452430793211
 30
0.0
 11
246.15715267859741
 21
182.3960407708922
 31
0.0
  0
ARC
  5
58C
  8
0
 10
244.74293911622431
 20
183.81025433326519
 30
0.0
 40
2.0
 50
219.9999999999998
 51
314.99999999999972
  0
LINE
  5
597
  8
0
 10
245.73563621563741
 20
182.07400767198209
 30
0.0
 11
245.7356362156373
 21
207.54307999299701
 31
0.0
  0
LINE
  5
598
  8
0
 10
243.83563621563729
 20
182.02789593872541
 30
0.0
 11
243.83563621563729
 21
207.54307999299701
 31
0.0
  0
ARC
  5
599
  8
0
 10
248.38998196510269
 20
203.57452430793211
 30
0.0
 40
0.5
 50
270.0
 51
5.0000000000001208
  0
LINE
  5
59A
  8
0
 10
248.8880793141486
 20
203.61810217930591
 30
0.0
 11
248.53200199634571
 21
207.6880845456208
 31
0.0
  0
LINE
  5
59B
  8
0
 10
238.98319311712609
 20
203.61810217930591
 30
0.0
 11
239.33927043492909
 21
207.6880845456208
 31
0.0
  0
ARC
  5
59C
  8
0
 10
239.48129046617191
 20
203.57452430793211
 30
0.0
 40
0.5
 50
174.99999999999989
 51
270.00000000000028
  0
LINE
  5
59D
  8
0
 10
247.2356362156373
 20
203.07452430793211
 30
0.0
 11
248.38998196510269
 21
203.07452430793211
 31
0.0
  0
LINE
  5
59E
  8
1
 10
300.40315169678212
 20
235.54307999299701
 30
0.0
 11
300.40315169678212
 21
177.16916253779499
 31
0.0
  0
ARC
  5
59F
  8
0
 10
300.40315169678212
 20
219.04307999299701
 30
0.0
 40
12.25
 50
200.1530742571083
 51
249.84692574289181
  0
ARC
  5
5A0
  8
0
 10
300.40315169678212
 20
219.04307999299701
 30
0.0
 40
12.25
 50
290.1530742571083
 51
339.84692574289181
  0
ARC
  5
5A1
  8
0
 10
300.40315169678212
 20
219.04307999299701
 30
0.0
 40
11.25
 50
291.03946978131728
 51
338.96053021868312
  0
ARC
  5
5A2
  8
0
 10
300.40315169678212
 20
219.04307999299701
 30
0.0
 40
11.25
 50
201.03946978131691
 51
248.96053021868269
  0
LINE
  5
5A3
  8
0
 10
303.60315169678211
 20
185.47452430793211
 30
0.0
 11
301.12793768243313
 21
182.5246791138922
 31
0.0
  0
LINE
  5
5A4
  8
0
 10
297.10315169678211
 20
203.07452430793211
 30
0.0
 11
297.10315169678211
 21
183.47452430793211
 31
0.0
  0
LINE
  5
5A5
  8
0
 10
297.10315169678211
 20
183.47452430793211
 30
0.0
 11
298.18163523382202
 21
182.3960407708922
 31
0.0
  0
ARC
  5
5A6
  8
0
 10
299.59584879619513
 20
183.81025433326519
 30
0.0
 40
2.0
 50
225.00000000000031
 51
320.00000000000023
  0
LINE
  5
5A7
  8
0
 10
302.85315169678211
 20
197.6745243079321
 30
0.0
 11
303.70315169678202
 21
198.5245243079321
 31
0.0
  0
LINE
  5
5A8
  8
0
 10
302.85315169678211
 20
191.87452430793209
 30
0.0
 11
303.60315169678211
 21
191.12452430793209
 31
0.0
  0
LINE
  5
5A9
  8
0
 10
303.60315169678211
 20
191.12452430793209
 30
0.0
 11
303.60315169678199
 21
185.47452430793211
 31
0.0
  0
LINE
  5
5AA
  8
0
 10
302.10315169678199
 20
195.37452430793209
 30
0.0
 11
302.10315169678199
 21
194.17452430793199
 31
0.0
  0
LINE
  5
5AB
  8
0
 10
302.10315169678211
 20
194.17452430793199
 30
0.0
 11
302.85315169678211
 21
193.42452430793199
 31
0.0
  0
LINE
  5
5AC
  8
0
 10
302.85315169678211
 20
193.4245243079321
 30
0.0
 11
302.85315169678199
 21
191.87452430793209
 31
0.0
  0
LINE
  5
5AD
  8
0
 10
302.85315169678211
 20
197.6745243079321
 30
0.0
 11
302.85315169678211
 21
196.12452430793221
 31
0.0
  0
LINE
  5
5AE
  8
0
 10
302.10315169678211
 20
195.37452430793201
 30
0.0
 11
302.85315169678211
 21
196.12452430793209
 31
0.0
  0
LINE
  5
5AF
  8
0
 10
304.62363745081558
 20
207.54307999299701
 30
0.0
 11
296.1826659427486
 21
207.54307999299701
 31
0.0
  0
LINE
  5
5B0
  8
0
 10
304.44202530213289
 20
208.54307999299701
 30
0.0
 11
296.36427809143117
 21
208.54307999299701
 31
0.0
  0
LINE
  5
5B1
  8
0
 10
305.35559479529343
 20
203.61810217930591
 30
0.0
 11
304.99951747749037
 21
207.6880845456208
 31
0.0
  0
LINE
  5
5B2
  8
0
 10
303.70315169678202
 20
203.07452430793211
 30
0.0
 11
303.70315169678202
 21
198.5245243079321
 31
0.0
  0
LINE
  5
5B3
  8
0
 10
304.85749744624752
 20
203.07452430793211
 30
0.0
 11
303.70315169678202
 21
203.07452430793211
 31
0.0
  0
ARC
  5
5B4
  8
0
 10
304.85749744624752
 20
203.57452430793211
 30
0.0
 40
0.5
 50
269.99999999999972
 51
5.0000000000001199
  0
LINE
  5
5B5
  8
0
 10
295.45070859827081
 20
203.61810217930591
 30
0.0
 11
295.80678591607369
 21
207.6880845456208
 31
0.0
  0
LINE
  5
5B6
  8
0
 10
297.10315169678211
 20
203.07452430793211
 30
0.0
 11
295.94880594731671
 21
203.07452430793211
 31
0.0
  0
ARC
  5
5B7
  8
0
 10
295.94880594731671
 20
203.57452430793211
 30
0.0
 40
0.5
 50
174.99999999999989
 51
270.0
  0
ARC
  5
5B8
  8
0
 10
300.40315169678212
 20
219.04307999299701
 30
0.0
 40
12.25
 50
110.1530742571082
 51
159.8469257428917
  0
ARC
  5
5B9
  8
0
 10
300.40315169678212
 20
219.04307999299701
 30
0.0
 40
11.25
 50
111.03946978131729
 51
158.96053021868309
  0
LINE
  5
5BA
  8
1
 10
316.903151696782
 20
219.04307999299701
 30
0.0
 11
283.90315169678212
 21
219.04307999299701
 31
0.0
  0
ARC
  5
5BB
  8
0
 10
302.55315169678198
 20
225.143079992997
 30
0.0
 40
2.5
 50
270.0
 51
90.0
  0
ARC
  5
5BC
  8
0
 10
298.25315169678208
 20
225.143079992997
 30
0.0
 40
2.5
 50
90.0
 51
270.0
  0
ARC
  5
5BD
  8
0
 10
300.40315169678212
 20
219.04307999299701
 30
0.0
 40
12.25
 50
20.153074257108241
 51
69.846925742891614
  0
ARC
  5
5BE
  8
0
 10
300.40315169678212
 20
219.04307999299701
 30
0.0
 40
11.25
 50
21.03946978131691
 51
68.96053021868272
  0
LINE
  5
5BF
  8
0
 10
311.90315169678212
 20
223.2635657470305
 30
0.0
 11
311.90315169678212
 21
214.82259423896349
 31
0.0
  0
LINE
  5
5C0
  8
0
 10
310.90315169678212
 20
223.08195359834781
 30
0.0
 11
310.90315169678212
 21
215.00420638764609
 31
0.0
  0
LINE
  5
5C1
  8
0
 10
302.55315169678198
 20
222.643079992997
 30
0.0
 11
298.25315169678208
 21
222.643079992997
 31
0.0
  0
LINE
  5
5C2
  8
0
 10
296.1826659427486
 20
230.54307999299701
 30
0.0
 11
304.62363745081558
 21
230.54307999299701
 31
0.0
  0
LINE
  5
5C3
  8
0
 10
296.36427809143117
 20
229.54307999299701
 30
0.0
 11
304.44202530213289
 21
229.54307999299701
 31
0.0
  0
LINE
  5
5C4
  8
0
 10
302.55315169678198
 20
227.643079992997
 30
0.0
 11
298.25315169678208
 21
227.643079992997
 31
0.0
  0
LINE
  5
5C5
  8
0
 10
288.90315169678212
 20
214.82259423896349
 30
0.0
 11
288.90315169678212
 21
223.2635657470305
 31
0.0
  0
LINE
  5
5C6
  8
0
 10
289.903151696782
 20
215.00420638764609
 30
0.0
 11
289.903151696782
 21
223.08195359834781
 31
0.0
  0
INSERT
  5
5C7
  8
3
  2
*X6
 10
132.4895802578759
 20
124.0441627618945
 30
0.0
1001
ACAD
1000
HATCH
1002
{
1070
    19
1000
_U
1040
1.0
1040
0.7853981633974483
1070
     1
1002
}
  0
LINE
  5
5C8
  8
3
 10
308.90315169678212
 20
220.143079992997
 30
0.0
 11
291.903151696782
 21
220.143079992997
 31
0.0
  0
LINE
  5
5C9
  8
3
 10
308.90315169678212
 20
216.84307999299699
 30
0.0
 11
291.903151696782
 21
216.84307999299699
 31
0.0
  0
LINE
  5
5CA
  8
3
 10
291.903151696782
 20
220.143079992997
 30
0.0
 11
291.903151696782
 21
216.84307999299699
 31
0.0
  0
LINE
  5
5CB
  8
3
 10
308.90315169678212
 20
220.143079992997
 30
0.0
 11
308.90315169678212
 21
216.84307999299699
 31
0.0
  0
LINE
  5
5CC
  8
0
 10
301.50315169678203
 20
182.97184176348421
 30
0.0
 11
301.50315169678203
 21
207.54307999299701
 31
0.0
  0
LINE
  5
5CD
  8
0
 10
303.70315169678207
 20
207.54307999299701
 30
0.0
 11
303.70315169678202
 21
203.07452430793211
 31
0.0
  0
LINE
  5
5D0
  8
0
 10
270.41488427020369
 20
207.54307999299701
 30
0.0
 11
270.41488427020391
 21
181.81025433326519
 31
0.0
  0
LINE
  5
5D1
  8
0
 10
272.11488427020379
 20
207.54307999299701
 30
0.0
 11
272.11488427020379
 21
181.81025433326519
 31
0.0
  0
LINE
  5
5D2
  8
0
 10
270.41488427020391
 20
181.81025433326519
 30
0.0
 11
272.11488427020379
 21
181.81025433326519
 31
0.0
  0
LINE
  5
5D3
  8
0
 10
268.51488427020382
 20
230.54307999299701
 30
0.0
 11
268.51488427020382
 21
207.54307999299701
 31
0.0
  0
LINE
  5
5D4
  8
0
 10
274.01488427020371
 20
230.54307999299701
 30
0.0
 11
274.01488427020371
 21
207.54307999299701
 31
0.0
  0
LINE
  5
5D5
  8
0
 10
268.51488427020382
 20
207.54307999299701
 30
0.0
 11
274.01488427020371
 21
207.54307999299701
 31
0.0
  0
LINE
  5
5D6
  8
0
 10
268.51488427020382
 20
230.54307999299701
 30
0.0
 11
274.01488427020371
 21
230.54307999299701
 31
0.0
  0
ARC
  5
5E2
  8
5
 10
131.191099000847
 20
143.75750374981601
 30
0.0
 40
0.5
 50
270.0
 51
5.0000000000001208
  0
ARC
  5
5E3
  8
5
 10
122.2824075019162
 20
143.75750374981601
 30
0.0
 40
0.5
 50
174.99999999999989
 51
270.00000000000028
  0
ARC
  5
5F6
  8
5
 10
126.7367532513816
 20
159.22605943488091
 30
0.0
 40
11.25
 50
201.039469781317
 51
248.96053021868269
  0
ARC
  5
5F7
  8
5
 10
126.7367532513816
 20
159.22605943488091
 30
0.0
 40
12.25
 50
200.1530742571083
 51
249.84692574289161
  0
ARC
  5
5F8
  8
5
 10
126.7367532513816
 20
159.22605943488091
 30
0.0
 40
11.25
 50
111.03946978131729
 51
158.960530218683
  0
ARC
  5
5F9
  8
5
 10
126.7367532513816
 20
159.22605943488091
 30
0.0
 40
12.25
 50
110.1530742571083
 51
159.8469257428917
  0
LINE
  5
5FC
  8
5
 10
116.2367532513816
 20
163.26493304023171
 30
0.0
 11
116.2367532513816
 21
155.18718582953011
 31
0.0
  0
LINE
  5
5FD
  8
5
 10
115.2367532513816
 20
163.4465451889144
 30
0.0
 11
115.2367532513816
 21
155.00557368084739
 31
0.0
  0
ARC
  5
5FE
  8
5
 10
124.58675325138159
 20
165.3260594348809
 30
0.0
 40
2.5
 50
90.0
 51
270.0
  0
ARC
  5
5FF
  8
5
 10
128.88675325138161
 20
165.3260594348809
 30
0.0
 40
2.5
 50
270.0
 51
90.0
  0
ARC
  5
600
  8
5
 10
126.7367532513816
 20
159.22605943488091
 30
0.0
 40
11.25
 50
21.039469781316999
 51
68.96053021868272
  0
ARC
  5
601
  8
5
 10
126.7367532513816
 20
159.22605943488091
 30
0.0
 40
12.25
 50
20.153074257108258
 51
69.84692574289177
  0
ARC
  5
606
  8
5
 10
126.7367532513816
 20
159.22605943488091
 30
0.0
 40
11.25
 50
291.03946978131728
 51
338.960530218683
  0
ARC
  5
607
  8
5
 10
126.7367532513816
 20
159.22605943488091
 30
0.0
 40
12.25
 50
290.15307425710819
 51
339.84692574289181
  0
LINE
  5
608
  8
5
 10
122.6978796460307
 20
148.72605943488091
 30
0.0
 11
130.77562685673249
 21
148.72605943488091
 31
0.0
  0
LINE
  5
609
  8
5
 10
122.516267497348
 20
147.72605943488091
 30
0.0
 11
130.9572390054152
 21
147.72605943488091
 31
0.0
  0
LINE
  5
60A
  8
5
 10
121.7843101528704
 20
143.80108162118981
 30
0.0
 11
122.1403874706733
 21
147.8710639875047
 31
0.0
  0
LINE
  5
60B
  8
5
 10
131.68919634989291
 20
143.80108162118981
 30
0.0
 11
131.33311903208991
 21
147.8710639875047
 31
0.0
  0
LINE
  5
62C
  8
5
 10
124.58675325138159
 20
162.8260594348809
 30
0.0
 11
128.88675325138161
 21
162.8260594348809
 31
0.0
  0
LINE
  5
62F
  8
5
 10
138.2367532513816
 20
155.00557368084739
 30
0.0
 11
138.2367532513816
 21
163.4465451889144
 31
0.0
  0
LINE
  5
633
  8
5
 10
137.2367532513816
 20
155.18718582953011
 30
0.0
 11
137.2367532513816
 21
163.26493304023171
 31
0.0
  0
LINE
  5
63A
  8
5
 10
130.77562685673249
 20
169.72605943488091
 30
0.0
 11
122.6978796460307
 21
169.72605943488091
 31
0.0
  0
LINE
  5
63B
  8
5
 10
130.9572390054152
 20
170.72605943488091
 30
0.0
 11
122.516267497348
 21
170.72605943488091
 31
0.0
  0
LINE
  5
63C
  8
5
 10
124.58675325138159
 20
167.8260594348809
 30
0.0
 11
128.88675325138161
 21
167.8260594348809
 31
0.0
  0
TEXT
  5
7D5
  8
0
 62
     3
 10
0.0
 20
0.0
 30
0.0
 40
10.0
  1
MWL32KY
  7
STANDARD1
  0
ENDSEC
  0
EOF
