  0
SECTION
  2
HEADER
  9
$ACADVER
  1
AC1009
  9
$INSBASE
 10
0.0
 20
0.0
 30
0.0
  9
$EXTMIN
 10
0.0
 20
-2.960436562073669
 30
0.0
  9
$EXTMAX
 10
247.72574879817071
 20
216.49097370221591
 30
0.0
  9
$LIMMIN
 10
0.0
 20
0.0
  9
$LIMMAX
 10
187.5
 20
135.0
  9
$ORTHOMODE
 70
     1
  9
$REGENMODE
 70
     1
  9
$FILLMODE
 70
     1
  9
$QTEXTMODE
 70
     0
  9
$MIRRTEXT
 70
     0
  9
$DRAGMODE
 70
     2
  9
$LTSCALE
 40
10.0
  9
$OSMODE
 70
  3071
  9
$ATTMODE
 70
     1
  9
$TEXTSIZE
 40
0.2
  9
$TRACEWID
 40
0.05
  9
$TEXTSTYLE
  7
STANDARD
  9
$CLAYER
  8
0
  9
$CELTYPE
  6
BYLAYER
  9
$CECOLOR
 62
   256
  9
$DIMSCALE
 40
0.5
  9
$DIMASZ
 40
3.0
  9
$DIMEXO
 40
2.0
  9
$DIMDLI
 40
0.38
  9
$DIMRND
 40
0.0
  9
$DIMDLE
 40
0.0
  9
$DIMEXE
 40
2.0
  9
$DIMTP
 40
0.0
  9
$DIMTM
 40
0.0
  9
$DIMTXT
 40
3.2000000000000002
  9
$DIMCEN
 40
0.0
  9
$DIMTSZ
 40
0.0
  9
$DIMTOL
 70
     0
  9
$DIMLIM
 70
     0
  9
$DIMTIH
 70
     0
  9
$DIMTOH
 70
     0
  9
$DIMSE1
 70
     0
  9
$DIMSE2
 70
     0
  9
$DIMTAD
 70
     1
  9
$DIMZIN
 70
     0
  9
$DIMBLK
  1

  9
$DIMASO
 70
     0
  9
$DIMSHO
 70
     0
  9
$DIMPOST
  1

  9
$DIMAPOST
  1

  9
$DIMALT
 70
     0
  9
$DIMALTD
 70
     2
  9
$DIMALTF
 40
25.399999999999999
  9
$DIMLFAC
 40
1.0
  9
$DIMTOFL
 70
     1
  9
$DIMTVP
 40
1.6000000000000001
  9
$DIMTIX
 70
     1
  9
$DIMSOXD
 70
     0
  9
$DIMSAH
 70
     0
  9
$DIMBLK1
  1

  9
$DIMBLK2
  1

  9
$DIMSTYLE
  2
STANDARD
  9
$DIMCLRD
 70
     0
  9
$DIMCLRE
 70
     0
  9
$DIMCLRT
 70
     0
  9
$DIMTFAC
 40
1.0
  9
$DIMGAP
 40
0.09
  9
$LUNITS
 70
     2
  9
$LUPREC
 70
     4
  9
$SKETCHINC
 40
0.1
  9
$FILLETRAD
 40
0.0
  9
$AUNITS
 70
     0
  9
$AUPREC
 70
     4
  9
$MENU
  1
E:\r13\win\SUPPORT\ACAD
  9
$ELEVATION
 40
0.0
  9
$PELEVATION
 40
0.0
  9
$THICKNESS
 40
0.0
  9
$LIMCHECK
 70
     0
  9
$BLIPMODE
 70
     0
  9
$CHAMFERA
 40
0.0
  9
$CHAMFERB
 40
0.0
  9
$SKPOLY
 70
     0
  9
$TDCREATE
 40
2449839.7732986109
  9
$TDUPDATE
 40
2456597.675276354
  9
$TDINDWG
 40
0.0360854051
  9
$TDUSRTIMER
 40
0.0360854051
  9
$USRTIMER
 70
     1
  9
$ANGBASE
 50
0.0
  9
$ANGDIR
 70
     0
  9
$PDMODE
 70
     0
  9
$PDSIZE
 40
0.0
  9
$PLINEWID
 40
0.0
  9
$COORDS
 70
     1
  9
$SPLFRAME
 70
     0
  9
$SPLINETYPE
 70
     6
  9
$SPLINESEGS
 70
     8
  9
$ATTDIA
 70
     0
  9
$ATTREQ
 70
     1
  9
$HANDLING
 70
     1
  9
$HANDSEED
  5
688
  9
$SURFTAB1
 70
     6
  9
$SURFTAB2
 70
     6
  9
$SURFTYPE
 70
     6
  9
$SURFU
 70
     6
  9
$SURFV
 70
     6
  9
$UCSNAME
  2

  9
$UCSORG
 10
0.0
 20
0.0
 30
0.0
  9
$UCSXDIR
 10
1.0
 20
0.0
 30
0.0
  9
$UCSYDIR
 10
0.0
 20
1.0
 30
0.0
  9
$PUCSNAME
  2

  9
$PUCSORG
 10
0.0
 20
0.0
 30
0.0
  9
$PUCSXDIR
 10
1.0
 20
0.0
 30
0.0
  9
$PUCSYDIR
 10
0.0
 20
1.0
 30
0.0
  9
$USERI1
 70
     0
  9
$USERI2
 70
     1
  9
$USERI3
 70
     0
  9
$USERI4
 70
     0
  9
$USERI5
 70
     0
  9
$USERR1
 40
0.0
  9
$USERR2
 40
0.0
  9
$USERR3
 40
0.0
  9
$USERR4
 40
0.0
  9
$USERR5
 40
0.0
  9
$WORLDVIEW
 70
     1
  9
$SHADEDGE
 70
     3
  9
$SHADEDIF
 70
    70
  9
$TILEMODE
 70
     1
  9
$MAXACTVP
 70
    16
  9
$PLIMCHECK
 70
     0
  9
$PEXTMIN
 10
1.0000000000000000E+020
 20
1.0000000000000000E+020
 30
1.0000000000000000E+020
  9
$PEXTMAX
 10
-1.0000000000000000E+020
 20
-1.0000000000000000E+020
 30
-1.0000000000000000E+020
  9
$PLIMMIN
 10
0.0
 20
0.0
  9
$PLIMMAX
 10
12.0
 20
9.0
  9
$UNITMODE
 70
     0
  9
$VISRETAIN
 70
     0
  9
$PLINEGEN
 70
     0
  9
$PSLTSCALE
 70
     0
  0
ENDSEC
  0
SECTION
  2
TABLES
  0
TABLE
  2
VPORT
 70
     1
  0
VPORT
  2
*ACTIVE
 70
     0
 10
0.0
 20
0.0
 11
1.0
 21
1.0
 12
123.8628749758667
 22
107.2423100550044
 13
0.0
 23
0.0
 14
5.0
 24
5.0
 15
5.0
 25
5.0
 16
0.0
 26
0.0
 36
1.0
 17
0.0
 27
0.0
 37
0.0
 40
222.93343797883401
 41
2.304913294797688
 42
50.0
 43
0.0
 44
0.0
 50
0.0
 51
0.0
 71
     0
 72
   500
 73
     1
 74
     0
 75
     0
 76
     0
 77
     0
 78
     2
  0
ENDTAB
  0
TABLE
  2
LTYPE
 70
     4
  0
LTYPE
  2
CONTINUOUS
 70
     0
  3
Solid Line
 72
    65
 73
     0
 40
0.0
  0
LTYPE
  2
CENTER
 70
     0
  3
____ _ ____ _ ____ _ ____ _ ____ _ ____ _ ____
 72
    65
 73
     4
 40
2.0
 49
1.25
 49
-0.25
 49
0.25
 49
-0.25
  0
LTYPE
  2
HIDDEN
 70
     0
  3
_ _ _ _ _ _ _ _ _ _ _ _ _ _ _ _ _ _ _ _ _ _ _
 72
    65
 73
     2
 40
0.375
 49
0.25
 49
-0.125
  0
LTYPE
  2
PHANTOM2
 70
     0
  3
___ _ _ ___ _ _ ___ _ _ ___ _ _
 72
    65
 73
     6
 40
1.25
 49
0.625
 49
-0.125
 49
0.125
 49
-0.125
 49
0.125
 49
-0.125
  0
ENDTAB
  0
TABLE
  2
LAYER
 70
     4
  0
LAYER
  2
0
 70
     0
 62
     7
  6
CONTINUOUS
  0
LAYER
  2
1
 70
     0
 62
     1
  6
CENTER
  0
LAYER
  2
2
 70
     0
 62
     2
  6
HIDDEN
  0
LAYER
  2
3
 70
     0
 62
     3
  6
CONTINUOUS
  0
ENDTAB
  0
TABLE
  2
STYLE
 70
     2
  0
STYLE
  2
STANDARD
 70
     0
 40
0.0
 41
1.0
 50
0.0
 71
     0
 42
0.2
  3
TXT
  4
BIGFONT
  0
STYLE
  2
STANDARD1
 70
     0
 40
0.0
 41
1.0
 50
0.0
 71
     0
 42
3.0
  3
txt
  4

  0
ENDTAB
  0
TABLE
  2
VIEW
 70
     1
  0
VIEW
  2
ALL
 70
     0
 40
270.0
 10
220.99159663865549
 20
135.0
 41
0.0
 11
0.0
 21
0.0
 31
1.0
 12
0.0
 22
0.0
 32
0.0
 42
0.0
 43
0.0
 44
0.0
 50
0.0
 71
     0
  0
ENDTAB
  0
TABLE
  2
UCS
 70
     0
  0
ENDTAB
  0
TABLE
  2
APPID
 70
     3
  0
APPID
  2
ACAD
 70
     0
  0
APPID
  2
ACAD_MLEADERVER
 70
     0
  0
APPID
  2
ACAD_NAV_VCDISPLAY
 70
     0
  0
ENDTAB
  0
TABLE
  2
DIMSTYLE
 70
     1
  0
DIMSTYLE
  2
STANDARD
 70
     0
  3

  4

  5

  6

  7

 40
1.0
 41
0.18
 42
0.0625
 43
0.38
 44
0.18
 45
0.0
 46
0.0
 47
0.0
 48
0.0
140
0.18
141
0.09
142
0.0
143
25.399999999999999
144
1.0
145
0.0
146
1.0
147
0.09
 71
     0
 72
     0
 73
     1
 74
     1
 75
     0
 76
     0
 77
     0
 78
     0
170
     0
171
     2
172
     0
173
     0
174
     0
175
     0
176
     0
177
     0
178
     0
  0
ENDTAB
  0
ENDSEC
  0
SECTION
  2
BLOCKS
  0
BLOCK
  8
0
  2
$MODEL_SPACE
 70
     0
 10
0.0
 20
0.0
 30
0.0
  3
$MODEL_SPACE
  1

  0
ENDBLK
  5
1D4
  8
0
  0
BLOCK
 67
     1
  8
0
  2
$PAPER_SPACE
 70
     0
 10
0.0
 20
0.0
 30
0.0
  3
$PAPER_SPACE
  1

  0
ENDBLK
  5
1D2
 67
     1
  8
0
  0
ENDSEC
  0
SECTION
  2
ENTITIES
  0
LINE
  5
483
  8
0
 10
137.7560788840606
 20
87.021303788105826
 30
0.0
 11
138.28640896995049
 21
86.490973702215953
 31
0.0
  0
LINE
  5
484
  8
0
 10
136.6954187122808
 20
85.960643616326038
 30
0.0
 11
137.22574879817071
 21
85.430313530436138
 31
0.0
  0
LINE
  5
485
  8
0
 10
95.225748798170684
 20
85.430313530436138
 30
0.0
 11
95.756078884060628
 21
85.960643616326038
 31
0.0
  0
LINE
  5
486
  8
0
 10
94.165088626391025
 20
86.490973702215953
 30
0.0
 11
94.695418712280855
 21
87.021303788105826
 31
0.0
  0
LINE
  5
487
  8
0
 10
234.72574879817071
 20
93.490973702215967
 30
0.0
 11
241.22574879817071
 21
93.490973702215967
 31
0.0
  0
LINE
  5
488
  8
0
 10
209.22574879817071
 20
93.490973702215967
 30
0.0
 11
215.72574879817071
 21
93.490973702215967
 31
0.0
  0
LINE
  5
489
  8
0
 10
215.72574879817071
 20
78.490973702215953
 30
0.0
 11
215.72574879817071
 21
93.490973702215967
 31
0.0
  0
LINE
  5
48A
  8
0
 10
241.22574879817071
 20
93.490973702215967
 30
0.0
 11
241.22574879817071
 21
126.490973702216
 31
0.0
  0
LINE
  5
48B
  8
0
 10
209.22574879817071
 20
93.490973702215967
 30
0.0
 11
209.22574879817071
 21
126.490973702216
 31
0.0
  0
LINE
  5
48C
  8
0
 10
209.22574879817071
 20
126.490973702216
 30
0.0
 11
241.22574879817071
 21
126.490973702216
 31
0.0
  0
LINE
  5
48D
  8
0
 10
215.72574879817071
 20
86.490973702215953
 30
0.0
 11
234.72574879817071
 21
86.490973702215953
 31
0.0
  0
LINE
  5
48E
  8
0
 10
63.225748798170677
 20
86.490973702215953
 30
0.0
 11
94.165088626391025
 21
86.490973702215953
 31
0.0
  0
LINE
  5
48F
  8
0
 10
169.22574879817071
 20
126.490973702216
 30
0.0
 11
63.225748798170677
 21
126.490973702216
 31
0.0
  0
LINE
  5
490
  8
0
 10
63.225748798170677
 20
126.490973702216
 30
0.0
 11
63.225748798170677
 21
86.490973702215953
 31
0.0
  0
LINE
  5
491
  8
0
 10
138.28640896995049
 20
86.490973702215953
 30
0.0
 11
169.22574879817071
 21
86.490973702215953
 31
0.0
  0
LINE
  5
492
  8
1
 10
130.22574879817071
 20
108.18793396955419
 30
0.0
 11
130.2257487981706
 21
40.490973702215967
 31
0.0
  0
LINE
  5
493
  8
1
 10
102.2257487981707
 20
108.18793396955419
 30
0.0
 11
102.2257487981707
 21
40.490973702215967
 31
0.0
  0
LINE
  5
494
  8
0
 10
137.22574879817071
 20
85.430313530436138
 30
0.0
 11
137.22574879817071
 21
78.490973702215953
 31
0.0
  0
LINE
  5
495
  8
0
 10
95.225748798170684
 20
78.490973702215953
 30
0.0
 11
95.225748798170684
 21
85.430313530436138
 31
0.0
  0
LINE
  5
496
  8
1
 10
116.2257487981706
 20
131.49097370221591
 30
0.0
 11
116.2257487981707
 21
40.490973702215967
 31
0.0
  0
LINE
  5
497
  8
0
 10
209.22574879817071
 20
93.490973702215967
 30
0.0
 11
210.60074879817071
 21
93.490973702215967
 31
0.0
  0
LINE
  5
498
  8
1
 10
225.22574879817071
 20
131.490973702216
 30
0.0
 11
225.2257487981708
 21
40.490973702215967
 31
0.0
  0
LINE
  5
499
  8
0
 10
215.72574879817071
 20
78.490973702215953
 30
0.0
 11
234.72574879817071
 21
78.490973702215953
 31
0.0
  0
LINE
  5
49A
  8
0
 10
63.225748798170677
 20
93.490973702215967
 30
0.0
 11
169.22574879817071
 21
93.490973702215967
 31
0.0
  0
LINE
  5
49B
  8
0
 10
95.225748798170684
 20
78.490973702215953
 30
0.0
 11
137.22574879817071
 21
78.490973702215953
 31
0.0
  0
LINE
  5
49C
  8
1
 10
140.52878853083249
 20
105.4909737022159
 30
0.0
 11
174.22574879817051
 21
105.4909737022159
 31
0.0
  0
LINE
  5
49D
  8
0
 10
234.72574879817071
 20
93.490973702215967
 30
0.0
 11
234.72574879817071
 21
78.490973702215953
 31
0.0
  0
LINE
  5
49E
  8
1
 10
216.22574879817071
 20
105.4909737022159
 30
0.0
 11
234.22574879817071
 21
105.4909737022159
 31
0.0
  0
LINE
  5
49F
  8
0
 10
90.725748798170684
 20
53.49097370221596
 30
0.0
 11
141.7257487981706
 21
53.49097370221596
 31
0.0
  0
LINE
  5
4A0
  8
0
 10
90.725748798170684
 20
45.490973702215967
 30
0.0
 11
90.725748798170684
 21
53.49097370221596
 31
0.0
  0
LINE
  5
4A1
  8
0
 10
141.7257487981706
 20
45.490973702215967
 30
0.0
 11
141.7257487981706
 21
53.49097370221596
 31
0.0
  0
LINE
  5
4A2
  8
2
 10
121.9757487981707
 20
46.49097370221596
 30
0.0
 11
121.9757487981707
 21
45.490973702215967
 31
0.0
  0
LINE
  5
4A3
  8
2
 10
138.47574879817071
 20
45.490973702215967
 30
0.0
 11
138.47574879817071
 21
46.49097370221596
 31
0.0
  0
LINE
  5
4A4
  8
2
 10
125.9757487981707
 20
50.49097370221574
 30
0.0
 11
125.9757487981707
 21
53.49097370221596
 31
0.0
  0
LINE
  5
4A5
  8
2
 10
134.47574879817071
 20
50.490973702215967
 30
0.0
 11
134.47574879817071
 21
53.49097370221596
 31
0.0
  0
LINE
  5
4A6
  8
2
 10
134.2257487981706
 20
50.740973702216053
 30
0.0
 11
138.47574879817071
 21
46.49097370221596
 31
0.0
  0
LINE
  5
4A7
  8
2
 10
126.2257487981708
 20
50.740973702216053
 30
0.0
 11
121.9757487981707
 21
46.49097370221596
 31
0.0
  0
LINE
  5
4A8
  8
0
 10
90.725748798170684
 20
45.490973702215967
 30
0.0
 11
141.7257487981706
 21
45.490973702215967
 31
0.0
  0
LINE
  5
4A9
  8
0
 10
202.72574879817071
 20
45.490973702215967
 30
0.0
 11
247.72574879817071
 21
45.490973702215967
 31
0.0
  0
LINE
  5
4AA
  8
0
 10
247.72574879817071
 20
45.490973702215967
 30
0.0
 11
247.72574879817071
 21
53.49097370221596
 31
0.0
  0
LINE
  5
4AB
  8
0
 10
202.72574879817071
 20
45.490973702215967
 30
0.0
 11
202.72574879817071
 21
53.49097370221596
 31
0.0
  0
LINE
  5
4AC
  8
0
 10
202.72574879817071
 20
53.49097370221596
 30
0.0
 11
247.72574879817071
 21
53.49097370221596
 31
0.0
  0
LINE
  5
4AD
  8
0
 10
169.22574879817071
 20
126.490973702216
 30
0.0
 11
169.22574879817071
 21
86.490973702215953
 31
0.0
  0
ARC
  5
4AE
  8
0
 10
137.22574879817071
 20
86.490973702215953
 30
0.0
 40
0.7499999999999859
 50
45.000000000001442
 51
224.99999999999679
  0
ARC
  5
4AF
  8
0
 10
95.225748798170684
 20
86.490973702215953
 30
0.0
 40
0.7499999999999659
 50
314.99999999999972
 51
135.00000000000171
  0
LINE
  5
4B0
  8
2
 10
133.54924879817071
 20
51.91270607353615
 30
0.0
 11
134.2257487981706
 21
50.740973702216053
 31
0.0
  0
LINE
  5
4B1
  8
2
 10
126.9022487981705
 20
51.91270607353615
 30
0.0
 11
126.2257487981707
 21
50.740973702216053
 31
0.0
  0
LINE
  5
4B2
  8
2
 10
126.2257487981707
 20
51.91270607353615
 30
0.0
 11
134.22574879817071
 21
51.91270607353615
 31
0.0
  0
LINE
  5
4B3
  8
0
 10
126.2257487981707
 20
65.14097370221603
 30
0.0
 11
134.22574879817071
 21
65.140973702215916
 31
0.0
  0
LINE
  5
4B4
  8
0
 10
133.0257487981707
 20
66.340973702215962
 30
0.0
 11
134.22574879817071
 21
65.140973702215916
 31
0.0
  0
LINE
  5
4B5
  8
0
 10
126.2257487981707
 20
65.14097370221603
 30
0.0
 11
127.4257487981707
 21
66.340973702215962
 31
0.0
  0
LINE
  5
4B6
  8
0
 10
126.2257487981707
 20
53.49097370221596
 30
0.0
 11
126.2257487981707
 21
65.14097370221603
 31
0.0
  0
LINE
  5
4B7
  8
3
 10
126.9022487981706
 20
53.49097370221596
 30
0.0
 11
126.9022487981706
 21
65.817473702215835
 31
0.0
  0
LINE
  5
4B8
  8
3
 10
133.54924879817079
 20
53.49097370221596
 30
0.0
 11
133.54924879817079
 21
65.817473702215835
 31
0.0
  0
LINE
  5
4B9
  8
0
 10
134.2257487981706
 20
53.49097370221596
 30
0.0
 11
134.22574879817071
 21
65.140973702215916
 31
0.0
  0
LINE
  5
4BA
  8
0
 10
127.4257487981707
 20
66.340973702215962
 30
0.0
 11
133.0257487981707
 21
66.340973702215962
 31
0.0
  0
LINE
  5
4BB
  8
2
 10
122.2257487981707
 20
46.340973702215962
 30
0.0
 11
122.2257487981707
 21
46.740973702215939
 31
0.0
  0
LINE
  5
4BC
  8
2
 10
122.2257487981707
 20
46.740973702215939
 30
0.0
 11
138.22574879817071
 21
46.740973702215939
 31
0.0
  0
LINE
  5
4BD
  8
2
 10
138.22574879817071
 20
46.740973702215939
 30
0.0
 11
138.22574879817071
 21
46.340973702215962
 31
0.0
  0
LINE
  5
4BE
  8
2
 10
138.22574879817071
 20
46.340973702215962
 30
0.0
 11
122.2257487981707
 21
46.340973702215962
 31
0.0
  0
LINE
  5
4BF
  8
2
 10
122.2257487981707
 20
46.340973702215962
 30
0.0
 11
122.2257487981707
 21
46.740973702215939
 31
0.0
  0
LINE
  5
4C0
  8
2
 10
126.2257487981707
 20
50.740973702216053
 30
0.0
 11
134.22574879817071
 21
50.740973702216053
 31
0.0
  0
LINE
  5
4C1
  8
2
 10
126.9022487981705
 20
51.91270607353615
 30
0.0
 11
126.9022487981706
 21
53.49097370221596
 31
0.0
  0
LINE
  5
4C2
  8
2
 10
126.2257487981707
 20
50.740973702216017
 30
0.0
 11
126.2257487981707
 21
53.49097370221596
 31
0.0
  0
LINE
  5
4C3
  8
2
 10
134.2257487981706
 20
50.740973702216017
 30
0.0
 11
134.2257487981706
 21
53.49097370221596
 31
0.0
  0
LINE
  5
4C4
  8
2
 10
133.54924879817079
 20
51.91270607353615
 30
0.0
 11
133.54924879817071
 21
53.49097370221596
 31
0.0
  0
LINE
  5
4C5
  8
2
 10
98.902248798170547
 20
51.91270607353615
 30
0.0
 11
98.902248798170604
 21
53.49097370221596
 31
0.0
  0
LINE
  5
4C6
  8
2
 10
98.225748798170756
 20
50.740973702216017
 30
0.0
 11
98.225748798170756
 21
53.49097370221596
 31
0.0
  0
LINE
  5
4C7
  8
2
 10
106.2257487981706
 20
50.740973702216017
 30
0.0
 11
106.2257487981706
 21
53.49097370221596
 31
0.0
  0
LINE
  5
4C8
  8
2
 10
105.54924879817079
 20
51.91270607353615
 30
0.0
 11
105.54924879817069
 21
53.49097370221596
 31
0.0
  0
LINE
  5
4C9
  8
2
 10
106.2257487981707
 20
50.740973702216053
 30
0.0
 11
98.225748798170684
 21
50.740973702216053
 31
0.0
  0
LINE
  5
4CA
  8
2
 10
110.2257487981707
 20
46.340973702215962
 30
0.0
 11
110.2257487981707
 21
46.740973702215939
 31
0.0
  0
LINE
  5
4CB
  8
2
 10
94.225748798170684
 20
46.340973702215962
 30
0.0
 11
110.2257487981707
 21
46.340973702215962
 31
0.0
  0
LINE
  5
4CC
  8
2
 10
94.225748798170684
 20
46.740973702215939
 30
0.0
 11
94.225748798170684
 21
46.340973702215962
 31
0.0
  0
LINE
  5
4CD
  8
2
 10
110.2257487981707
 20
46.740973702215939
 30
0.0
 11
94.225748798170684
 21
46.740973702215939
 31
0.0
  0
LINE
  5
4CE
  8
2
 10
110.2257487981707
 20
46.340973702215962
 30
0.0
 11
110.2257487981707
 21
46.740973702215939
 31
0.0
  0
LINE
  5
4CF
  8
0
 10
105.0257487981706
 20
66.340973702215962
 30
0.0
 11
99.425748798170673
 21
66.340973702215962
 31
0.0
  0
LINE
  5
4D0
  8
0
 10
98.225748798170756
 20
53.49097370221596
 30
0.0
 11
98.225748798170684
 21
65.140973702215916
 31
0.0
  0
LINE
  5
4D1
  8
3
 10
98.902248798170547
 20
53.49097370221596
 30
0.0
 11
98.902248798170547
 21
65.817473702215835
 31
0.0
  0
LINE
  5
4D2
  8
3
 10
105.54924879817069
 20
53.49097370221596
 30
0.0
 11
105.54924879817069
 21
65.817473702215835
 31
0.0
  0
LINE
  5
4D3
  8
0
 10
106.2257487981706
 20
53.49097370221596
 30
0.0
 11
106.2257487981707
 21
65.14097370221603
 31
0.0
  0
LINE
  5
4D4
  8
0
 10
106.2257487981707
 20
65.14097370221603
 30
0.0
 11
105.0257487981706
 21
66.340973702215962
 31
0.0
  0
LINE
  5
4D5
  8
0
 10
99.425748798170673
 20
66.340973702215962
 30
0.0
 11
98.225748798170684
 21
65.140973702215916
 31
0.0
  0
LINE
  5
4D6
  8
0
 10
106.2257487981707
 20
65.14097370221603
 30
0.0
 11
98.225748798170628
 21
65.140973702215916
 31
0.0
  0
LINE
  5
4D7
  8
2
 10
106.2257487981707
 20
51.91270607353615
 30
0.0
 11
98.225748798170684
 21
51.91270607353615
 31
0.0
  0
LINE
  5
4D8
  8
2
 10
105.54924879817079
 20
51.91270607353615
 30
0.0
 11
106.2257487981707
 21
50.740973702216053
 31
0.0
  0
LINE
  5
4D9
  8
2
 10
98.902248798170604
 20
51.91270607353615
 30
0.0
 11
98.225748798170756
 21
50.740973702216053
 31
0.0
  0
LINE
  5
4DA
  8
2
 10
106.2257487981705
 20
50.740973702216053
 30
0.0
 11
110.4757487981707
 21
46.49097370221596
 31
0.0
  0
LINE
  5
4DB
  8
2
 10
98.225748798170756
 20
50.740973702216053
 30
0.0
 11
93.975748798170684
 21
46.49097370221596
 31
0.0
  0
LINE
  5
4DC
  8
2
 10
97.975748798170684
 20
50.490973702215967
 30
0.0
 11
97.975748798170684
 21
53.49097370221596
 31
0.0
  0
LINE
  5
4DD
  8
2
 10
106.4757487981706
 20
50.49097370221574
 30
0.0
 11
106.4757487981706
 21
53.49097370221596
 31
0.0
  0
LINE
  5
4DE
  8
2
 10
93.975748798170684
 20
45.490973702215967
 30
0.0
 11
93.975748798170684
 21
46.49097370221596
 31
0.0
  0
LINE
  5
4DF
  8
2
 10
110.4757487981707
 20
46.49097370221596
 30
0.0
 11
110.4757487981707
 21
45.490973702215967
 31
0.0
  0
LINE
  5
4E0
  8
2
 10
228.54924879817079
 20
51.91270607353615
 30
0.0
 11
228.54924879817079
 21
53.49097370221596
 31
0.0
  0
LINE
  5
4E1
  8
2
 10
229.2257487981706
 20
50.740973702216017
 30
0.0
 11
229.2257487981706
 21
53.49097370221596
 31
0.0
  0
LINE
  5
4E2
  8
2
 10
221.2257487981708
 20
50.740973702216017
 30
0.0
 11
221.2257487981708
 21
53.49097370221596
 31
0.0
  0
LINE
  5
4E3
  8
2
 10
221.90224879817049
 20
51.91270607353615
 30
0.0
 11
221.9022487981706
 21
53.49097370221596
 31
0.0
  0
LINE
  5
4E4
  8
2
 10
221.22574879817071
 20
50.740973702216053
 30
0.0
 11
229.22574879817071
 21
50.740973702216053
 31
0.0
  0
LINE
  5
4E5
  8
2
 10
217.22574879817071
 20
46.340973702215962
 30
0.0
 11
217.22574879817071
 21
46.740973702215939
 31
0.0
  0
LINE
  5
4E6
  8
2
 10
233.22574879817071
 20
46.340973702215962
 30
0.0
 11
217.22574879817071
 21
46.340973702215962
 31
0.0
  0
LINE
  5
4E7
  8
2
 10
233.22574879817071
 20
46.740973702215939
 30
0.0
 11
233.22574879817071
 21
46.340973702215962
 31
0.0
  0
LINE
  5
4E8
  8
2
 10
217.22574879817071
 20
46.740973702215939
 30
0.0
 11
233.22574879817071
 21
46.740973702215939
 31
0.0
  0
LINE
  5
4E9
  8
2
 10
217.22574879817071
 20
46.340973702215962
 30
0.0
 11
217.22574879817071
 21
46.740973702215939
 31
0.0
  0
LINE
  5
4EA
  8
0
 10
222.4257487981707
 20
66.340973702215962
 30
0.0
 11
228.0257487981707
 21
66.340973702215962
 31
0.0
  0
LINE
  5
4EB
  8
0
 10
229.2257487981706
 20
53.49097370221596
 30
0.0
 11
229.22574879817071
 21
65.140973702215916
 31
0.0
  0
LINE
  5
4EC
  8
3
 10
228.54924879817079
 20
53.49097370221596
 30
0.0
 11
228.54924879817079
 21
65.817473702215835
 31
0.0
  0
LINE
  5
4ED
  8
3
 10
221.9022487981706
 20
53.49097370221596
 30
0.0
 11
221.9022487981706
 21
65.817473702215835
 31
0.0
  0
LINE
  5
4EE
  8
0
 10
221.2257487981708
 20
53.49097370221596
 30
0.0
 11
221.22574879817071
 21
65.14097370221603
 31
0.0
  0
LINE
  5
4EF
  8
0
 10
221.22574879817071
 20
65.14097370221603
 30
0.0
 11
222.4257487981707
 21
66.340973702215962
 31
0.0
  0
LINE
  5
4F0
  8
0
 10
228.0257487981707
 20
66.340973702215962
 30
0.0
 11
229.22574879817071
 21
65.140973702215916
 31
0.0
  0
LINE
  5
4F1
  8
0
 10
221.22574879817071
 20
65.14097370221603
 30
0.0
 11
229.22574879817071
 21
65.140973702215916
 31
0.0
  0
LINE
  5
4F2
  8
2
 10
221.22574879817071
 20
51.91270607353615
 30
0.0
 11
229.22574879817071
 21
51.91270607353615
 31
0.0
  0
LINE
  5
4F3
  8
2
 10
221.90224879817049
 20
51.91270607353615
 30
0.0
 11
221.22574879817071
 21
50.740973702216053
 31
0.0
  0
LINE
  5
4F4
  8
2
 10
228.54924879817079
 20
51.91270607353615
 30
0.0
 11
229.2257487981706
 21
50.740973702216053
 31
0.0
  0
LINE
  5
4F5
  8
2
 10
221.2257487981708
 20
50.740973702216053
 30
0.0
 11
216.97574879817071
 21
46.49097370221596
 31
0.0
  0
LINE
  5
4F6
  8
2
 10
229.2257487981706
 20
50.740973702216053
 30
0.0
 11
233.47574879817071
 21
46.49097370221596
 31
0.0
  0
LINE
  5
4F7
  8
2
 10
229.47574879817071
 20
50.490973702215967
 30
0.0
 11
229.47574879817071
 21
53.49097370221596
 31
0.0
  0
LINE
  5
4F8
  8
2
 10
220.97574879817071
 20
50.49097370221574
 30
0.0
 11
220.97574879817071
 21
53.49097370221596
 31
0.0
  0
LINE
  5
4F9
  8
2
 10
233.47574879817071
 20
45.490973702215967
 30
0.0
 11
233.47574879817071
 21
46.49097370221596
 31
0.0
  0
LINE
  5
4FA
  8
2
 10
216.97574879817071
 20
46.49097370221596
 30
0.0
 11
216.97574879817071
 21
45.490973702215967
 31
0.0
  0
LINE
  5
4FB
  8
2
 10
126.2257487981707
 20
79.014473702216037
 30
0.0
 11
126.2257487981707
 21
94.490973702215996
 31
0.0
  0
LINE
  5
4FC
  8
2
 10
126.9022487981706
 20
79.690973702215985
 30
0.0
 11
126.9022487981706
 21
101.190973702216
 31
0.0
  0
LINE
  5
4FD
  8
2
 10
133.54924879817079
 20
79.690973702215985
 30
0.0
 11
133.54924879817079
 21
101.190973702216
 31
0.0
  0
LINE
  5
4FE
  8
2
 10
134.22574879817071
 20
79.014473702216037
 30
0.0
 11
134.22574879817071
 21
94.490973702215996
 31
0.0
  0
LINE
  5
4FF
  8
2
 10
133.54924879817091
 20
101.190973702216
 30
0.0
 11
130.22574879817071
 21
103.18793396955419
 31
0.0
  0
LINE
  5
500
  8
2
 10
126.9022487981705
 20
101.190973702216
 30
0.0
 11
130.22574879817071
 21
103.18793396955419
 31
0.0
  0
LINE
  5
501
  8
2
 10
126.2257487981707
 20
94.490973702215996
 30
0.0
 11
134.22574879817071
 21
94.490973702215996
 31
0.0
  0
LINE
  5
502
  8
2
 10
126.9022487981706
 20
101.190973702216
 30
0.0
 11
133.54924879817079
 21
101.190973702216
 31
0.0
  0
LINE
  5
503
  8
2
 10
134.22574879817071
 20
94.490973702215996
 30
0.0
 11
133.54924879817079
 21
95.662706073536185
 31
0.0
  0
LINE
  5
504
  8
2
 10
126.2257487981708
 20
94.490973702215996
 30
0.0
 11
126.9022487981707
 21
95.662706073536185
 31
0.0
  0
LINE
  5
505
  8
2
 10
133.54924879817071
 20
79.690973702216013
 30
0.0
 11
126.9022487981706
 21
79.690973702215985
 31
0.0
  0
LINE
  5
506
  8
2
 10
133.54924879817071
 20
79.690973702216013
 30
0.0
 11
134.7492487981707
 21
78.490973702215996
 31
0.0
  0
LINE
  5
507
  8
2
 10
126.9022487981707
 20
79.690973702216013
 30
0.0
 11
125.7022487981707
 21
78.490973702215996
 31
0.0
  0
LINE
  5
508
  8
2
 10
98.902248798170717
 20
79.690973702216013
 30
0.0
 11
97.702248798170729
 21
78.490973702215996
 31
0.0
  0
LINE
  5
509
  8
2
 10
105.54924879817069
 20
79.690973702216013
 30
0.0
 11
106.7492487981707
 21
78.490973702215996
 31
0.0
  0
LINE
  5
50A
  8
2
 10
105.54924879817069
 20
79.690973702216013
 30
0.0
 11
98.902248798170675
 21
79.690973702215985
 31
0.0
  0
LINE
  5
50B
  8
2
 10
98.225748798170798
 20
94.490973702215996
 30
0.0
 11
98.902248798170717
 21
95.662706073536185
 31
0.0
  0
LINE
  5
50C
  8
2
 10
106.2257487981707
 20
94.490973702215996
 30
0.0
 11
105.54924879817079
 21
95.662706073536185
 31
0.0
  0
LINE
  5
50D
  8
2
 10
98.902248798170675
 20
101.190973702216
 30
0.0
 11
105.54924879817079
 21
101.190973702216
 31
0.0
  0
LINE
  5
50E
  8
2
 10
98.225748798170756
 20
94.490973702215996
 30
0.0
 11
106.2257487981707
 21
94.490973702215996
 31
0.0
  0
LINE
  5
50F
  8
2
 10
98.902248798170547
 20
101.190973702216
 30
0.0
 11
102.2257487981707
 21
103.18793396955419
 31
0.0
  0
LINE
  5
510
  8
2
 10
105.54924879817089
 20
101.190973702216
 30
0.0
 11
102.2257487981707
 21
103.18793396955419
 31
0.0
  0
LINE
  5
511
  8
2
 10
106.2257487981707
 20
79.014473702216037
 30
0.0
 11
106.2257487981707
 21
94.490973702215996
 31
0.0
  0
LINE
  5
512
  8
2
 10
105.54924879817079
 20
79.690973702215985
 30
0.0
 11
105.54924879817079
 21
101.190973702216
 31
0.0
  0
LINE
  5
513
  8
2
 10
98.902248798170675
 20
79.690973702215985
 30
0.0
 11
98.902248798170675
 21
101.190973702216
 31
0.0
  0
LINE
  5
514
  8
2
 10
98.225748798170756
 20
79.014473702216037
 30
0.0
 11
98.225748798170756
 21
94.490973702215996
 31
0.0
  0
LINE
  5
515
  8
2
 10
168.7022487981707
 20
101.490973702216
 30
0.0
 11
154.22574879817071
 21
101.490973702216
 31
0.0
  0
LINE
  5
516
  8
2
 10
168.02574879817081
 20
102.1674737022159
 30
0.0
 11
147.5257487981707
 21
102.1674737022159
 31
0.0
  0
LINE
  5
517
  8
2
 10
168.02574879817081
 20
108.81447370221611
 30
0.0
 11
147.5257487981707
 21
108.81447370221611
 31
0.0
  0
LINE
  5
518
  8
2
 10
168.7022487981707
 20
109.490973702216
 30
0.0
 11
154.22574879817071
 21
109.490973702216
 31
0.0
  0
LINE
  5
519
  8
2
 10
147.5257487981707
 20
108.8144737022162
 30
0.0
 11
145.52878853083249
 21
105.490973702216
 31
0.0
  0
LINE
  5
51A
  8
2
 10
147.5257487981707
 20
102.1674737022158
 30
0.0
 11
145.52878853083249
 21
105.490973702216
 31
0.0
  0
LINE
  5
51B
  8
2
 10
154.22574879817071
 20
101.490973702216
 30
0.0
 11
154.22574879817071
 21
109.490973702216
 31
0.0
  0
LINE
  5
51C
  8
2
 10
147.5257487981707
 20
102.1674737022159
 30
0.0
 11
147.5257487981707
 21
108.81447370221611
 31
0.0
  0
LINE
  5
51D
  8
2
 10
154.22574879817071
 20
109.490973702216
 30
0.0
 11
153.05401642685061
 21
108.81447370221611
 31
0.0
  0
LINE
  5
51E
  8
2
 10
154.22574879817071
 20
101.4909737022161
 30
0.0
 11
153.05401642685061
 21
102.167473702216
 31
0.0
  0
LINE
  5
51F
  8
2
 10
168.0257487981707
 20
108.81447370221601
 30
0.0
 11
168.02574879817081
 21
102.1674737022159
 31
0.0
  0
LINE
  5
520
  8
2
 10
168.0257487981707
 20
108.81447370221601
 30
0.0
 11
169.22574879817071
 21
110.01447370221599
 31
0.0
  0
LINE
  5
521
  8
2
 10
168.0257487981707
 20
102.167473702216
 30
0.0
 11
169.22574879817071
 21
100.967473702216
 31
0.0
  0
LINE
  5
522
  8
2
 10
64.425748798170616
 20
102.167473702216
 30
0.0
 11
63.225748798170628
 21
100.967473702216
 31
0.0
  0
LINE
  5
523
  8
2
 10
64.425748798170616
 20
108.81447370221601
 30
0.0
 11
63.225748798170628
 21
110.01447370221599
 31
0.0
  0
LINE
  5
524
  8
2
 10
64.425748798170616
 20
108.81447370221601
 30
0.0
 11
64.425748798170559
 21
102.1674737022159
 31
0.0
  0
LINE
  5
525
  8
2
 10
78.225748798170628
 20
101.4909737022161
 30
0.0
 11
79.397481169490788
 21
102.167473702216
 31
0.0
  0
LINE
  5
526
  8
2
 10
78.225748798170628
 20
109.490973702216
 30
0.0
 11
79.397481169490788
 21
108.81447370221611
 31
0.0
  0
LINE
  5
527
  8
2
 10
84.925748798170616
 20
102.1674737022159
 30
0.0
 11
84.925748798170616
 21
108.81447370221611
 31
0.0
  0
LINE
  5
528
  8
2
 10
78.225748798170628
 20
101.490973702216
 30
0.0
 11
78.225748798170628
 21
109.490973702216
 31
0.0
  0
LINE
  5
529
  8
2
 10
84.925748798170616
 20
102.1674737022158
 30
0.0
 11
86.922709065508784
 21
105.490973702216
 31
0.0
  0
LINE
  5
52A
  8
2
 10
84.925748798170616
 20
108.8144737022162
 30
0.0
 11
86.922709065508784
 21
105.490973702216
 31
0.0
  0
LINE
  5
52B
  8
2
 10
63.74924879817064
 20
109.490973702216
 30
0.0
 11
78.225748798170628
 21
109.490973702216
 31
0.0
  0
LINE
  5
52C
  8
2
 10
64.425748798170559
 20
108.81447370221611
 30
0.0
 11
84.925748798170616
 21
108.81447370221611
 31
0.0
  0
LINE
  5
52D
  8
2
 10
64.425748798170559
 20
102.1674737022159
 30
0.0
 11
84.925748798170616
 21
102.1674737022159
 31
0.0
  0
LINE
  5
52E
  8
2
 10
63.74924879817064
 20
101.490973702216
 30
0.0
 11
78.225748798170628
 21
101.490973702216
 31
0.0
  0
LINE
  5
52F
  8
1
 10
91.922709065508784
 20
105.4909737022159
 30
0.0
 11
58.225748798170677
 21
105.4909737022159
 31
0.0
  0
CIRCLE
  5
530
  8
3
 10
225.22574879817071
 20
105.4909737022159
 30
0.0
 40
4.0
  0
CIRCLE
  5
531
  8
0
 10
225.22574879817071
 20
105.4909737022159
 30
0.0
 40
3.3235000000000001
  0
LINE
  5
532
  8
0
 10
169.2257487981706
 20
204.990973702216
 30
0.0
 11
169.2257487981706
 21
172.99097370221591
 31
0.0
  0
LINE
  5
533
  8
0
 10
141.7257487981706
 20
166.49097370221591
 30
0.0
 11
141.72574879817051
 21
172.99097370221591
 31
0.0
  0
LINE
  5
534
  8
0
 10
90.725748798170628
 20
166.49097370221591
 30
0.0
 11
90.725748798170628
 21
172.99097370221591
 31
0.0
  0
LINE
  5
535
  8
0
 10
90.725748798170628
 20
211.49097370221591
 30
0.0
 11
141.7257487981706
 21
211.49097370221591
 31
0.0
  0
LINE
  5
536
  8
1
 10
116.2257487981705
 20
216.49097370221591
 30
0.0
 11
116.2257487981706
 21
161.49097370221591
 31
0.0
  0
LINE
  5
537
  8
0
 10
63.225748798170628
 20
204.990973702216
 30
0.0
 11
63.225748798170628
 21
172.99097370221591
 31
0.0
  0
LINE
  5
538
  8
0
 10
169.2257487981706
 20
204.990973702216
 30
0.0
 11
63.225748798170628
 21
204.990973702216
 31
0.0
  0
LINE
  5
539
  8
0
 10
169.2257487981706
 20
172.99097370221591
 30
0.0
 11
63.225748798170628
 21
172.99097370221591
 31
0.0
  0
LINE
  5
53A
  8
0
 10
90.725748798170628
 20
166.49097370221591
 30
0.0
 11
141.7257487981706
 21
166.49097370221591
 31
0.0
  0
LINE
  5
53B
  8
0
 10
141.72574879817051
 20
204.990973702216
 30
0.0
 11
141.7257487981706
 21
211.49097370221591
 31
0.0
  0
LINE
  5
53C
  8
0
 10
90.725748798170628
 20
204.990973702216
 30
0.0
 11
90.725748798170628
 21
211.49097370221591
 31
0.0
  0
LINE
  5
53D
  8
1
 10
140.52878853083249
 20
188.990973702216
 30
0.0
 11
174.22574879817051
 21
188.990973702216
 31
0.0
  0
LINE
  5
53E
  8
1
 10
91.922709065508741
 20
188.990973702216
 30
0.0
 11
58.225748798170628
 21
188.990973702216
 31
0.0
  0
TEXT
  5
5F7
  8
0
 62
     3
 10
0.0
 20
0.0
 30
0.0
 40
10.0
  1
MVSJ110MJ
  7
STANDARD1
  0
ENDSEC
  0
EOF
