  0
SECTION
  2
HEADER
  9
$ACADVER
  1
AC1009
  9
$INSBASE
 10
0.0
 20
0.0
 30
0.0
  9
$EXTMIN
 10
0.0
 20
-14.80218281036835
 30
0.0
  9
$EXTMAX
 10
1081.4551322013151
 20
789.99999910593033
 30
0.0
  9
$LIMMIN
 10
0.0
 20
0.0
  9
$LIMMAX
 10
187.5
 20
135.0
  9
$ORTHOMODE
 70
     1
  9
$REGENMODE
 70
     1
  9
$FILLMODE
 70
     1
  9
$QTEXTMODE
 70
     0
  9
$MIRRTEXT
 70
     0
  9
$DRAGMODE
 70
     2
  9
$LTSCALE
 40
10.0
  9
$OSMODE
 70
    37
  9
$ATTMODE
 70
     1
  9
$TEXTSIZE
 40
0.2
  9
$TRACEWID
 40
0.05
  9
$TEXTSTYLE
  7
STANDARD
  9
$CLAYER
  8
0
  9
$CELTYPE
  6
BYLAYER
  9
$CECOLOR
 62
   256
  9
$DIMSCALE
 40
3.0
  9
$DIMASZ
 40
1.5
  9
$DIMEXO
 40
1.0
  9
$DIMDLI
 40
0.38
  9
$DIMRND
 40
0.0
  9
$DIMDLE
 40
0.0
  9
$DIMEXE
 40
1.0
  9
$DIMTP
 40
0.0
  9
$DIMTM
 40
0.0
  9
$DIMTXT
 40
1.5
  9
$DIMCEN
 40
0.0
  9
$DIMTSZ
 40
0.0
  9
$DIMTOL
 70
     0
  9
$DIMLIM
 70
     0
  9
$DIMTIH
 70
     0
  9
$DIMTOH
 70
     0
  9
$DIMSE1
 70
     0
  9
$DIMSE2
 70
     0
  9
$DIMTAD
 70
     1
  9
$DIMZIN
 70
     8
  9
$DIMBLK
  1

  9
$DIMASO
 70
     0
  9
$DIMSHO
 70
     0
  9
$DIMPOST
  1

  9
$DIMAPOST
  1

  9
$DIMALT
 70
     0
  9
$DIMALTD
 70
     2
  9
$DIMALTF
 40
25.399999999999999
  9
$DIMLFAC
 40
1.0
  9
$DIMTOFL
 70
     1
  9
$DIMTVP
 40
1.6000000000000001
  9
$DIMTIX
 70
     1
  9
$DIMSOXD
 70
     0
  9
$DIMSAH
 70
     0
  9
$DIMBLK1
  1

  9
$DIMBLK2
  1

  9
$DIMSTYLE
  2
STANDARD
  9
$DIMCLRD
 70
     0
  9
$DIMCLRE
 70
     0
  9
$DIMCLRT
 70
     0
  9
$DIMTFAC
 40
1.0
  9
$DIMGAP
 40
1.0
  9
$LUNITS
 70
     2
  9
$LUPREC
 70
     1
  9
$SKETCHINC
 40
0.1
  9
$FILLETRAD
 40
0.0
  9
$AUNITS
 70
     0
  9
$AUPREC
 70
     1
  9
$MENU
  1
E:\r13\win\SUPPORT\ACAD
  9
$ELEVATION
 40
0.0
  9
$PELEVATION
 40
0.0
  9
$THICKNESS
 40
0.0
  9
$LIMCHECK
 70
     0
  9
$BLIPMODE
 70
     0
  9
$CHAMFERA
 40
0.0
  9
$CHAMFERB
 40
0.0
  9
$SKPOLY
 70
     0
  9
$TDCREATE
 40
2449839.7732986109
  9
$TDUPDATE
 40
2458348.4410124542
  9
$TDINDWG
 40
0.6073633565
  9
$TDUSRTIMER
 40
0.6073633565
  9
$USRTIMER
 70
     1
  9
$ANGBASE
 50
0.0
  9
$ANGDIR
 70
     0
  9
$PDMODE
 70
     0
  9
$PDSIZE
 40
0.0
  9
$PLINEWID
 40
0.0
  9
$COORDS
 70
     1
  9
$SPLFRAME
 70
     0
  9
$SPLINETYPE
 70
     6
  9
$SPLINESEGS
 70
     8
  9
$ATTDIA
 70
     0
  9
$ATTREQ
 70
     1
  9
$HANDLING
 70
     1
  9
$HANDSEED
  5
13EBD
  9
$SURFTAB1
 70
     6
  9
$SURFTAB2
 70
     6
  9
$SURFTYPE
 70
     6
  9
$SURFU
 70
     6
  9
$SURFV
 70
     6
  9
$UCSNAME
  2

  9
$UCSORG
 10
0.0
 20
0.0
 30
0.0
  9
$UCSXDIR
 10
1.0
 20
0.0
 30
0.0
  9
$UCSYDIR
 10
0.0
 20
1.0
 30
0.0
  9
$PUCSNAME
  2

  9
$PUCSORG
 10
0.0
 20
0.0
 30
0.0
  9
$PUCSXDIR
 10
1.0
 20
0.0
 30
0.0
  9
$PUCSYDIR
 10
0.0
 20
1.0
 30
0.0
  9
$USERI1
 70
     0
  9
$USERI2
 70
     1
  9
$USERI3
 70
     0
  9
$USERI4
 70
     0
  9
$USERI5
 70
     0
  9
$USERR1
 40
0.0
  9
$USERR2
 40
0.0
  9
$USERR3
 40
0.0
  9
$USERR4
 40
0.0
  9
$USERR5
 40
0.0
  9
$WORLDVIEW
 70
     1
  9
$SHADEDGE
 70
     3
  9
$SHADEDIF
 70
    70
  9
$TILEMODE
 70
     1
  9
$MAXACTVP
 70
    16
  9
$PLIMCHECK
 70
     0
  9
$PEXTMIN
 10
1.0000000000000000E+020
 20
1.0000000000000000E+020
 30
1.0000000000000000E+020
  9
$PEXTMAX
 10
-1.0000000000000000E+020
 20
-1.0000000000000000E+020
 30
-1.0000000000000000E+020
  9
$PLIMMIN
 10
0.0
 20
0.0
  9
$PLIMMAX
 10
12.0
 20
9.0
  9
$UNITMODE
 70
     0
  9
$VISRETAIN
 70
     0
  9
$PLINEGEN
 70
     0
  9
$PSLTSCALE
 70
     0
  0
ENDSEC
  0
SECTION
  2
TABLES
  0
TABLE
  2
VPORT
 70
     1
  0
VPORT
  2
*ACTIVE
 70
     0
 10
0.0
 20
0.0
 11
1.0
 21
1.0
 12
817.30769230769226
 22
450.0
 13
0.0
 23
0.0
 14
5.0
 24
5.0
 15
5.0
 25
5.0
 16
0.0
 26
0.0
 36
1.0
 17
0.0
 27
0.0
 37
0.0
 40
900.0
 41
1.816239316239316
 42
50.0
 43
0.0
 44
0.0
 50
0.0
 51
0.0
 71
     0
 72
   500
 73
     1
 74
     0
 75
     0
 76
     0
 77
     0
 78
     2
  0
ENDTAB
  0
TABLE
  2
LTYPE
 70
     4
  0
LTYPE
  2
CONTINUOUS
 70
     0
  3
Solid Line
 72
    65
 73
     0
 40
0.0
  0
LTYPE
  2
CENTER
 70
     0
  3
____ _ ____ _ ____ _ ____ _ ____ _ ____ _ ____
 72
    65
 73
     4
 40
2.0
 49
1.25
 49
-0.25
 49
0.25
 49
-0.25
  0
LTYPE
  2
HIDDEN
 70
     0
  3
_ _ _ _ _ _ _ _ _ _ _ _ _ _ _ _ _ _ _ _ _ _ _
 72
    65
 73
     2
 40
0.375
 49
0.25
 49
-0.125
  0
LTYPE
  2
PHANTOM2
 70
     0
  3
___ _ _ ___ _ _ ___ _ _ ___ _ _
 72
    65
 73
     6
 40
1.25
 49
0.625
 49
-0.125
 49
0.125
 49
-0.125
 49
0.125
 49
-0.125
  0
ENDTAB
  0
TABLE
  2
LAYER
 70
     6
  0
LAYER
  2
0
 70
     0
 62
     7
  6
CONTINUOUS
  0
LAYER
  2
1
 70
     0
 62
     1
  6
CENTER
  0
LAYER
  2
3
 70
     0
 62
     3
  6
CONTINUOUS
  0
LAYER
  2
2
 70
     0
 62
     2
  6
HIDDEN
  0
LAYER
  2
DEFPOINTS
 70
     0
 62
     7
  6
CONTINUOUS
  0
LAYER
  2
5
 70
     0
 62
     3
  6
PHANTOM2
  0
ENDTAB
  0
TABLE
  2
STYLE
 70
     2
  0
STYLE
  2
STANDARD
 70
     0
 40
0.0
 41
1.0
 50
0.0
 71
     0
 42
0.2
  3
TXT
  4
BIGFONT
  0
STYLE
  2
STANDARD1
 70
     0
 40
0.0
 41
1.0
 50
0.0
 71
     0
 42
3.0
  3
txt
  4

  0
ENDTAB
  0
TABLE
  2
VIEW
 70
     4
  0
VIEW
  2
ALL
 70
     0
 40
270.0
 10
220.99159663865549
 20
135.0
 41
0.0
 11
0.0
 21
0.0
 31
1.0
 12
0.0
 22
0.0
 32
0.0
 42
0.0
 43
0.0
 44
0.0
 50
0.0
 71
     0
  0
VIEW
  2
OLE1
 70
     0
 40
113.84248460384831
 10
363.70383103976093
 20
868.57630654141906
 41
140.31429126474319
 11
0.0
 21
0.0
 31
1.0
 12
0.0
 22
0.0
 32
0.0
 42
50.0
 43
0.0
 44
0.0
 50
0.0
 71
     0
  0
VIEW
  2
OLE2
 70
     0
 40
304.90626076002519
 10
485.92333907805579
 20
949.37791032729842
 41
375.8061503102478
 11
0.0
 21
0.0
 31
1.0
 12
0.0
 22
0.0
 32
0.0
 42
50.0
 43
0.0
 44
0.0
 50
0.0
 71
     0
  0
VIEW
  2
OLE3
 70
     0
 40
173.2619498616524
 10
500.98024805654723
 20
843.5018924553475
 41
213.5505719379162
 11
0.0
 21
0.0
 31
1.0
 12
0.0
 22
0.0
 32
0.0
 42
50.0
 43
0.0
 44
0.0
 50
0.0
 71
     0
  0
ENDTAB
  0
TABLE
  2
UCS
 70
     0
  0
ENDTAB
  0
TABLE
  2
APPID
 70
    12
  0
APPID
  2
ACAD
 70
     0
  0
APPID
  2
ACAD_MLEADERVER
 70
     0
  0
APPID
  2
ACAD_NAV_VCDISPLAY
 70
     0
  0
APPID
  2
ACAD_EXEMPT_FROM_CAD_STANDARDS
 70
     0
  0
APPID
  2
ACAD_DSTYLE_DIMJAG
 70
     0
  0
APPID
  2
ACAD_DSTYLE_DIMTALN
 70
     0
  0
APPID
  2
ACAD_PSEXT
 70
     0
  0
APPID
  2
ACAD_DSTYLE_DIMBREAK
 70
     0
  0
APPID
  2
ACAECLAYERSTANDARD
 70
     0
  0
APPID
  2
ACCMTRANSPARENCY
 70
     0
  0
APPID
  2
ACAD_DSTYLE_DIM_LINETYPE
 70
     0
  0
APPID
  2
ACAD_DSTYLE_DIMRADIAL_EXTENSION
 70
     0
  0
ENDTAB
  0
TABLE
  2
DIMSTYLE
 70
     1
  0
DIMSTYLE
  2
STANDARD
 70
     0
  3

  4

  5

  6

  7

 40
1.0
 41
0.18
 42
0.0625
 43
0.38
 44
0.18
 45
0.0
 46
0.0
 47
0.0
 48
0.0
140
0.18
141
0.09
142
0.0
143
25.399999999999999
144
1.0
145
0.0
146
1.0
147
0.09
 71
     0
 72
     0
 73
     1
 74
     1
 75
     0
 76
     0
 77
     0
 78
     0
170
     0
171
     2
172
     0
173
     0
174
     0
175
     0
176
     0
177
     0
178
     0
  0
ENDTAB
  0
ENDSEC
  0
SECTION
  2
BLOCKS
  0
BLOCK
  8
0
  2
$MODEL_SPACE
 70
     0
 10
0.0
 20
0.0
 30
0.0
  3
$MODEL_SPACE
  1

  0
ENDBLK
  5
1D4
  8
0
  0
BLOCK
 67
     1
  8
0
  2
$PAPER_SPACE
 70
     0
 10
0.0
 20
0.0
 30
0.0
  3
$PAPER_SPACE
  1

  0
ENDBLK
  5
1D2
 67
     1
  8
0
  0
ENDSEC
  0
SECTION
  2
ENTITIES
  0
TEXT
  5
496
  8
0
 62
     3
 10
0.0
 20
0.0
 30
0.0
 40
50.0
  1
MVMF110X150
  7
STANDARD1
  0
LINE
  5
BF01
  8
0
 10
682.53366500139225
 20
513.99999707937241
 30
0.0
 11
682.55153149366367
 21
513.99999707937241
 31
0.0
  0
LINE
  5
BF02
  8
0
 10
680.36770671606064
 20
520.00000178813934
 30
0.0
 11
680.35458624362946
 21
520.00000178813934
 31
0.0
  0
LINE
  5
BF03
  8
0
 10
507.6454713940621
 20
520.00000178813934
 30
0.0
 11
507.63234347105032
 21
520.00000178813934
 31
0.0
  0
LINE
  5
BF04
  8
0
 10
505.44851869344723
 20
513.99999707937241
 30
0.0
 11
505.46638518571859
 21
513.99999707937241
 31
0.0
  0
POLYLINE
  5
BF06
  8
0
 66
     1
 10
0.0
 20
0.0
 30
0.0
 70
   128
  0
VERTEX
  5
13DB1
  8
0
 10
725.50006434321404
 20
529.99999970197666
 30
0.0
  0
VERTEX
  5
13DB2
  8
0
 10
726.26543268561363
 20
529.84775453805923
 30
0.0
  0
VERTEX
  5
13DB3
  8
0
 10
726.91428139805794
 20
529.41421270370483
 30
0.0
  0
SEQEND
  5
13DB4
  8
0
  0
LINE
  5
BF09
  8
0
 10
727.00006738305092
 20
529.99999970197666
 30
0.0
 11
727.26783379912365
 21
529.76776510477055
 31
0.0
  0
LINE
  5
BF0A
  8
0
 10
724.00006502866745
 20
529.99999970197666
 30
0.0
 11
723.14022332429874
 21
529.99999970197666
 31
0.0
  0
LINE
  5
BF0C
  8
0
 10
734.00006666779507
 20
499.99999850988382
 30
0.0
 11
766.00006632506836
 21
499.99999850988382
 31
0.0
  0
POLYLINE
  5
BF0D
  8
0
 66
     1
 10
0.0
 20
0.0
 30
0.0
 70
   128
  0
VERTEX
  5
13DB5
  8
0
 10
734.00006666779507
 20
499.99999850988382
 30
0.0
  0
VERTEX
  5
13DB6
  8
0
 10
732.82952457666386
 20
500.11528879404062
 30
0.0
  0
VERTEX
  5
13DB7
  8
0
 10
732.00006633996964
 20
500.3431461751461
 30
0.0
  0
SEQEND
  5
13DB8
  8
0
  0
LINE
  5
BF0E
  8
0
 10
728.00006568431854
 20
530.50000071525574
 30
0.0
 11
728.00006568431854
 21
519.57802325487125
 31
0.0
  0
LINE
  5
BF0F
  8
0
 10
772.00006637722254
 20
530.50000071525574
 30
0.0
 11
728.00006568431854
 21
530.50000071525574
 31
0.0
  0
LINE
  5
BF10
  8
0
 10
772.00006637722254
 20
505.99999949336052
 30
0.0
 11
772.00006637722254
 21
530.50000071525574
 31
0.0
  0
ARC
  5
BF11
  8
0
 10
766.00006604194641
 20
505.9999987483024
 30
0.0
 40
6.000000000000056
 50
270.0
 51
0.0
  0
ARC
  5
BF12
  8
0
 10
725.5000660419463
 20
527.99999874830235
 30
0.0
 40
2.5000000000000711
 50
263.84172695684458
 51
45.000000000000547
  0
ARC
  5
BF13
  8
0
 10
725.5000660419463
 20
527.99999874830235
 30
0.0
 40
2.4999999999999432
 50
90.0
 51
146.158273043158
  0
LINE
  5
BF14
  8
0
 10
728.00006568431854
 20
530.50000071525574
 30
0.0
 11
722.90706393417395
 21
530.50000071525574
 31
0.0
  0
ARC
  5
BF15
  8
0
 10
725.5000660419463
 20
527.99999874830235
 30
0.0
 40
2.0000000000000231
 50
254.70261901552061
 51
45.00000000000022
  0
ARC
  5
BF16
  8
0
 10
725.5000660419463
 20
527.99999874830235
 30
0.0
 40
2.0
 50
90.0
 51
155.29738098447871
  0
LINE
  5
BF18
  8
0
 10
725.50006434321404
 20
529.99999970197666
 30
0.0
 11
728.00006568431854
 21
529.99999970197666
 31
0.0
  0
LINE
  5
BF49
  8
0
 10
786.50006601819757
 20
529.49999868869781
 30
0.0
 11
786.50006601819757
 21
493.99999752640718
 31
0.0
  0
LINE
  5
BF4C
  8
0
 10
772.00006637722254
 20
529.99999970197666
 30
0.0
 11
786.00006599444885
 21
529.99999970197666
 31
0.0
  0
LINE
  5
BF4F
  8
0
 10
786.50006601819757
 20
529.49999868869781
 30
0.0
 11
786.00006599444885
 21
529.99999970197666
 31
0.0
  0
LINE
  5
BF50
  8
0
 10
741.50006696581841
 20
493.99999752640718
 30
0.0
 11
741.50006696581841
 21
499.99999850988382
 31
0.0
  0
LINE
  5
BF58
  8
0
 10
690.00006318092335
 20
507.4999988079071
 30
0.0
 11
690.00006318092335
 21
501.0000005364418
 31
0.0
  0
LINE
  5
BF5A
  8
0
 10
684.89433159072314
 20
507.4999988079071
 30
0.0
 11
690.00006318092335
 21
507.4999988079071
 31
0.0
  0
LINE
  5
BF5C
  8
0
 10
676.00006461143494
 20
494.4999985396862
 30
0.0
 11
676.50006562471378
 21
493.99999752640718
 31
0.0
  0
LINE
  5
BF5E
  8
0
 10
676.00006461143494
 20
494.4999985396862
 30
0.0
 11
676.00006461143494
 21
501.0000005364418
 31
0.0
  0
LINE
  5
BF60
  8
0
 10
732.00006633996964
 20
493.99999752640718
 30
0.0
 11
732.00006633996964
 21
510.99999845027918
 31
0.0
  0
LINE
  5
BF64
  8
0
 10
722.20760434865952
 20
531.99999630451202
 30
0.0
 11
676.00006461143494
 21
531.99999630451202
 31
0.0
  0
LINE
  5
BF66
  8
0
 10
732.00006633996964
 20
510.99999845027918
 30
0.0
 11
722.20760434865952
 21
531.99999630451202
 31
0.0
  0
LINE
  5
BF6E
  8
0
 10
482.49998539686209
 20
490.99999889731401
 30
0.0
 11
475.49998611211771
 21
490.99999889731401
 31
0.0
  0
LINE
  5
BF71
  8
0
 10
474.9999925494194
 20
491.49999991059298
 30
0.0
 11
475.49998611211771
 21
490.99999889731401
 31
0.0
  0
LINE
  5
BF77
  8
0
 10
482.99997895956039
 20
491.49999991059298
 30
0.0
 11
482.49998539686209
 21
490.99999889731401
 31
0.0
  0
LINE
  5
BF7A
  8
0
 10
475.49998611211771
 20
497.99999818205828
 30
0.0
 11
474.9999925494194
 21
497.49999716877932
 31
0.0
  0
LINE
  5
BF7B
  8
0
 10
482.49998539686209
 20
497.99999818205828
 30
0.0
 11
482.99997895956039
 21
497.49999716877932
 31
0.0
  0
LINE
  5
BF7D
  8
0
 10
685.00006794929504
 20
506.79999813437462
 30
0.0
 11
684.50006693601597
 21
506.79999813437462
 31
0.0
  0
LINE
  5
BF80
  8
0
 10
669.00006532669056
 20
534.00000035762775
 30
0.0
 11
669.00006532669056
 21
501.0000005364418
 31
0.0
  0
LINE
  5
BF81
  8
0
 10
669.00006532669056
 20
534.00000035762775
 30
0.0
 11
674.73811507225025
 21
534.00000035762775
 31
0.0
  0
LINE
  5
BF83
  8
0
 10
690.00006318092369
 20
501.0000005364418
 30
0.0
 11
669.00006532669056
 21
501.0000005364418
 31
0.0
  0
LINE
  5
BF85
  8
0
 10
689.00006860494614
 20
506.79999813437462
 30
0.0
 11
689.00006860494614
 21
501.49999782443041
 31
0.0
  0
LINE
  5
BF86
  8
0
 10
689.00006860494614
 20
501.49999782443041
 30
0.0
 11
688.50006759166706
 21
501.0000005364418
 31
0.0
  0
LINE
  5
BF87
  8
0
 10
685.00006794929504
 20
507.29999914765352
 30
0.0
 11
685.00006794929504
 21
506.79999813437462
 31
0.0
  0
LINE
  5
BF88
  8
0
 10
685.00006794929504
 20
507.29999914765352
 30
0.0
 11
688.50006759166706
 21
507.29999914765352
 31
0.0
  0
LINE
  5
BF8A
  8
0
 10
689.00006860494614
 20
506.79999813437462
 30
0.0
 11
688.50006759166706
 21
507.29999914765352
 31
0.0
  0
LINE
  5
BF8B
  8
0
 10
675.27006417512894
 20
534.00000035762775
 30
0.0
 11
684.89433159072314
 21
507.4999988079071
 31
0.0
  0
LINE
  5
BF8C
  8
0
 10
684.50006693601597
 20
506.79999813437462
 30
0.0
 11
684.50006693601597
 21
508.58558937907208
 31
0.0
  0
LINE
  5
BF8D
  8
0
 10
675.27006417512894
 20
534.00000035762775
 30
0.0
 11
674.73811507225025
 21
534.00000035762775
 31
0.0
  0
LINE
  5
BF90
  8
0
 10
503.49998325109487
 20
506.79999813437462
 30
0.0
 11
502.99997478723532
 21
506.79999813437462
 31
0.0
  0
LINE
  5
BF91
  8
0
 10
503.49998325109487
 20
507.12087973952288
 30
0.0
 11
503.49998325109487
 21
506.79999813437462
 31
0.0
  0
LINE
  5
BF93
  8
0
 10
518.99997740983963
 20
534.00000035762775
 30
0.0
 11
513.26194256544113
 21
534.00000035762775
 31
0.0
  0
LINE
  5
BF94
  8
0
 10
518.99997740983963
 20
501.0000005364418
 30
0.0
 11
518.99997740983963
 21
534.00000035762775
 31
0.0
  0
LINE
  5
BF95
  8
0
 10
497.99999445676809
 20
501.0000005364418
 30
0.0
 11
518.99997740983963
 21
501.0000005364418
 31
0.0
  0
LINE
  5
BF96
  8
0
 10
498.99998158216482
 20
501.49999782443041
 30
0.0
 11
499.49997514486319
 21
501.0000005364418
 31
0.0
  0
LINE
  5
BF97
  8
0
 10
498.99998158216482
 20
506.79999813437462
 30
0.0
 11
498.99998158216482
 21
501.49999782443041
 31
0.0
  0
LINE
  5
BF99
  8
0
 10
502.99997478723532
 20
507.29999914765352
 30
0.0
 11
499.49997514486319
 21
507.29999914765352
 31
0.0
  0
LINE
  5
BF9A
  8
0
 10
502.99997478723532
 20
506.79999813437462
 30
0.0
 11
502.99997478723532
 21
507.29999914765352
 31
0.0
  0
LINE
  5
BF9C
  8
0
 10
499.49997514486319
 20
507.29999914765352
 30
0.0
 11
498.99998158216482
 21
506.79999813437462
 31
0.0
  0
LINE
  5
BF9E
  8
0
 10
513.26194256544113
 20
534.00000035762775
 30
0.0
 11
512.72998601198185
 21
534.00000035762775
 31
0.0
  0
LINE
  5
BF9F
  8
0
 10
503.49998325109487
 20
508.58558937907208
 30
0.0
 11
503.49998325109487
 21
507.12087973952288
 31
0.0
  0
ARC
  5
BFA0
  8
0
 10
474.999987065791
 20
497.99999874830269
 30
0.0
 40
0.3999999999999772
 50
0.0
 51
270.0
  0
LINE
  5
BFA1
  8
0
 10
474.9999925494194
 20
489.49999958276737
 30
0.0
 11
474.9999925494194
 21
497.59999886155123
 31
0.0
  0
LINE
  5
BFA4
  8
0
 10
456.93856328725821
 20
501.85857564210892
 30
0.0
 11
456.49999231100088
 21
501.41999721527088
 31
0.0
  0
ARC
  5
BFA5
  8
0
 10
456.79714435579109
 20
501.99999874830269
 30
0.0
 40
0.2000000000000096
 50
314.99999999999949
 51
45.000000000009798
  0
LINE
  5
BFA6
  8
0
 10
456.49999231100088
 20
502.5800004601478
 30
0.0
 11
456.93856328725821
 21
502.14141830801958
 31
0.0
  0
LINE
  5
BFA8
  8
0
 10
456.93856328725821
 20
506.85857832431788
 30
0.0
 11
456.49999231100088
 21
506.41999989748001
 31
0.0
  0
ARC
  5
BFA9
  8
0
 10
456.79714435579109
 20
506.99999874830269
 30
0.0
 40
0.2000000000000096
 50
314.99999999999949
 51
45.000000000009798
  0
LINE
  5
BFAA
  8
0
 10
456.49999231100088
 20
507.57999941706652
 30
0.0
 11
456.93856328725821
 21
507.1414209902286
 31
0.0
  0
LINE
  5
BFAC
  8
0
 10
456.93856328725821
 20
511.85857728123659
 30
0.0
 11
456.49999231100088
 21
511.41999885439873
 31
0.0
  0
ARC
  5
BFAD
  8
0
 10
456.79714435579109
 20
511.99999874830257
 30
0.0
 40
0.2000000000000096
 50
314.99999999999949
 51
45.000000000009798
  0
LINE
  5
BFAE
  8
0
 10
456.49999231100088
 20
512.57999837398518
 30
0.0
 11
456.93856328725821
 21
512.14141994714726
 31
0.0
  0
LINE
  5
BFB0
  8
0
 10
456.93856328725821
 20
516.85857623815525
 30
0.0
 11
456.49999231100088
 21
516.41999781131744
 31
0.0
  0
ARC
  5
BFB1
  8
0
 10
456.79714435579109
 20
516.99999874830257
 30
0.0
 40
0.2000000000000096
 50
314.99999999999949
 51
45.000000000009798
  0
LINE
  5
BFB2
  8
0
 10
456.49999231100088
 20
517.57999733090401
 30
0.0
 11
456.93856328725821
 21
517.14141890406597
 31
0.0
  0
LINE
  5
BFB4
  8
0
 10
456.93856328725821
 20
521.85857892036427
 30
0.0
 11
456.49999231100088
 21
521.42000049352635
 31
0.0
  0
ARC
  5
BFB5
  8
0
 10
456.79714435579109
 20
521.99999874830269
 30
0.0
 40
0.2000000000000096
 50
314.99999999999022
 51
45.000000000000547
  0
LINE
  5
BFB6
  8
0
 10
456.49999231100088
 20
522.57999628782272
 30
0.0
 11
456.93856328725821
 21
522.1414178609848
 31
0.0
  0
LINE
  5
BFB8
  8
0
 10
456.93856328725821
 20
526.85857415199268
 30
0.0
 11
456.49999231100088
 21
526.41999572515476
 31
0.0
  0
ARC
  5
BFB9
  8
0
 10
456.79714435579109
 20
526.99999874830269
 30
0.0
 40
0.1999999999999694
 50
314.99999999999949
 51
45.000000000000547
  0
LINE
  5
BFBA
  8
0
 10
456.49999231100088
 20
527.57999897003174
 30
0.0
 11
456.93856328725821
 21
527.14142054319382
 31
0.0
  0
LINE
  5
BFC3
  8
0
 10
482.99997895956039
 20
497.59999886155123
 30
0.0
 11
482.99997895956039
 21
489.49999958276737
 31
0.0
  0
ARC
  5
BFC4
  8
0
 10
482.99998706579112
 20
497.99999874830269
 30
0.0
 40
0.3999999999999772
 50
270.0
 51
180.0
  0
LINE
  5
BFC5
  8
0
 10
475.39999932050699
 20
497.99999818205828
 30
0.0
 11
482.5999721884728
 21
497.99999818205828
 31
0.0
  0
LINE
  5
BFC7
  8
0
 10
482.99997895956039
 20
493.99999752640718
 30
0.0
 11
787.00006604194664
 21
493.99999752640718
 31
0.0
  0
LINE
  5
BFCA
  8
0
 10
455.99999874830252
 20
525.92000216245651
 30
0.0
 11
455.99999874830252
 21
523.07999730110157
 31
0.0
  0
LINE
  5
BFCB
  8
0
 10
456.49999231100088
 20
526.41999572515476
 30
0.0
 11
455.99999874830252
 21
525.92000216245651
 31
0.0
  0
LINE
  5
BFCC
  8
0
 10
455.99999874830252
 20
523.07999730110157
 30
0.0
 11
456.49999231100088
 21
522.57999628782272
 31
0.0
  0
LINE
  5
BFCD
  8
0
 10
455.99999874830252
 20
520.91999948024738
 30
0.0
 11
455.99999874830252
 21
518.07999834418285
 31
0.0
  0
LINE
  5
BFCE
  8
0
 10
456.49999231100088
 20
521.42000049352635
 30
0.0
 11
455.99999874830252
 21
520.91999948024738
 31
0.0
  0
LINE
  5
BFCF
  8
0
 10
455.99999874830252
 20
518.07999834418285
 30
0.0
 11
456.49999231100088
 21
517.57999733090401
 31
0.0
  0
LINE
  5
BFD0
  8
0
 10
455.99999874830252
 20
505.91999888420099
 30
0.0
 11
455.99999874830252
 21
503.07999774813652
 31
0.0
  0
LINE
  5
BFD1
  8
0
 10
456.49999231100088
 20
506.41999989748001
 30
0.0
 11
455.99999874830252
 21
505.91999888420099
 31
0.0
  0
LINE
  5
BFD2
  8
0
 10
455.99999874830252
 20
503.07999774813652
 30
0.0
 11
456.49999231100088
 21
502.5800004601478
 31
0.0
  0
LINE
  5
BFD3
  8
0
 10
455.99999874830252
 20
510.91999784111971
 30
0.0
 11
455.99999874830252
 21
508.08000043034548
 31
0.0
  0
LINE
  5
BFD4
  8
0
 10
456.49999231100088
 20
511.41999885439873
 30
0.0
 11
455.99999874830252
 21
510.91999784111971
 31
0.0
  0
LINE
  5
BFD5
  8
0
 10
455.99999874830252
 20
508.08000043034548
 30
0.0
 11
456.49999231100088
 21
507.57999941706652
 31
0.0
  0
LINE
  5
BFD6
  8
0
 10
455.99999874830252
 20
515.92000052332867
 30
0.0
 11
455.99999874830252
 21
513.07999938726425
 31
0.0
  0
LINE
  5
BFD7
  8
0
 10
456.49999231100088
 20
516.41999781131744
 30
0.0
 11
455.99999874830252
 21
515.92000052332867
 31
0.0
  0
LINE
  5
BFD8
  8
0
 10
455.99999874830252
 20
513.07999938726425
 30
0.0
 11
456.49999231100088
 21
512.57999837398518
 31
0.0
  0
LINE
  5
BFD9
  8
0
 10
455.99999874830252
 20
500.91999992728228
 30
0.0
 11
455.99999874830252
 21
494.4999985396862
 31
0.0
  0
LINE
  5
BFDA
  8
0
 10
456.49999231100088
 20
501.41999721527088
 30
0.0
 11
455.99999874830252
 21
500.91999992728228
 31
0.0
  0
LINE
  5
BFDC
  8
0
 10
455.99999874830252
 20
528.07999998331059
 30
0.0
 11
456.49999231100088
 21
527.57999897003174
 31
0.0
  0
LINE
  5
BFDD
  8
0
 10
455.99999874830252
 20
531.49999529123295
 30
0.0
 11
455.99999874830252
 21
528.07999998331059
 31
0.0
  0
LINE
  5
BFE0
  8
0
 10
456.49999231100088
 20
493.99999752640718
 30
0.0
 11
474.9999925494194
 21
493.99999752640718
 31
0.0
  0
LINE
  5
BFE2
  8
0
 10
455.99999874830252
 20
494.4999985396862
 30
0.0
 11
456.49999231100088
 21
493.99999752640718
 31
0.0
  0
LINE
  5
BFE5
  8
0
 10
511.99999302625662
 20
500.49999952316278
 30
0.0
 11
511.499984562397
 21
501.0000005364418
 31
0.0
  0
LINE
  5
BFE6
  8
0
 10
511.99999302625662
 20
494.4999985396862
 30
0.0
 11
511.99999302625662
 21
500.49999952316278
 31
0.0
  0
LINE
  5
BFE8
  8
0
 10
511.499984562397
 20
493.99999752640718
 30
0.0
 11
511.99999302625662
 21
494.4999985396862
 31
0.0
  0
LINE
  5
BFEA
  8
0
 10
511.60988062620169
 20
531.99999630451202
 30
0.0
 11
456.49999231100088
 21
531.99999630451202
 31
0.0
  0
LINE
  5
BFEE
  8
0
 10
511.82897239923477
 20
531.53015524148941
 30
0.0
 11
511.60988062620169
 21
531.99999630451202
 31
0.0
  0
LINE
  5
BFF0
  8
0
 10
497.99999445676809
 20
501.0000005364418
 30
0.0
 11
497.99999445676809
 21
507.4999988079071
 31
0.0
  0
LINE
  5
BFF2
  8
0
 10
497.99999445676809
 20
507.4999988079071
 30
0.0
 11
503.0827209353447
 21
507.4999988079071
 31
0.0
  0
LINE
  5
BFF4
  8
0
 10
503.0827209353447
 20
507.4999988079071
 30
0.0
 11
512.72998601198185
 21
534.00000035762775
 31
0.0
  0
LINE
  5
BFF5
  8
0
 10
456.49999231100088
 20
531.99999630451202
 30
0.0
 11
455.99999874830252
 21
531.49999529123295
 31
0.0
  0
LINE
  5
C002
  8
0
 10
787.00006604194641
 20
455.9999987483024
 30
0.0
 11
456.99998587369919
 21
455.9999987483024
 31
0.0
  0
LINE
  5
C005
  8
0
 10
456.99998587369919
 20
471.99999950826162
 30
0.0
 11
787.00006604194664
 21
471.99999950826162
 31
0.0
  0
LINE
  5
C00D
  8
0
 10
787.00006604194664
 20
493.99999752640718
 30
0.0
 11
787.00006604194664
 21
455.9999987483024
 31
0.0
  0
LINE
  5
C011
  8
0
 10
482.99997895956039
 20
489.49999958276737
 30
0.0
 11
474.9999925494194
 21
489.49999958276737
 31
0.0
  0
LINE
  5
C017
  8
0
 10
456.99998587369919
 20
455.99999874830229
 30
0.0
 11
456.99998587369919
 21
493.99999752640718
 31
0.0
  0
LINE
  5
C019
  8
0
 10
542.99998134374607
 20
455.9999987483024
 30
0.0
 11
542.99998134374607
 21
459.99999893829221
 31
0.0
  0
LINE
  5
C01A
  8
0
 10
539.69998508691776
 20
459.99999893829221
 30
0.0
 11
542.99998134374607
 21
459.99999893829221
 31
0.0
  0
LINE
  5
C01B
  8
0
 10
539.69998508691776
 20
459.99999893829221
 30
0.0
 11
539.69998508691776
 21
460.49999855458731
 31
0.0
  0
LINE
  5
C01C
  8
0
 10
534.29998308420181
 20
460.49999855458731
 30
0.0
 11
539.69998508691776
 21
460.49999855458731
 31
0.0
  0
LINE
  5
C01D
  8
0
 10
534.29998308420181
 20
460.49999855458731
 30
0.0
 11
534.29998308420181
 21
459.99999893829221
 31
0.0
  0
LINE
  5
C01E
  8
0
 10
530.9999868273735
 20
459.99999893829221
 30
0.0
 11
534.29998308420181
 21
459.99999893829221
 31
0.0
  0
LINE
  5
C01F
  8
0
 10
530.9999868273735
 20
459.99999893829221
 30
0.0
 11
530.9999868273735
 21
455.9999987483024
 31
0.0
  0
LINE
  5
C021
  8
0
 10
787.00006604194664
 20
481.99999928474421
 30
0.0
 11
456.99998587369919
 21
481.99999928474421
 31
0.0
  0
LINE
  5
C513
  8
2
 10
541.37497991323471
 20
466.87499843537802
 30
0.0
 11
532.62498825788487
 21
466.87499843537802
 31
0.0
  0
LINE
  5
C514
  8
2
 10
641.3749985396862
 20
466.87499843537802
 30
0.0
 11
632.62499943375576
 21
466.87499843537802
 31
0.0
  0
LINE
  5
C73B
  8
2
 10
527.49998718500126
 20
471.99999950826162
 30
0.0
 11
532.62498825788487
 21
466.87499843537802
 31
0.0
  0
LINE
  5
C73C
  8
2
 10
541.37497991323471
 20
466.87499843537802
 30
0.0
 11
546.49998098611832
 21
471.99999950826162
 31
0.0
  0
LINE
  5
C73D
  8
2
 10
627.49999836087215
 20
471.99999950826162
 30
0.0
 11
632.62499943375576
 21
466.87499843537802
 31
0.0
  0
LINE
  5
C73E
  8
2
 10
641.3749985396862
 20
466.87499843537802
 30
0.0
 11
646.49999961256981
 21
471.99999950826162
 31
0.0
  0
LINE
  5
C749
  8
2
 10
632.62499943375576
 20
466.87499843537802
 30
0.0
 11
632.62499943375576
 21
455.9999987483024
 31
0.0
  0
LINE
  5
C74A
  8
2
 10
641.3749985396862
 20
455.9999987483024
 30
0.0
 11
641.3749985396862
 21
466.87499843537802
 31
0.0
  0
LINE
  5
C74B
  8
2
 10
532.62498825788487
 20
466.87499843537802
 30
0.0
 11
532.62498825788487
 21
455.9999987483024
 31
0.0
  0
LINE
  5
C74C
  8
2
 10
541.37497991323471
 20
455.9999987483024
 30
0.0
 11
541.37497991323471
 21
466.87499843537802
 31
0.0
  0
LINE
  5
C766
  8
0
 10
728.00006568431854
 20
729.49999989941693
 30
0.0
 11
728.00006568431854
 21
744.49999956414081
 31
0.0
  0
LINE
  5
CDDC
  8
0
 10
723.00006300210953
 20
729.49999989941693
 30
0.0
 11
723.00006300210953
 21
715.25000035762764
 31
0.0
  0
LINE
  5
CDDD
  8
0
 10
723.00006300210953
 20
715.25000035762764
 30
0.0
 11
722.0000684261322
 21
715.25000035762764
 31
0.0
  0
LINE
  5
CDDE
  8
0
 10
723.00006300210953
 20
758.7499991059301
 30
0.0
 11
723.00006300210953
 21
744.49999956414081
 31
0.0
  0
LINE
  5
CDE1
  8
0
 10
723.00006300210953
 20
729.49999989941671
 30
0.0
 11
728.00006568431854
 21
729.49999989941693
 31
0.0
  0
LINE
  5
CDE2
  8
0
 10
728.00006568431854
 20
744.49999956414081
 30
0.0
 11
723.00006300210953
 21
744.49999956414081
 31
0.0
  0
LINE
  5
CDE6
  8
0
 10
772.00006637722254
 20
758.99999961256958
 30
0.0
 11
772.00006637722277
 21
714.99999985098827
 31
0.0
  0
LINE
  5
CDEE
  8
0
 10
772.00006637722254
 20
715.49999900162197
 30
0.0
 11
723.00006300210953
 21
715.49999900162197
 31
0.0
  0
LINE
  5
CDF0
  8
0
 10
723.00006300210953
 20
729.24999985843874
 30
0.0
 11
729.00006771087635
 21
729.24999985843874
 31
0.0
  0
LINE
  5
CDF1
  8
0
 10
729.00006771087635
 20
729.24999985843874
 30
0.0
 11
729.00006771087635
 21
744.749999605119
 31
0.0
  0
LINE
  5
CDF2
  8
0
 10
729.00006771087635
 20
744.749999605119
 30
0.0
 11
723.00006300210953
 21
744.749999605119
 31
0.0
  0
LINE
  5
CE38
  8
0
 10
786.50006601819757
 20
757.64999911189034
 30
0.0
 11
786.50006601819757
 21
716.35000035166718
 31
0.0
  0
LINE
  5
CE3B
  8
0
 10
772.00006637722254
 20
715.84999933838822
 30
0.0
 11
786.00006599444885
 21
715.84999933838822
 31
0.0
  0
LINE
  5
CE3C
  8
0
 10
786.50006601819757
 20
716.35000035166718
 30
0.0
 11
786.00006599444885
 21
715.84999933838822
 31
0.0
  0
LINE
  5
CE5A
  8
0
 10
463.99998515844351
 20
776.30940079689003
 30
0.0
 11
463.99998515844351
 21
771.69059962034203
 31
0.0
  0
LINE
  5
CE5B
  8
0
 10
463.99998515844351
 20
771.69059962034203
 30
0.0
 11
467.99999326467508
 21
769.38119903206803
 31
0.0
  0
LINE
  5
CE5C
  8
0
 10
467.99999326467508
 20
769.38119903206803
 30
0.0
 11
472.00000137090677
 21
771.69059962034203
 31
0.0
  0
LINE
  5
CE5D
  8
0
 10
472.00000137090677
 20
771.69059962034203
 30
0.0
 11
472.00000137090677
 21
776.30940079689003
 31
0.0
  0
LINE
  5
CE5E
  8
0
 10
472.00000137090677
 20
776.30940079689003
 30
0.0
 11
467.99999326467508
 21
778.61880138516403
 31
0.0
  0
LINE
  5
CE5F
  8
0
 10
467.99999326467508
 20
778.61880138516403
 30
0.0
 11
463.99998515844351
 21
776.30940079689003
 31
0.0
  0
CIRCLE
  5
CE60
  8
0
 10
467.99998706579453
 20
773.9999997317791
 30
0.0
 40
8.0000000000000142
  0
LINE
  5
CE7F
  8
0
 10
722.20760434865952
 20
714.99999985098793
 30
0.0
 11
722.20760434865952
 21
684.59999933838822
 31
0.0
  0
LINE
  5
CE81
  8
0
 10
676.00006461143494
 20
789.40000012516953
 30
0.0
 11
676.00006461143494
 21
684.59999933838822
 31
0.0
  0
LINE
  5
CE83
  8
0
 10
722.20760434865952
 20
789.40000012516953
 30
0.0
 11
722.20760434865974
 21
758.99999961256958
 31
0.0
  0
POLYLINE
  5
CE8B
  8
0
 10
729.20222009301642
 20
767.9999997317791
 30
0.0
 66
     1
 70
     8
  0
VERTEX
  8
0
  5
13DB9
 10
729.202
 20
768.000
 30
0.000000
  70
    32
  0
VERTEX
  8
0
  5
13DBA
 10
729.122
 20
767.996
 30
0.000000
  70
    32
  0
VERTEX
  8
0
  5
13DBB
 10
729.042
 20
767.983
 30
0.000000
  70
    32
  0
VERTEX
  8
0
  5
13DBC
 10
728.963
 20
767.962
 30
0.000000
  70
    32
  0
VERTEX
  8
0
  5
13DBD
 10
728.884
 20
767.933
 30
0.000000
  70
    32
  0
VERTEX
  8
0
  5
13DBE
 10
728.806
 20
767.895
 30
0.000000
  70
    32
  0
VERTEX
  8
0
  5
13DBF
 10
728.728
 20
767.849
 30
0.000000
  70
    32
  0
VERTEX
  8
0
  5
13DC0
 10
728.652
 20
767.795
 30
0.000000
  70
    32
  0
VERTEX
  8
0
  5
13DC1
 10
728.578
 20
767.734
 30
0.000000
  70
    32
  0
VERTEX
  8
0
  5
13DC2
 10
728.504
 20
767.664
 30
0.000000
  70
    32
  0
VERTEX
  8
0
  5
13DC3
 10
728.433
 20
767.587
 30
0.000000
  70
    32
  0
VERTEX
  8
0
  5
13DC4
 10
728.363
 20
767.502
 30
0.000000
  70
    32
  0
VERTEX
  8
0
  5
13DC5
 10
728.295
 20
767.410
 30
0.000000
  70
    32
  0
VERTEX
  8
0
  5
13DC6
 10
728.230
 20
767.311
 30
0.000000
  70
    32
  0
VERTEX
  8
0
  5
13DC7
 10
728.167
 20
767.206
 30
0.000000
  70
    32
  0
VERTEX
  8
0
  5
13DC8
 10
728.106
 20
767.093
 30
0.000000
  70
    32
  0
VERTEX
  8
0
  5
13DC9
 10
728.048
 20
766.975
 30
0.000000
  70
    32
  0
VERTEX
  8
0
  5
13DCA
 10
727.993
 20
766.850
 30
0.000000
  70
    32
  0
VERTEX
  8
0
  5
13DCB
 10
727.941
 20
766.720
 30
0.000000
  70
    32
  0
VERTEX
  8
0
  5
13DCC
 10
727.891
 20
766.585
 30
0.000000
  70
    32
  0
VERTEX
  8
0
  5
13DCD
 10
727.845
 20
766.444
 30
0.000000
  70
    32
  0
VERTEX
  8
0
  5
13DCE
 10
727.802
 20
766.299
 30
0.000000
  70
    32
  0
VERTEX
  8
0
  5
13DCF
 10
727.763
 20
766.150
 30
0.000000
  70
    32
  0
VERTEX
  8
0
  5
13DD0
 10
727.727
 20
765.996
 30
0.000000
  70
    32
  0
VERTEX
  8
0
  5
13DD1
 10
727.694
 20
765.839
 30
0.000000
  70
    32
  0
VERTEX
  8
0
  5
13DD2
 10
727.666
 20
765.679
 30
0.000000
  70
    32
  0
VERTEX
  8
0
  5
13DD3
 10
727.640
 20
765.516
 30
0.000000
  70
    32
  0
VERTEX
  8
0
  5
13DD4
 10
727.619
 20
765.350
 30
0.000000
  70
    32
  0
VERTEX
  8
0
  5
13DD5
 10
727.602
 20
765.183
 30
0.000000
  70
    32
  0
VERTEX
  8
0
  5
13DD6
 10
727.588
 20
765.014
 30
0.000000
  70
    32
  0
VERTEX
  8
0
  5
13DD7
 10
727.578
 20
764.843
 30
0.000000
  70
    32
  0
VERTEX
  8
0
  5
13DD8
 10
727.572
 20
764.672
 30
0.000000
  70
    32
  0
VERTEX
  8
0
  5
13DD9
 10
727.570
 20
764.500
 30
0.000000
  70
    32
  0
VERTEX
  8
0
  5
13DDA
 10
727.572
 20
764.328
 30
0.000000
  70
    32
  0
VERTEX
  8
0
  5
13DDB
 10
727.578
 20
764.157
 30
0.000000
  70
    32
  0
VERTEX
  8
0
  5
13DDC
 10
727.588
 20
763.986
 30
0.000000
  70
    32
  0
VERTEX
  8
0
  5
13DDD
 10
727.602
 20
763.817
 30
0.000000
  70
    32
  0
VERTEX
  8
0
  5
13DDE
 10
727.619
 20
763.650
 30
0.000000
  70
    32
  0
VERTEX
  8
0
  5
13DDF
 10
727.640
 20
763.484
 30
0.000000
  70
    32
  0
VERTEX
  8
0
  5
13DE0
 10
727.666
 20
763.321
 30
0.000000
  70
    32
  0
VERTEX
  8
0
  5
13DE1
 10
727.694
 20
763.161
 30
0.000000
  70
    32
  0
VERTEX
  8
0
  5
13DE2
 10
727.727
 20
763.004
 30
0.000000
  70
    32
  0
VERTEX
  8
0
  5
13DE3
 10
727.763
 20
762.850
 30
0.000000
  70
    32
  0
VERTEX
  8
0
  5
13DE4
 10
727.802
 20
762.701
 30
0.000000
  70
    32
  0
VERTEX
  8
0
  5
13DE5
 10
727.845
 20
762.556
 30
0.000000
  70
    32
  0
VERTEX
  8
0
  5
13DE6
 10
727.891
 20
762.415
 30
0.000000
  70
    32
  0
VERTEX
  8
0
  5
13DE7
 10
727.941
 20
762.280
 30
0.000000
  70
    32
  0
VERTEX
  8
0
  5
13DE8
 10
727.993
 20
762.150
 30
0.000000
  70
    32
  0
VERTEX
  8
0
  5
13DE9
 10
728.048
 20
762.025
 30
0.000000
  70
    32
  0
VERTEX
  8
0
  5
13DEA
 10
728.106
 20
761.907
 30
0.000000
  70
    32
  0
VERTEX
  8
0
  5
13DEB
 10
728.167
 20
761.794
 30
0.000000
  70
    32
  0
VERTEX
  8
0
  5
13DEC
 10
728.230
 20
761.689
 30
0.000000
  70
    32
  0
VERTEX
  8
0
  5
13DED
 10
728.295
 20
761.590
 30
0.000000
  70
    32
  0
VERTEX
  8
0
  5
13DEE
 10
728.363
 20
761.498
 30
0.000000
  70
    32
  0
VERTEX
  8
0
  5
13DEF
 10
728.433
 20
761.413
 30
0.000000
  70
    32
  0
VERTEX
  8
0
  5
13DF0
 10
728.504
 20
761.336
 30
0.000000
  70
    32
  0
VERTEX
  8
0
  5
13DF1
 10
728.578
 20
761.266
 30
0.000000
  70
    32
  0
VERTEX
  8
0
  5
13DF2
 10
728.652
 20
761.205
 30
0.000000
  70
    32
  0
VERTEX
  8
0
  5
13DF3
 10
728.728
 20
761.151
 30
0.000000
  70
    32
  0
VERTEX
  8
0
  5
13DF4
 10
728.806
 20
761.105
 30
0.000000
  70
    32
  0
VERTEX
  8
0
  5
13DF5
 10
728.884
 20
761.067
 30
0.000000
  70
    32
  0
VERTEX
  8
0
  5
13DF6
 10
728.963
 20
761.038
 30
0.000000
  70
    32
  0
VERTEX
  8
0
  5
13DF7
 10
729.042
 20
761.017
 30
0.000000
  70
    32
  0
VERTEX
  8
0
  5
13DF8
 10
729.122
 20
761.004
 30
0.000000
  70
    32
  0
VERTEX
  8
0
  5
13DF9
 10
729.202
 20
761.000
 30
0.000000
  70
    32
  0
VERTEX
  8
0
  5
13DFA
 10
729.282
 20
761.004
 30
0.000000
  70
    32
  0
VERTEX
  8
0
  5
13DFB
 10
729.362
 20
761.017
 30
0.000000
  70
    32
  0
VERTEX
  8
0
  5
13DFC
 10
729.442
 20
761.038
 30
0.000000
  70
    32
  0
VERTEX
  8
0
  5
13DFD
 10
729.521
 20
761.067
 30
0.000000
  70
    32
  0
VERTEX
  8
0
  5
13DFE
 10
729.599
 20
761.105
 30
0.000000
  70
    32
  0
VERTEX
  8
0
  5
13DFF
 10
729.676
 20
761.151
 30
0.000000
  70
    32
  0
VERTEX
  8
0
  5
13E00
 10
729.752
 20
761.205
 30
0.000000
  70
    32
  0
VERTEX
  8
0
  5
13E01
 10
729.827
 20
761.266
 30
0.000000
  70
    32
  0
VERTEX
  8
0
  5
13E02
 10
729.900
 20
761.336
 30
0.000000
  70
    32
  0
VERTEX
  8
0
  5
13E03
 10
729.972
 20
761.413
 30
0.000000
  70
    32
  0
VERTEX
  8
0
  5
13E04
 10
730.041
 20
761.498
 30
0.000000
  70
    32
  0
VERTEX
  8
0
  5
13E05
 10
730.109
 20
761.590
 30
0.000000
  70
    32
  0
VERTEX
  8
0
  5
13E06
 10
730.174
 20
761.689
 30
0.000000
  70
    32
  0
VERTEX
  8
0
  5
13E07
 10
730.238
 20
761.794
 30
0.000000
  70
    32
  0
VERTEX
  8
0
  5
13E08
 10
730.298
 20
761.907
 30
0.000000
  70
    32
  0
VERTEX
  8
0
  5
13E09
 10
730.356
 20
762.025
 30
0.000000
  70
    32
  0
VERTEX
  8
0
  5
13E0A
 10
730.412
 20
762.150
 30
0.000000
  70
    32
  0
VERTEX
  8
0
  5
13E0B
 10
730.464
 20
762.280
 30
0.000000
  70
    32
  0
VERTEX
  8
0
  5
13E0C
 10
730.513
 20
762.415
 30
0.000000
  70
    32
  0
VERTEX
  8
0
  5
13E0D
 10
730.559
 20
762.556
 30
0.000000
  70
    32
  0
VERTEX
  8
0
  5
13E0E
 10
730.602
 20
762.701
 30
0.000000
  70
    32
  0
VERTEX
  8
0
  5
13E0F
 10
730.642
 20
762.850
 30
0.000000
  70
    32
  0
VERTEX
  8
0
  5
13E10
 10
730.678
 20
763.004
 30
0.000000
  70
    32
  0
VERTEX
  8
0
  5
13E11
 10
730.710
 20
763.161
 30
0.000000
  70
    32
  0
VERTEX
  8
0
  5
13E12
 10
730.739
 20
763.321
 30
0.000000
  70
    32
  0
VERTEX
  8
0
  5
13E13
 10
730.764
 20
763.484
 30
0.000000
  70
    32
  0
VERTEX
  8
0
  5
13E14
 10
730.785
 20
763.650
 30
0.000000
  70
    32
  0
VERTEX
  8
0
  5
13E15
 10
730.803
 20
763.817
 30
0.000000
  70
    32
  0
VERTEX
  8
0
  5
13E16
 10
730.817
 20
763.986
 30
0.000000
  70
    32
  0
VERTEX
  8
0
  5
13E17
 10
730.826
 20
764.157
 30
0.000000
  70
    32
  0
VERTEX
  8
0
  5
13E18
 10
730.832
 20
764.328
 30
0.000000
  70
    32
  0
VERTEX
  8
0
  5
13E19
 10
730.834
 20
764.500
 30
0.000000
  70
    32
  0
VERTEX
  8
0
  5
13E1A
 10
730.832
 20
764.672
 30
0.000000
  70
    32
  0
VERTEX
  8
0
  5
13E1B
 10
730.826
 20
764.843
 30
0.000000
  70
    32
  0
VERTEX
  8
0
  5
13E1C
 10
730.817
 20
765.014
 30
0.000000
  70
    32
  0
VERTEX
  8
0
  5
13E1D
 10
730.803
 20
765.183
 30
0.000000
  70
    32
  0
VERTEX
  8
0
  5
13E1E
 10
730.785
 20
765.350
 30
0.000000
  70
    32
  0
VERTEX
  8
0
  5
13E1F
 10
730.764
 20
765.516
 30
0.000000
  70
    32
  0
VERTEX
  8
0
  5
13E20
 10
730.739
 20
765.679
 30
0.000000
  70
    32
  0
VERTEX
  8
0
  5
13E21
 10
730.710
 20
765.839
 30
0.000000
  70
    32
  0
VERTEX
  8
0
  5
13E22
 10
730.678
 20
765.996
 30
0.000000
  70
    32
  0
VERTEX
  8
0
  5
13E23
 10
730.642
 20
766.150
 30
0.000000
  70
    32
  0
VERTEX
  8
0
  5
13E24
 10
730.602
 20
766.299
 30
0.000000
  70
    32
  0
VERTEX
  8
0
  5
13E25
 10
730.559
 20
766.444
 30
0.000000
  70
    32
  0
VERTEX
  8
0
  5
13E26
 10
730.513
 20
766.585
 30
0.000000
  70
    32
  0
VERTEX
  8
0
  5
13E27
 10
730.464
 20
766.720
 30
0.000000
  70
    32
  0
VERTEX
  8
0
  5
13E28
 10
730.412
 20
766.850
 30
0.000000
  70
    32
  0
VERTEX
  8
0
  5
13E29
 10
730.356
 20
766.975
 30
0.000000
  70
    32
  0
VERTEX
  8
0
  5
13E2A
 10
730.298
 20
767.093
 30
0.000000
  70
    32
  0
VERTEX
  8
0
  5
13E2B
 10
730.238
 20
767.206
 30
0.000000
  70
    32
  0
VERTEX
  8
0
  5
13E2C
 10
730.174
 20
767.311
 30
0.000000
  70
    32
  0
VERTEX
  8
0
  5
13E2D
 10
730.109
 20
767.410
 30
0.000000
  70
    32
  0
VERTEX
  8
0
  5
13E2E
 10
730.041
 20
767.502
 30
0.000000
  70
    32
  0
VERTEX
  8
0
  5
13E2F
 10
729.972
 20
767.587
 30
0.000000
  70
    32
  0
VERTEX
  8
0
  5
13E30
 10
729.900
 20
767.664
 30
0.000000
  70
    32
  0
VERTEX
  8
0
  5
13E31
 10
729.827
 20
767.734
 30
0.000000
  70
    32
  0
VERTEX
  8
0
  5
13E32
 10
729.752
 20
767.795
 30
0.000000
  70
    32
  0
VERTEX
  8
0
  5
13E33
 10
729.676
 20
767.849
 30
0.000000
  70
    32
  0
VERTEX
  8
0
  5
13E34
 10
729.599
 20
767.895
 30
0.000000
  70
    32
  0
VERTEX
  8
0
  5
13E35
 10
729.521
 20
767.933
 30
0.000000
  70
    32
  0
VERTEX
  8
0
  5
13E36
 10
729.442
 20
767.962
 30
0.000000
  70
    32
  0
VERTEX
  8
0
  5
13E37
 10
729.362
 20
767.983
 30
0.000000
  70
    32
  0
VERTEX
  8
0
  5
13E38
 10
729.282
 20
767.996
 30
0.000000
  70
    32
  0
VERTEX
  8
0
  5
13E39
 10
729.202
 20
768.000
 30
0.000000
  70
    32
  0
SEQEND
  8
0
  5
13E3A
  0
LINE
  5
CE8C
  8
0
 10
732.00006633996964
 20
789.40000012516975
 30
0.0
 11
732.00006633996964
 21
759.50000062584866
 31
0.0
  0
POLYLINE
  5
CE90
  8
0
 10
729.20222009301642
 20
712.9999997317791
 30
0.0
 66
     1
 70
     8
  0
VERTEX
  8
0
  5
13E3B
 10
729.202
 20
713.000
 30
0.000000
  70
    32
  0
VERTEX
  8
0
  5
13E3C
 10
729.122
 20
712.996
 30
0.000000
  70
    32
  0
VERTEX
  8
0
  5
13E3D
 10
729.042
 20
712.983
 30
0.000000
  70
    32
  0
VERTEX
  8
0
  5
13E3E
 10
728.963
 20
712.962
 30
0.000000
  70
    32
  0
VERTEX
  8
0
  5
13E3F
 10
728.884
 20
712.933
 30
0.000000
  70
    32
  0
VERTEX
  8
0
  5
13E40
 10
728.806
 20
712.895
 30
0.000000
  70
    32
  0
VERTEX
  8
0
  5
13E41
 10
728.728
 20
712.849
 30
0.000000
  70
    32
  0
VERTEX
  8
0
  5
13E42
 10
728.652
 20
712.795
 30
0.000000
  70
    32
  0
VERTEX
  8
0
  5
13E43
 10
728.578
 20
712.734
 30
0.000000
  70
    32
  0
VERTEX
  8
0
  5
13E44
 10
728.504
 20
712.664
 30
0.000000
  70
    32
  0
VERTEX
  8
0
  5
13E45
 10
728.433
 20
712.587
 30
0.000000
  70
    32
  0
VERTEX
  8
0
  5
13E46
 10
728.363
 20
712.502
 30
0.000000
  70
    32
  0
VERTEX
  8
0
  5
13E47
 10
728.295
 20
712.410
 30
0.000000
  70
    32
  0
VERTEX
  8
0
  5
13E48
 10
728.230
 20
712.311
 30
0.000000
  70
    32
  0
VERTEX
  8
0
  5
13E49
 10
728.167
 20
712.206
 30
0.000000
  70
    32
  0
VERTEX
  8
0
  5
13E4A
 10
728.106
 20
712.093
 30
0.000000
  70
    32
  0
VERTEX
  8
0
  5
13E4B
 10
728.048
 20
711.975
 30
0.000000
  70
    32
  0
VERTEX
  8
0
  5
13E4C
 10
727.993
 20
711.850
 30
0.000000
  70
    32
  0
VERTEX
  8
0
  5
13E4D
 10
727.941
 20
711.720
 30
0.000000
  70
    32
  0
VERTEX
  8
0
  5
13E4E
 10
727.891
 20
711.585
 30
0.000000
  70
    32
  0
VERTEX
  8
0
  5
13E4F
 10
727.845
 20
711.444
 30
0.000000
  70
    32
  0
VERTEX
  8
0
  5
13E50
 10
727.802
 20
711.299
 30
0.000000
  70
    32
  0
VERTEX
  8
0
  5
13E51
 10
727.763
 20
711.150
 30
0.000000
  70
    32
  0
VERTEX
  8
0
  5
13E52
 10
727.727
 20
710.996
 30
0.000000
  70
    32
  0
VERTEX
  8
0
  5
13E53
 10
727.694
 20
710.839
 30
0.000000
  70
    32
  0
VERTEX
  8
0
  5
13E54
 10
727.666
 20
710.679
 30
0.000000
  70
    32
  0
VERTEX
  8
0
  5
13E55
 10
727.640
 20
710.516
 30
0.000000
  70
    32
  0
VERTEX
  8
0
  5
13E56
 10
727.619
 20
710.350
 30
0.000000
  70
    32
  0
VERTEX
  8
0
  5
13E57
 10
727.602
 20
710.183
 30
0.000000
  70
    32
  0
VERTEX
  8
0
  5
13E58
 10
727.588
 20
710.014
 30
0.000000
  70
    32
  0
VERTEX
  8
0
  5
13E59
 10
727.578
 20
709.843
 30
0.000000
  70
    32
  0
VERTEX
  8
0
  5
13E5A
 10
727.572
 20
709.672
 30
0.000000
  70
    32
  0
VERTEX
  8
0
  5
13E5B
 10
727.570
 20
709.500
 30
0.000000
  70
    32
  0
VERTEX
  8
0
  5
13E5C
 10
727.572
 20
709.328
 30
0.000000
  70
    32
  0
VERTEX
  8
0
  5
13E5D
 10
727.578
 20
709.157
 30
0.000000
  70
    32
  0
VERTEX
  8
0
  5
13E5E
 10
727.588
 20
708.986
 30
0.000000
  70
    32
  0
VERTEX
  8
0
  5
13E5F
 10
727.602
 20
708.817
 30
0.000000
  70
    32
  0
VERTEX
  8
0
  5
13E60
 10
727.619
 20
708.650
 30
0.000000
  70
    32
  0
VERTEX
  8
0
  5
13E61
 10
727.640
 20
708.484
 30
0.000000
  70
    32
  0
VERTEX
  8
0
  5
13E62
 10
727.666
 20
708.321
 30
0.000000
  70
    32
  0
VERTEX
  8
0
  5
13E63
 10
727.694
 20
708.161
 30
0.000000
  70
    32
  0
VERTEX
  8
0
  5
13E64
 10
727.727
 20
708.004
 30
0.000000
  70
    32
  0
VERTEX
  8
0
  5
13E65
 10
727.763
 20
707.850
 30
0.000000
  70
    32
  0
VERTEX
  8
0
  5
13E66
 10
727.802
 20
707.701
 30
0.000000
  70
    32
  0
VERTEX
  8
0
  5
13E67
 10
727.845
 20
707.556
 30
0.000000
  70
    32
  0
VERTEX
  8
0
  5
13E68
 10
727.891
 20
707.415
 30
0.000000
  70
    32
  0
VERTEX
  8
0
  5
13E69
 10
727.941
 20
707.280
 30
0.000000
  70
    32
  0
VERTEX
  8
0
  5
13E6A
 10
727.993
 20
707.150
 30
0.000000
  70
    32
  0
VERTEX
  8
0
  5
13E6B
 10
728.048
 20
707.025
 30
0.000000
  70
    32
  0
VERTEX
  8
0
  5
13E6C
 10
728.106
 20
706.907
 30
0.000000
  70
    32
  0
VERTEX
  8
0
  5
13E6D
 10
728.167
 20
706.794
 30
0.000000
  70
    32
  0
VERTEX
  8
0
  5
13E6E
 10
728.230
 20
706.689
 30
0.000000
  70
    32
  0
VERTEX
  8
0
  5
13E6F
 10
728.295
 20
706.590
 30
0.000000
  70
    32
  0
VERTEX
  8
0
  5
13E70
 10
728.363
 20
706.498
 30
0.000000
  70
    32
  0
VERTEX
  8
0
  5
13E71
 10
728.433
 20
706.413
 30
0.000000
  70
    32
  0
VERTEX
  8
0
  5
13E72
 10
728.504
 20
706.336
 30
0.000000
  70
    32
  0
VERTEX
  8
0
  5
13E73
 10
728.578
 20
706.266
 30
0.000000
  70
    32
  0
VERTEX
  8
0
  5
13E74
 10
728.652
 20
706.205
 30
0.000000
  70
    32
  0
VERTEX
  8
0
  5
13E75
 10
728.728
 20
706.151
 30
0.000000
  70
    32
  0
VERTEX
  8
0
  5
13E76
 10
728.806
 20
706.105
 30
0.000000
  70
    32
  0
VERTEX
  8
0
  5
13E77
 10
728.884
 20
706.067
 30
0.000000
  70
    32
  0
VERTEX
  8
0
  5
13E78
 10
728.963
 20
706.038
 30
0.000000
  70
    32
  0
VERTEX
  8
0
  5
13E79
 10
729.042
 20
706.017
 30
0.000000
  70
    32
  0
VERTEX
  8
0
  5
13E7A
 10
729.122
 20
706.004
 30
0.000000
  70
    32
  0
VERTEX
  8
0
  5
13E7B
 10
729.202
 20
706.000
 30
0.000000
  70
    32
  0
VERTEX
  8
0
  5
13E7C
 10
729.282
 20
706.004
 30
0.000000
  70
    32
  0
VERTEX
  8
0
  5
13E7D
 10
729.362
 20
706.017
 30
0.000000
  70
    32
  0
VERTEX
  8
0
  5
13E7E
 10
729.442
 20
706.038
 30
0.000000
  70
    32
  0
VERTEX
  8
0
  5
13E7F
 10
729.521
 20
706.067
 30
0.000000
  70
    32
  0
VERTEX
  8
0
  5
13E80
 10
729.599
 20
706.105
 30
0.000000
  70
    32
  0
VERTEX
  8
0
  5
13E81
 10
729.676
 20
706.151
 30
0.000000
  70
    32
  0
VERTEX
  8
0
  5
13E82
 10
729.752
 20
706.205
 30
0.000000
  70
    32
  0
VERTEX
  8
0
  5
13E83
 10
729.827
 20
706.266
 30
0.000000
  70
    32
  0
VERTEX
  8
0
  5
13E84
 10
729.900
 20
706.336
 30
0.000000
  70
    32
  0
VERTEX
  8
0
  5
13E85
 10
729.972
 20
706.413
 30
0.000000
  70
    32
  0
VERTEX
  8
0
  5
13E86
 10
730.041
 20
706.498
 30
0.000000
  70
    32
  0
VERTEX
  8
0
  5
13E87
 10
730.109
 20
706.590
 30
0.000000
  70
    32
  0
VERTEX
  8
0
  5
13E88
 10
730.174
 20
706.689
 30
0.000000
  70
    32
  0
VERTEX
  8
0
  5
13E89
 10
730.238
 20
706.794
 30
0.000000
  70
    32
  0
VERTEX
  8
0
  5
13E8A
 10
730.298
 20
706.907
 30
0.000000
  70
    32
  0
VERTEX
  8
0
  5
13E8B
 10
730.356
 20
707.025
 30
0.000000
  70
    32
  0
VERTEX
  8
0
  5
13E8C
 10
730.412
 20
707.150
 30
0.000000
  70
    32
  0
VERTEX
  8
0
  5
13E8D
 10
730.464
 20
707.280
 30
0.000000
  70
    32
  0
VERTEX
  8
0
  5
13E8E
 10
730.513
 20
707.415
 30
0.000000
  70
    32
  0
VERTEX
  8
0
  5
13E8F
 10
730.559
 20
707.556
 30
0.000000
  70
    32
  0
VERTEX
  8
0
  5
13E90
 10
730.602
 20
707.701
 30
0.000000
  70
    32
  0
VERTEX
  8
0
  5
13E91
 10
730.642
 20
707.850
 30
0.000000
  70
    32
  0
VERTEX
  8
0
  5
13E92
 10
730.678
 20
708.004
 30
0.000000
  70
    32
  0
VERTEX
  8
0
  5
13E93
 10
730.710
 20
708.161
 30
0.000000
  70
    32
  0
VERTEX
  8
0
  5
13E94
 10
730.739
 20
708.321
 30
0.000000
  70
    32
  0
VERTEX
  8
0
  5
13E95
 10
730.764
 20
708.484
 30
0.000000
  70
    32
  0
VERTEX
  8
0
  5
13E96
 10
730.785
 20
708.650
 30
0.000000
  70
    32
  0
VERTEX
  8
0
  5
13E97
 10
730.803
 20
708.817
 30
0.000000
  70
    32
  0
VERTEX
  8
0
  5
13E98
 10
730.817
 20
708.986
 30
0.000000
  70
    32
  0
VERTEX
  8
0
  5
13E99
 10
730.826
 20
709.157
 30
0.000000
  70
    32
  0
VERTEX
  8
0
  5
13E9A
 10
730.832
 20
709.328
 30
0.000000
  70
    32
  0
VERTEX
  8
0
  5
13E9B
 10
730.834
 20
709.500
 30
0.000000
  70
    32
  0
VERTEX
  8
0
  5
13E9C
 10
730.832
 20
709.672
 30
0.000000
  70
    32
  0
VERTEX
  8
0
  5
13E9D
 10
730.826
 20
709.843
 30
0.000000
  70
    32
  0
VERTEX
  8
0
  5
13E9E
 10
730.817
 20
710.014
 30
0.000000
  70
    32
  0
VERTEX
  8
0
  5
13E9F
 10
730.803
 20
710.183
 30
0.000000
  70
    32
  0
VERTEX
  8
0
  5
13EA0
 10
730.785
 20
710.350
 30
0.000000
  70
    32
  0
VERTEX
  8
0
  5
13EA1
 10
730.764
 20
710.516
 30
0.000000
  70
    32
  0
VERTEX
  8
0
  5
13EA2
 10
730.739
 20
710.679
 30
0.000000
  70
    32
  0
VERTEX
  8
0
  5
13EA3
 10
730.710
 20
710.839
 30
0.000000
  70
    32
  0
VERTEX
  8
0
  5
13EA4
 10
730.678
 20
710.996
 30
0.000000
  70
    32
  0
VERTEX
  8
0
  5
13EA5
 10
730.642
 20
711.150
 30
0.000000
  70
    32
  0
VERTEX
  8
0
  5
13EA6
 10
730.602
 20
711.299
 30
0.000000
  70
    32
  0
VERTEX
  8
0
  5
13EA7
 10
730.559
 20
711.444
 30
0.000000
  70
    32
  0
VERTEX
  8
0
  5
13EA8
 10
730.513
 20
711.585
 30
0.000000
  70
    32
  0
VERTEX
  8
0
  5
13EA9
 10
730.464
 20
711.720
 30
0.000000
  70
    32
  0
VERTEX
  8
0
  5
13EAA
 10
730.412
 20
711.850
 30
0.000000
  70
    32
  0
VERTEX
  8
0
  5
13EAB
 10
730.356
 20
711.975
 30
0.000000
  70
    32
  0
VERTEX
  8
0
  5
13EAC
 10
730.298
 20
712.093
 30
0.000000
  70
    32
  0
VERTEX
  8
0
  5
13EAD
 10
730.238
 20
712.206
 30
0.000000
  70
    32
  0
VERTEX
  8
0
  5
13EAE
 10
730.174
 20
712.311
 30
0.000000
  70
    32
  0
VERTEX
  8
0
  5
13EAF
 10
730.109
 20
712.410
 30
0.000000
  70
    32
  0
VERTEX
  8
0
  5
13EB0
 10
730.041
 20
712.502
 30
0.000000
  70
    32
  0
VERTEX
  8
0
  5
13EB1
 10
729.972
 20
712.587
 30
0.000000
  70
    32
  0
VERTEX
  8
0
  5
13EB2
 10
729.900
 20
712.664
 30
0.000000
  70
    32
  0
VERTEX
  8
0
  5
13EB3
 10
729.827
 20
712.734
 30
0.000000
  70
    32
  0
VERTEX
  8
0
  5
13EB4
 10
729.752
 20
712.795
 30
0.000000
  70
    32
  0
VERTEX
  8
0
  5
13EB5
 10
729.676
 20
712.849
 30
0.000000
  70
    32
  0
VERTEX
  8
0
  5
13EB6
 10
729.599
 20
712.895
 30
0.000000
  70
    32
  0
VERTEX
  8
0
  5
13EB7
 10
729.521
 20
712.933
 30
0.000000
  70
    32
  0
VERTEX
  8
0
  5
13EB8
 10
729.442
 20
712.962
 30
0.000000
  70
    32
  0
VERTEX
  8
0
  5
13EB9
 10
729.362
 20
712.983
 30
0.000000
  70
    32
  0
VERTEX
  8
0
  5
13EBA
 10
729.282
 20
712.996
 30
0.000000
  70
    32
  0
VERTEX
  8
0
  5
13EBB
 10
729.202
 20
713.000
 30
0.000000
  70
    32
  0
SEQEND
  8
0
  5
13EBC
  0
LINE
  5
CE91
  8
0
 10
732.00006633996964
 20
714.49999883770943
 30
0.0
 11
732.00006633996964
 21
684.59999933838844
 31
0.0
  0
LINE
  5
CE94
  8
0
 10
731.50006532669056
 20
714.99999985098827
 30
0.0
 11
732.00006633996964
 21
714.49999883770943
 31
0.0
  0
LINE
  5
CE96
  8
0
 10
676.00006461143494
 20
684.59999933838822
 30
0.0
 11
676.71414315700531
 21
684.09999832510925
 31
0.0
  0
LINE
  5
CE97
  8
0
 10
721.88906967639923
 20
684.09999832510925
 30
0.0
 11
722.20760434865952
 21
684.59999933838822
 31
0.0
  0
LINE
  5
CE99
  8
0
 10
732.00006633996964
 20
684.59999933838844
 30
0.0
 11
731.50006532669056
 21
684.09999832510937
 31
0.0
  0
LINE
  5
CE9A
  8
0
 10
669.00006532669056
 20
684.09999832510778
 30
0.0
 11
731.50006532669056
 21
684.09999832510937
 31
0.0
  0
LINE
  5
CE9D
  8
0
 10
722.0000684261322
 20
758.99999961256958
 30
0.0
 11
722.0000684261322
 21
714.99999985098816
 31
0.0
  0
LINE
  5
CE9F
  8
0
 10
675.27006417512894
 20
684.59999933838822
 30
0.0
 11
676.00006461143494
 21
684.59999933838822
 31
0.0
  0
LINE
  5
CEA0
  8
0
 10
675.27006417512894
 20
789.40000012516953
 30
0.0
 11
675.27006417512894
 21
684.59999933838822
 31
0.0
  0
LINE
  5
CEA2
  8
0
 10
675.27006417512894
 20
684.59999933838822
 30
0.0
 11
674.73811507225025
 21
684.09999832510925
 31
0.0
  0
LINE
  5
CEA4
  8
0
 10
669.00006532669056
 20
789.90000113844849
 30
0.0
 11
669.00006532669056
 21
684.09999832510925
 31
0.0
  0
LINE
  5
CEAC
  8
0
 10
512.72998601198185
 20
684.59999933838822
 30
0.0
 11
512.72998601198185
 21
789.40000012516953
 31
0.0
  0
LINE
  5
CEAD
  8
0
 10
512.72998601198185
 20
684.59999933838822
 30
0.0
 11
511.82897239923477
 21
684.59999933838822
 31
0.0
  0
LINE
  5
CEAE
  8
0
 10
518.99997740983963
 20
684.09999832510925
 30
0.0
 11
456.49999231100088
 21
684.09999832510925
 31
0.0
  0
LINE
  5
CEAF
  8
0
 10
513.26194256544113
 20
684.09999832510925
 30
0.0
 11
512.72998601198185
 21
684.59999933838822
 31
0.0
  0
LINE
  5
CEB1
  8
0
 10
518.99997740983963
 20
684.09999832510925
 30
0.0
 11
518.99997740983963
 21
789.90000113844849
 31
0.0
  0
LINE
  5
CEB6
  8
0
 10
511.82897239923477
 20
789.40000012516953
 30
0.0
 11
511.82897239923477
 21
684.59999933838822
 31
0.0
  0
LINE
  5
CEC6
  8
0
 10
455.99999874830252
 20
684.59999933838822
 30
0.0
 11
455.99999874830252
 21
789.40000012516953
 31
0.0
  0
LINE
  5
CECF
  8
0
 10
455.99999874830252
 20
684.59999933838822
 30
0.0
 11
456.49999231100088
 21
684.09999832510925
 31
0.0
  0
LINE
  5
CED2
  8
0
 10
511.82897239923477
 20
684.59999933838822
 30
0.0
 11
511.28591448068619
 21
684.09999832510925
 31
0.0
  0
LINE
  5
CEDA
  8
0
 10
787.00006604194664
 20
789.99999910593033
 30
0.0
 11
787.00006604194641
 21
746.99999963347057
 31
0.0
  0
LINE
  5
CEDF
  8
0
 10
669.00006532669056
 20
757.99999944865704
 30
0.0
 11
518.99997740983963
 21
757.99999944865704
 31
0.0
  0
LINE
  5
CEE1
  8
0
 10
518.99997740983963
 20
716.00000001490105
 30
0.0
 11
669.00006532669056
 21
716.00000001490105
 31
0.0
  0
LINE
  5
CEE3
  8
0
 10
787.00006604194664
 20
714.99999985098827
 30
0.0
 11
722.0000684261322
 21
714.99999985098816
 31
0.0
  0
LINE
  5
CEE8
  8
0
 10
787.00006604194641
 20
726.99999921506219
 30
0.0
 11
787.00006604194641
 21
684.00000035762775
 31
0.0
  0
LINE
  5
CEE9
  8
0
 10
787.00006604194664
 20
684.00000035762775
 30
0.0
 11
456.99998587369919
 21
684.00000035762775
 31
0.0
  0
LINE
  5
CEEE
  8
0
 10
456.99998587369919
 20
684.00000035762775
 30
0.0
 11
456.99998587369919
 21
684.09999832510937
 31
0.0
  0
CIRCLE
  5
CEF1
  8
0
 10
536.99998706579197
 20
736.99999973177898
 30
0.0
 40
9.4999999999999432
  0
CIRCLE
  5
CEF6
  8
0
 10
536.99998706579197
 20
736.99999973177898
 30
0.0
 40
4.3749999999999432
  0
LINE
  5
CF56
  8
0
 10
455.99999874830252
 20
200.59999898076049
 30
0.0
 11
456.49999231100088
 21
200.0999979674815
 31
0.0
  0
LINE
  5
CF58
  8
0
 10
456.49999231100088
 20
200.0999979674815
 30
0.0
 11
456.99998587369919
 21
200.0999979674815
 31
0.0
  0
LINE
  5
CF5C
  8
0
 10
455.99999874830252
 20
305.39999976754177
 30
0.0
 11
455.99999874830252
 21
200.59999898076049
 31
0.0
  0
LINE
  5
CF5E
  8
0
 10
455.99999874830252
 20
305.39999976754177
 30
0.0
 11
456.49999231100088
 21
305.90000078082079
 31
0.0
  0
LINE
  5
CF5F
  8
0
 10
456.49999231100088
 20
305.90000078082079
 30
0.0
 11
456.99998587369919
 21
305.90000078082079
 31
0.0
  0
LINE
  5
CF63
  8
0
 10
786.99999898672104
 20
200.00000000000011
 30
0.0
 11
456.99998587369907
 21
200.0
 31
0.0
  0
LINE
  5
CF64
  8
0
 10
786.99999898672104
 20
305.99999874830252
 30
0.0
 11
786.99999898672104
 21
200.00000000000011
 31
0.0
  0
LINE
  5
CF6A
  8
0
 10
530.9999868273735
 20
279.1055502528626
 30
0.0
 11
530.9999868273735
 21
301.8944683331415
 31
0.0
  0
LINE
  5
CF70
  8
0
 10
456.99998587369919
 20
200.00000000000011
 30
0.0
 11
456.99998587369919
 21
305.99999874830257
 31
0.0
  0
LINE
  5
CF73
  8
0
 10
543.79042834043503
 20
228.79999950528159
 30
0.0
 11
786.99999898672127
 21
228.79999950528159
 31
0.0
  0
CIRCLE
  5
CF76
  8
0
 10
536.99998706579197
 20
252.9999993741514
 30
0.0
 40
4.3749999999999432
  0
CIRCLE
  5
CF77
  8
0
 10
736.99999898672104
 20
252.9999993741514
 30
0.0
 40
4.375
  0
LINE
  5
CF8B
  8
0
 10
530.20955473184586
 20
277.19999924302113
 30
0.0
 11
456.99998587369919
 21
277.19999924302113
 31
0.0
  0
LINE
  5
CF93
  8
0
 10
542.99998134374607
 20
218.19999888539331
 30
0.0
 11
786.99999898672127
 21
218.19999888539331
 31
0.0
  0
LINE
  5
CF97
  8
0
 10
456.99998587369919
 20
218.19999888539331
 30
0.0
 11
530.9999868273735
 21
218.19999888539331
 31
0.0
  0
LINE
  5
CF9D
  8
0
 10
456.99998587369919
 20
228.79999950528159
 30
0.0
 11
530.20955473184586
 21
228.79999950528159
 31
0.0
  0
LINE
  5
CFA0
  8
0
 10
786.99999898672127
 20
277.19999924302113
 30
0.0
 11
543.79042834043503
 21
277.19999924302113
 31
0.0
  0
LINE
  5
CFA2
  8
0
 10
786.99999898672104
 20
287.79999986290937
 30
0.0
 11
542.99998134374607
 21
287.79999986290937
 31
0.0
  0
LINE
  5
CFA6
  8
0
 10
542.99998134374607
 20
301.89441873916519
 30
0.0
 11
542.99998134374607
 21
279.10556017165788
 31
0.0
  0
LINE
  5
CFAA
  8
0
 10
530.9999868273735
 20
287.79999986290937
 30
0.0
 11
456.99998587369919
 21
287.79999986290937
 31
0.0
  0
LINE
  5
CFAD
  8
0
 10
456.99998587369907
 20
305.99999874830252
 30
0.0
 11
786.99999898672104
 21
305.99999874830257
 31
0.0
  0
LINE
  5
CFCE
  8
0
 10
534.29998308420193
 20
299.04167806547161
 30
0.0
 11
534.29998308420181
 21
281.95832744240749
 31
0.0
  0
LINE
  5
CFD1
  8
0
 10
539.6999850869181
 20
281.95832815843551
 30
0.0
 11
539.69998508691776
 21
299.04166560616238
 31
0.0
  0
LINE
  5
CFE7
  8
0
 10
227.4999989196659
 20
476.299999654293
 30
0.0
 11
232.1000004187228
 21
476.299999654293
 31
0.0
  0
LINE
  5
CFE8
  8
0
 10
273.90000019222509
 20
476.299999654293
 30
0.0
 11
278.49999982863682
 21
476.299999654293
 31
0.0
  0
LINE
  5
CFE9
  8
0
 10
226.99999976903209
 20
476.79999880492682
 30
0.0
 11
227.4999989196659
 21
476.299999654293
 31
0.0
  0
LINE
  5
CFEA
  8
0
 10
278.49999982863682
 20
476.299999654293
 30
0.0
 11
278.99999897927057
 21
476.79999880492682
 31
0.0
  0
LINE
  5
CFFB
  8
0
 10
226.99999976903209
 20
485.49999892711628
 30
0.0
 11
226.99999976903209
 21
476.79999880492682
 31
0.0
  0
LINE
  5
CFFC
  8
0
 10
227.4999989196659
 20
485.99999807775021
 30
0.0
 11
226.99999976903209
 21
485.49999892711628
 31
0.0
  0
LINE
  5
CFFF
  8
0
 10
278.99999897927057
 20
485.49999892711628
 30
0.0
 11
278.49999982863648
 21
485.99999807775021
 31
0.0
  0
LINE
  5
D000
  8
0
 10
278.99999897927057
 20
476.79999880492682
 30
0.0
 11
278.99999897927057
 21
485.49999892711628
 31
0.0
  0
LINE
  5
D004
  8
0
 10
232.59999956935661
 20
472.49999865889538
 30
0.0
 11
273.39999917894608
 21
472.49999865889538
 31
0.0
  0
LINE
  5
D005
  8
0
 10
232.1000004187228
 20
472.99999967217428
 30
0.0
 11
232.59999956935661
 21
472.49999865889538
 31
0.0
  0
LINE
  5
D006
  8
0
 10
232.1000004187228
 20
472.99999967217428
 30
0.0
 11
232.1000004187228
 21
477.99999862909289
 31
0.0
  0
LINE
  5
D018
  8
0
 10
273.90000019222509
 20
477.99999862909289
 30
0.0
 11
273.90000019222509
 21
472.99999967217428
 31
0.0
  0
LINE
  5
D019
  8
0
 10
273.90000019222509
 20
472.99999967217428
 30
0.0
 11
273.39999917894608
 21
472.49999865889538
 31
0.0
  0
LINE
  5
D02A
  8
0
 10
226.99999920556209
 20
516.1339744291954
 30
0.0
 11
225.49999972781859
 21
515.26794658272229
 31
0.0
  0
LINE
  5
D02B
  8
0
 10
225.49999972781859
 20
515.26794658272229
 30
0.0
 11
223.99999999885571
 21
516.1339715957713
 31
0.0
  0
LINE
  5
D02C
  8
0
 10
223.99999999885571
 20
516.1339715957713
 30
0.0
 11
223.99999974763651
 21
517.8660244552932
 31
0.0
  0
LINE
  5
D02D
  8
0
 10
226.99999920556209
 20
517.86602357190725
 30
0.0
 11
226.99999920556209
 21
516.1339744291954
 31
0.0
  0
LINE
  5
D02E
  8
0
 10
225.4999994765993
 20
518.73204858495615
 30
0.0
 11
226.99999920556209
 21
517.86602357190725
 31
0.0
  0
LINE
  5
D02F
  8
0
 10
223.99999974763651
 20
517.8660244552932
 30
0.0
 11
225.4999994765993
 21
518.73204858495615
 31
0.0
  0
CIRCLE
  5
D030
  8
0
 10
225.49999937415109
 20
516.99999874830257
 30
0.0
 40
2.9999999999999849
  0
LINE
  5
D032
  8
0
 10
231.0999993234872
 20
493.89999955892557
 30
0.0
 11
231.0999993234872
 21
493.99999752640718
 31
0.0
  0
LINE
  5
D03A
  8
0
 10
227.9999990016222
 20
478.49999964237207
 30
0.0
 11
227.49999985098839
 21
478.99999879300589
 31
0.0
  0
LINE
  5
D03B
  8
0
 10
227.49999985098839
 20
478.99999879300589
 30
0.0
 11
227.49999985098839
 21
484.90141555666918
 31
0.0
  0
LINE
  5
D03C
  8
0
 10
228.50000001490119
 20
485.99999807775021
 30
0.0
 11
227.49999985098839
 21
484.90141555666918
 31
0.0
  0
LINE
  5
D03E
  8
0
 10
232.4999988079071
 20
485.99999807775021
 30
0.0
 11
232.4999988079071
 21
492.94999837875361
 31
0.0
  0
LINE
  5
D03F
  8
0
 10
232.99999982118609
 20
493.44999939203262
 30
0.0
 11
232.4999988079071
 21
492.94999837875361
 31
0.0
  0
LINE
  5
D041
  8
0
 10
273.49999994039541
 20
492.94999837875361
 30
0.0
 11
272.99999892711639
 21
493.44999939203262
 31
0.0
  0
LINE
  5
D042
  8
0
 10
273.49999994039541
 20
492.94999837875361
 30
0.0
 11
273.49999994039541
 21
485.99999807775021
 31
0.0
  0
LINE
  5
D044
  8
0
 10
277.4999987334013
 20
485.99999807775021
 30
0.0
 11
278.49999889731407
 21
484.90141555666918
 31
0.0
  0
LINE
  5
D045
  8
0
 10
278.49999889731407
 20
478.99999879300589
 30
0.0
 11
278.49999889731407
 21
484.90141555666918
 31
0.0
  0
LINE
  5
D046
  8
0
 10
278.49999889731407
 20
478.99999879300589
 30
0.0
 11
277.99999974668032
 21
478.49999964237207
 31
0.0
  0
LINE
  5
D048
  8
0
 10
228.50000001490119
 20
477.99999862909311
 30
0.0
 11
227.9999990016222
 21
478.49999964237207
 31
0.0
  0
LINE
  5
D049
  8
0
 10
277.4999987334013
 20
477.99999862909311
 30
0.0
 11
277.99999974668032
 21
478.49999964237207
 31
0.0
  0
LINE
  5
D04A
  8
0
 10
228.50000001490119
 20
477.99999862909311
 30
0.0
 11
277.4999987334013
 21
477.99999862909311
 31
0.0
  0
LINE
  5
D04B
  8
0
 10
233.49999897181991
 20
493.95000040531153
 30
0.0
 11
272.49999977648258
 21
493.95000040531153
 31
0.0
  0
LINE
  5
D04C
  8
0
 10
272.49999977648258
 20
493.95000040531153
 30
0.0
 11
272.99999892711639
 21
493.44999939203262
 31
0.0
  0
LINE
  5
D04D
  8
0
 10
233.49999897181991
 20
493.95000040531153
 30
0.0
 11
232.99999982118609
 21
493.44999939203262
 31
0.0
  0
LINE
  5
D05B
  8
0
 10
200.5999989807606
 20
493.99999752640718
 30
0.0
 11
305.39999976754189
 21
493.99999752640718
 31
0.0
  0
LINE
  5
D05F
  8
0
 10
200.09999796748161
 20
534.00000035762775
 30
0.0
 11
200.09999796748161
 21
494.4999985396862
 31
0.0
  0
LINE
  5
D0AE
  8
0
 10
200.09999796748161
 20
494.4999985396862
 30
0.0
 11
200.5999989807606
 21
493.99999752640718
 31
0.0
  0
LINE
  5
D0B5
  8
0
 10
305.9000007808209
 20
534.00000035762775
 30
0.0
 11
305.9000007808209
 21
494.4999985396862
 31
0.0
  0
LINE
  5
D0BC
  8
0
 10
305.9000007808209
 20
494.4999985396862
 30
0.0
 11
305.39999976754189
 21
493.99999752640718
 31
0.0
  0
LINE
  5
D0F2
  8
0
 10
274.69999976456171
 20
475.49999915063381
 30
0.0
 11
279.4999990612269
 21
475.49999915063381
 31
0.0
  0
LINE
  5
D0F3
  8
0
 10
279.4999990612269
 20
475.49999915063381
 30
0.0
 11
279.4999990612269
 21
485.99999807775021
 31
0.0
  0
LINE
  5
D0F4
  8
0
 10
279.4999990612269
 20
485.99999807775021
 30
0.0
 11
273.49999994039541
 21
485.99999807775021
 31
0.0
  0
LINE
  5
D0F5
  8
0
 10
273.99999909102922
 20
486.99999824166292
 30
0.0
 11
274.999999254942
 21
485.99999807775021
 31
0.0
  0
LINE
  5
D0F6
  8
0
 10
273.99999909102922
 20
486.99999824166292
 30
0.0
 11
273.99999909102922
 21
492.99999922513962
 31
0.0
  0
LINE
  5
D0F7
  8
0
 10
274.999999254942
 20
493.99999752640718
 30
0.0
 11
273.99999909102922
 21
492.99999922513962
 31
0.0
  0
LINE
  5
D0F8
  8
0
 10
305.99999874830252
 20
492.99999922513962
 30
0.0
 11
305.00000044703489
 21
493.99999752640718
 31
0.0
  0
LINE
  5
D0F9
  8
0
 10
305.99999874830252
 20
492.99999922513962
 30
0.0
 11
305.99999874830252
 21
482.99999944865698
 31
0.0
  0
LINE
  5
D0FA
  8
0
 10
305.00000044703489
 20
481.99999928474421
 30
0.0
 11
305.99999874830252
 21
482.99999944865698
 31
0.0
  0
LINE
  5
D0FB
  8
0
 10
305.00000044703489
 20
481.99999928474421
 30
0.0
 11
300.9999997913838
 21
481.99999928474421
 31
0.0
  0
LINE
  5
D0FC
  8
0
 10
300.9999997913838
 20
481.99999928474421
 30
0.0
 11
300.9999997913838
 21
471.99999950826162
 31
0.0
  0
LINE
  5
D0FD
  8
0
 10
300.9999997913838
 20
471.99999950826162
 30
0.0
 11
305.00000044703489
 21
471.99999950826162
 31
0.0
  0
LINE
  5
D0FE
  8
0
 10
305.99999874830252
 20
470.99999841302628
 30
0.0
 11
305.00000044703489
 21
471.99999950826162
 31
0.0
  0
LINE
  5
D0FF
  8
0
 10
305.99999874830252
 20
470.99999841302628
 30
0.0
 11
305.99999874830252
 21
456.99999879579991
 31
0.0
  0
LINE
  5
D100
  8
0
 10
305.00000044703489
 20
455.9999987483593
 30
0.0
 11
305.99999874830252
 21
456.99999879579991
 31
0.0
  0
LINE
  5
D101
  8
0
 10
305.00000044703489
 20
455.9999987483024
 30
0.0
 11
288.5000005364418
 21
455.9999987483024
 31
0.0
  0
LINE
  5
D102
  8
0
 10
288.5000005364418
 20
455.9999987483024
 30
0.0
 11
287.79999986290937
 21
456.69999872334301
 31
0.0
  0
LINE
  5
D103
  8
0
 10
287.79999986290937
 20
456.69999872334301
 30
0.0
 11
277.19999924302113
 21
456.69999872334301
 31
0.0
  0
LINE
  5
D104
  8
0
 10
277.19999924302113
 20
456.69999872334301
 30
0.0
 11
276.49999856948858
 21
455.99999874833082
 31
0.0
  0
LINE
  5
D105
  8
0
 10
276.49999856948858
 20
455.9999987483024
 30
0.0
 11
258.99999937415151
 21
455.99999874830229
 31
0.0
  0
LINE
  5
D10A
  8
0
 10
229.50000017881391
 20
455.9999987483024
 30
0.0
 11
228.79999950528139
 21
456.69999872334301
 31
0.0
  0
LINE
  5
D10B
  8
0
 10
228.79999950528139
 20
456.69999872334301
 30
0.0
 11
218.19999888539309
 21
456.69999872334301
 31
0.0
  0
LINE
  5
D10C
  8
0
 10
218.19999888539309
 20
456.69999872334301
 30
0.0
 11
217.49999821186071
 21
455.9999987483024
 31
0.0
  0
LINE
  5
D10D
  8
0
 10
217.49999821186071
 20
455.9999987483024
 30
0.0
 11
200.9999983012676
 21
455.9999987483024
 31
0.0
  0
LINE
  5
D10E
  8
0
 10
200.0
 20
456.99999879579991
 30
0.0
 11
200.9999983012676
 21
455.9999987483024
 31
0.0
  0
LINE
  5
D10F
  8
0
 10
200.0
 20
456.99999879579991
 30
0.0
 11
200.0
 21
470.99999841302628
 31
0.0
  0
LINE
  5
D110
  8
0
 10
200.9999983012676
 20
471.99999950826162
 30
0.0
 11
200.0
 21
470.99999841302628
 31
0.0
  0
LINE
  5
D111
  8
0
 10
200.9999983012676
 20
471.99999950826162
 30
0.0
 11
204.99999895691869
 21
471.99999950826162
 31
0.0
  0
LINE
  5
D112
  8
0
 10
204.99999895691869
 20
471.99999950826162
 30
0.0
 11
204.99999895691869
 21
481.99999928474421
 31
0.0
  0
LINE
  5
D113
  8
0
 10
204.99999895691869
 20
481.99999928474421
 30
0.0
 11
200.9999983012676
 21
481.99999928474421
 31
0.0
  0
LINE
  5
D114
  8
0
 10
200.0
 20
482.99999944865698
 30
0.0
 11
200.9999983012676
 21
481.99999928474421
 31
0.0
  0
LINE
  5
D115
  8
0
 10
200.0
 20
482.99999944865698
 30
0.0
 11
200.0
 21
492.99999922513962
 31
0.0
  0
LINE
  5
D116
  8
0
 10
200.9999983012676
 20
493.99999752640718
 30
0.0
 11
200.0
 21
492.99999922513962
 31
0.0
  0
LINE
  5
D117
  8
0
 10
231.99999965727329
 20
492.99999922513962
 30
0.0
 11
230.99999949336049
 21
493.99999752640718
 31
0.0
  0
LINE
  5
D118
  8
0
 10
231.99999965727329
 20
492.99999922513962
 30
0.0
 11
231.99999965727329
 21
486.99999824166292
 31
0.0
  0
LINE
  5
D119
  8
0
 10
230.99999949336049
 20
485.99999807775021
 30
0.0
 11
231.99999965727329
 21
486.99999824166292
 31
0.0
  0
LINE
  5
D11A
  8
0
 10
232.4999988079071
 20
485.99999807775021
 30
0.0
 11
226.49999968707559
 21
485.99999807775021
 31
0.0
  0
LINE
  5
D11B
  8
0
 10
226.49999968707559
 20
485.99999807775021
 30
0.0
 11
226.49999968707559
 21
475.49999915063381
 31
0.0
  0
LINE
  5
D11C
  8
0
 10
226.49999968707559
 20
475.49999915063381
 30
0.0
 11
231.29999898374081
 21
475.49999915063381
 31
0.0
  0
LINE
  5
D11D
  8
0
 10
231.7999999970198
 20
474.99999813735479
 30
0.0
 11
231.29999898374081
 21
475.49999915063381
 31
0.0
  0
LINE
  5
D11E
  8
0
 10
231.7999999970198
 20
474.99999813735479
 30
0.0
 11
231.7999999970198
 21
471.99999950826162
 31
0.0
  0
LINE
  5
D11F
  8
0
 10
231.7999999970198
 20
471.99999950826162
 30
0.0
 11
274.19999875128269
 21
471.99999950826162
 31
0.0
  0
LINE
  5
D120
  8
0
 10
274.19999875128269
 20
471.99999950826162
 30
0.0
 11
274.19999875128269
 21
474.99999813735479
 31
0.0
  0
LINE
  5
D121
  8
0
 10
274.69999976456171
 20
475.49999915063381
 30
0.0
 11
274.19999875128269
 21
474.99999813735479
 31
0.0
  0
LINE
  5
D126
  8
0
 10
255.69999944418669
 20
460.49999855458731
 30
0.0
 11
255.69999944418669
 21
459.99999893829221
 31
0.0
  0
LINE
  5
D127
  8
0
 10
255.69999944418669
 20
460.49999855458731
 30
0.0
 11
250.2999993041158
 21
460.49999855458731
 31
0.0
  0
LINE
  5
D128
  8
0
 10
250.2999993041158
 20
459.99999893829221
 30
0.0
 11
250.2999993041158
 21
460.49999855458731
 31
0.0
  0
LINE
  5
D931
  8
0
 10
1026.255132839085
 20
531.00000172853458
 30
0.0
 11
1026.7551328046261
 21
530.50000071525574
 31
0.0
  0
LINE
  5
D932
  8
0
 10
1030.1551328497021
 20
530.50000071525574
 30
0.0
 11
1030.655132815243
 21
531.00000172853458
 31
0.0
  0
LINE
  5
D937
  8
0
 10
1053.95513328165
 20
476.29999965429312
 30
0.0
 11
1054.455132432284
 21
476.79999880492687
 31
0.0
  0
LINE
  5
D938
  8
0
 10
1002.955132372679
 20
476.29999965429312
 30
0.0
 11
1007.555132009091
 21
476.29999965429312
 31
0.0
  0
LINE
  5
D939
  8
0
 10
1049.3551317825929
 20
476.29999965429312
 30
0.0
 11
1053.95513328165
 21
476.29999965429312
 31
0.0
  0
LINE
  5
D93A
  8
0
 10
1002.455133222045
 20
476.79999880492687
 30
0.0
 11
1002.955132372679
 21
476.29999965429312
 31
0.0
  0
LINE
  5
D942
  8
0
 10
1006.455132946374
 20
531.00000172853458
 30
0.0
 11
1050.455132707955
 21
531.00000172853458
 31
0.0
  0
LINE
  5
D947
  8
0
 10
1049.955133557321
 20
499.99999850988388
 30
0.0
 11
1050.455132707955
 21
499.99999850988388
 31
0.0
  0
LINE
  5
D94D
  8
0
 10
1050.455132707955
 20
530.50000071525574
 30
0.0
 11
1006.455132946374
 21
530.50000071525574
 31
0.0
  0
LINE
  5
D94E
  8
0
 10
1006.455132946374
 20
499.99999850988388
 30
0.0
 11
1006.955132097007
 21
499.99999850988388
 31
0.0
  0
LINE
  5
D94F
  8
0
 10
1006.955132097007
 20
530.50000071525574
 30
0.0
 11
1006.955132097007
 21
499.99999850988388
 31
0.0
  0
LINE
  5
D953
  8
0
 10
1049.955133557321
 20
530.50000071525574
 30
0.0
 11
1049.955133557321
 21
529.99999970197666
 31
0.0
  0
LINE
  5
D962
  8
0
 10
1054.455132432284
 20
485.49999892711639
 30
0.0
 11
1053.95513328165
 21
485.99999807775021
 31
0.0
  0
LINE
  5
D963
  8
0
 10
1054.455132432284
 20
476.79999880492687
 30
0.0
 11
1054.455132432284
 21
485.49999892711639
 31
0.0
  0
LINE
  5
D969
  8
0
 10
1002.455133222045
 20
485.49999892711639
 30
0.0
 11
1002.455133222045
 21
476.79999880492687
 31
0.0
  0
LINE
  5
D96A
  8
0
 10
1002.8200924620051
 20
485.86495816707611
 30
0.0
 11
1002.455133222045
 21
485.49999892711639
 31
0.0
  0
LINE
  5
D96C
  8
0
 10
1050.455132707955
 20
485.99999807775021
 30
0.0
 11
1049.355132713916
 21
485.99999807775021
 31
0.0
  0
LINE
  5
D96E
  8
0
 10
1006.455132946374
 20
485.99999807775021
 30
0.0
 11
1007.555132940413
 21
485.99999807775032
 31
0.0
  0
LINE
  5
D96F
  8
0
 10
1002.955132372679
 20
485.99999807775021
 30
0.0
 11
1002.8200924620051
 21
485.86495816707611
 31
0.0
  0
LINE
  5
D992
  8
0
 10
1049.355132713916
 20
529.49999868869759
 30
0.0
 11
1048.8551335632819
 21
529.99999970197655
 31
0.0
  0
LINE
  5
D997
  8
0
 10
1008.055133953692
 20
529.99999970197655
 30
0.0
 11
1048.8551335632819
 21
529.99999970197655
 31
0.0
  0
LINE
  5
D999
  8
0
 10
1007.555132940413
 20
529.49999868869759
 30
0.0
 11
1007.555132940413
 21
472.49999865889561
 31
0.0
  0
LINE
  5
D99C
  8
0
 10
1007.555132940413
 20
529.49999868869759
 30
0.0
 11
1008.055133953692
 21
529.99999970197655
 31
0.0
  0
LINE
  5
D99F
  8
0
 10
1008.055133953692
 20
471.99999950826151
 30
0.0
 11
1007.555132940413
 21
472.49999865889538
 31
0.0
  0
LINE
  5
D9A0
  8
0
 10
1048.8551335632819
 20
471.99999950826151
 30
0.0
 11
1049.355132713916
 21
472.49999865889538
 31
0.0
  0
LINE
  5
D9A4
  8
0
 10
1050.455132707955
 20
510.8891524374485
 30
0.0
 11
1050.955133721234
 21
510.99999845027929
 31
0.0
  0
LINE
  5
D9A7
  8
0
 10
1080.855133220555
 20
510.99999845027929
 30
0.0
 11
1081.355134233834
 21
510.8891524374485
 31
0.0
  0
LINE
  5
D9A8
  8
0
 10
1081.355134233834
 20
534.00000035762775
 30
0.0
 11
1081.355134233834
 21
494.4999985396862
 31
0.0
  0
LINE
  5
D9A9
  8
0
 10
1081.355134233834
 20
494.4999985396862
 30
0.0
 11
1080.855133220555
 21
493.9999975264073
 31
0.0
  0
LINE
  5
D9AA
  8
0
 10
1006.455132946374
 20
510.8891524374485
 30
0.0
 11
1005.955131933095
 21
510.99999845027929
 31
0.0
  0
LINE
  5
D9AB
  8
0
 10
1006.455132946374
 20
493.9999975264073
 30
0.0
 11
1006.455132946374
 21
531.99999630451202
 31
0.0
  0
LINE
  5
D9AE
  8
0
 10
1005.955131933095
 20
510.99999845027929
 30
0.0
 11
976.05513243377379
 21
510.99999845027929
 31
0.0
  0
LINE
  5
D9AF
  8
0
 10
1007.555132940413
 20
493.99999752640741
 30
0.0
 11
976.05513243377379
 21
493.9999975264073
 31
0.0
  0
LINE
  5
D9B1
  8
0
 10
1080.855133220555
 20
531.99999630451202
 30
0.0
 11
976.05513243377379
 21
531.99999630451202
 31
0.0
  0
LINE
  5
D9B3
  8
0
 10
1080.855133220555
 20
510.99999845027929
 30
0.0
 11
1050.955133721234
 21
510.99999845027929
 31
0.0
  0
LINE
  5
D9B9
  8
0
 10
975.55513142049483
 20
531.49999529123295
 30
0.0
 11
976.05513243377379
 21
531.99999630451202
 31
0.0
  0
LINE
  5
D9BA
  8
0
 10
976.05513243377379
 20
510.99999845027929
 30
0.0
 11
975.55513142049483
 21
510.8891524374485
 31
0.0
  0
LINE
  5
D9BC
  8
0
 10
1049.355132713916
 20
493.99999752640713
 30
0.0
 11
1080.855133220555
 21
493.9999975264073
 31
0.0
  0
LINE
  5
D9BD
  8
0
 10
975.55513142049483
 20
534.00000035762775
 30
0.0
 11
975.55513142049483
 21
494.4999985396862
 31
0.0
  0
LINE
  5
D9BE
  8
0
 10
975.55513142049483
 20
494.4999985396862
 30
0.0
 11
976.05513243377379
 21
493.9999975264073
 31
0.0
  0
LINE
  5
D9C3
  8
0
 10
1080.855133220555
 20
531.99999630451202
 30
0.0
 11
1081.355134233834
 21
531.49999529123295
 31
0.0
  0
ARC
  5
D9CC
  8
0
 10
1049.4551328271641
 20
496.99999874830252
 30
0.0
 40
0.75
 50
262.33773560973498
 51
97.66226439026498
  0
ARC
  5
D9CE
  8
0
 10
1007.455132827164
 20
496.99999874830252
 30
0.0
 40
0.750000000000062
 50
82.337735609700118
 51
277.66226439029992
  0
LINE
  5
D9D7
  8
0
 10
1081.355134233834
 20
534.00000035762775
 30
0.0
 11
975.55513142049483
 21
534.00000035762775
 31
0.0
  0
LINE
  5
D9DD
  8
0
 10
1050.155133217575
 20
475.49999915063393
 30
0.0
 11
1049.655132204296
 21
474.99999813735491
 31
0.0
  0
LINE
  5
D9DE
  8
0
 10
1054.9551325142399
 20
475.49999915063393
 30
0.0
 11
1050.155133217575
 21
475.49999915063393
 31
0.0
  0
LINE
  5
D9DF
  8
0
 10
1054.9551325142399
 20
485.99999807775021
 30
0.0
 11
1054.9551325142399
 21
475.49999915063393
 31
0.0
  0
LINE
  5
D9E0
  8
0
 10
1050.455132707955
 20
485.99999807775021
 30
0.0
 11
1054.9551325142399
 21
485.99999807775021
 31
0.0
  0
LINE
  5
D9E1
  8
0
 10
1049.455132544042
 20
486.99999824166298
 30
0.0
 11
1050.455132707955
 21
485.99999807775021
 31
0.0
  0
LINE
  5
D9E2
  8
0
 10
1049.455132544042
 20
492.99999922513967
 30
0.0
 11
1049.455132544042
 21
486.99999824166298
 31
0.0
  0
LINE
  5
D9E3
  8
0
 10
1050.455132707955
 20
493.9999975264073
 30
0.0
 11
1049.455132544042
 21
492.99999922513967
 31
0.0
  0
LINE
  5
D9E5
  8
0
 10
1081.4551322013151
 20
492.99999922513967
 30
0.0
 11
1080.4551339000479
 21
493.9999975264073
 31
0.0
  0
LINE
  5
D9E6
  8
0
 10
1081.4551322013151
 20
482.99999944865709
 30
0.0
 11
1081.4551322013151
 21
492.99999922513967
 31
0.0
  0
LINE
  5
D9E7
  8
0
 10
1080.4551339000479
 20
481.99999928474432
 30
0.0
 11
1081.4551322013151
 21
482.99999944865709
 31
0.0
  0
LINE
  5
D9E8
  8
0
 10
1076.4551332443971
 20
481.99999928474432
 30
0.0
 11
1080.4551339000479
 21
481.99999928474432
 31
0.0
  0
LINE
  5
D9E9
  8
0
 10
1076.4551332443971
 20
471.99999950826168
 30
0.0
 11
1076.4551332443971
 21
481.99999928474432
 31
0.0
  0
LINE
  5
D9EA
  8
0
 10
1080.4551339000479
 20
471.99999950826168
 30
0.0
 11
1076.4551332443971
 21
471.99999950826168
 31
0.0
  0
LINE
  5
D9EB
  8
0
 10
1081.4551322013151
 20
470.99999841302639
 30
0.0
 11
1080.4551339000479
 21
471.99999950826168
 31
0.0
  0
LINE
  5
D9EC
  8
0
 10
1081.4551322013151
 20
456.99999879579991
 30
0.0
 11
1081.4551322013151
 21
470.99999841302639
 31
0.0
  0
LINE
  5
D9ED
  8
0
 10
1080.4551339000479
 20
455.9999987483593
 30
0.0
 11
1081.4551322013151
 21
456.99999879579991
 31
0.0
  0
LINE
  5
D9EE
  8
0
 10
1063.9551339894549
 20
455.99999874830252
 30
0.0
 11
1080.4551339000479
 21
455.99999874830252
 31
0.0
  0
LINE
  5
D9EF
  8
0
 10
1063.9551339894549
 20
455.99999874830252
 30
0.0
 11
1063.255133315922
 21
456.69999872334313
 31
0.0
  0
LINE
  5
D9F0
  8
0
 10
1052.6551326960339
 20
456.69999872334313
 30
0.0
 11
1063.255133315922
 21
456.69999872334313
 31
0.0
  0
LINE
  5
D9F1
  8
0
 10
1051.9551320225021
 20
455.99999874833088
 30
0.0
 11
1052.6551326960339
 21
456.69999872334313
 31
0.0
  0
LINE
  5
D9F2
  8
0
 10
1051.9551320225021
 20
455.99999874830252
 30
0.0
 11
1034.4551328271641
 21
455.99999874830229
 31
0.0
  0
LINE
  5
D9F7
  8
0
 10
1004.255132958294
 20
456.69999872334313
 30
0.0
 11
1004.955133631827
 21
455.99999874830252
 31
0.0
  0
LINE
  5
D9F8
  8
0
 10
993.65513233840636
 20
456.69999872334313
 30
0.0
 11
1004.255132958294
 21
456.69999872334313
 31
0.0
  0
LINE
  5
D9F9
  8
0
 10
993.65513233840636
 20
456.69999872334313
 30
0.0
 11
992.95513166487387
 21
455.99999874830252
 31
0.0
  0
LINE
  5
D9FA
  8
0
 10
976.45513175428084
 20
455.99999874830252
 30
0.0
 11
992.95513166487387
 21
455.99999874830252
 31
0.0
  0
LINE
  5
D9FB
  8
0
 10
975.45513345301322
 20
456.99999879579991
 30
0.0
 11
976.45513175428084
 21
455.99999874830252
 31
0.0
  0
LINE
  5
D9FC
  8
0
 10
975.45513345301322
 20
470.99999841302639
 30
0.0
 11
975.45513345301322
 21
456.99999879579991
 31
0.0
  0
LINE
  5
D9FD
  8
0
 10
976.45513175428084
 20
471.99999950826168
 30
0.0
 11
975.45513345301322
 21
470.99999841302639
 31
0.0
  0
LINE
  5
D9FE
  8
0
 10
980.45513240993193
 20
471.99999950826168
 30
0.0
 11
976.45513175428084
 21
471.99999950826168
 31
0.0
  0
LINE
  5
D9FF
  8
0
 10
980.45513240993193
 20
481.99999928474432
 30
0.0
 11
980.45513240993193
 21
471.99999950826168
 31
0.0
  0
LINE
  5
DA00
  8
0
 10
976.45513175428084
 20
481.99999928474432
 30
0.0
 11
980.45513240993193
 21
481.99999928474432
 31
0.0
  0
LINE
  5
DA01
  8
0
 10
975.45513345301322
 20
482.99999944865709
 30
0.0
 11
976.45513175428084
 21
481.99999928474432
 31
0.0
  0
LINE
  5
DA02
  8
0
 10
975.45513345301322
 20
492.99999922513967
 30
0.0
 11
975.45513345301322
 21
482.99999944865709
 31
0.0
  0
LINE
  5
DA03
  8
0
 10
976.45513175428084
 20
493.9999975264073
 30
0.0
 11
975.45513345301322
 21
492.99999922513967
 31
0.0
  0
LINE
  5
DA05
  8
0
 10
1007.4551331102861
 20
492.99999922513967
 30
0.0
 11
1006.455132946374
 21
493.9999975264073
 31
0.0
  0
LINE
  5
DA06
  8
0
 10
1007.4551331102861
 20
486.99999824166298
 30
0.0
 11
1007.4551331102861
 21
492.99999922513967
 31
0.0
  0
LINE
  5
DA07
  8
0
 10
1006.455132946374
 20
485.99999807775021
 30
0.0
 11
1007.4551331102861
 21
486.99999824166298
 31
0.0
  0
LINE
  5
DA08
  8
0
 10
1001.9551331400889
 20
485.99999807775021
 30
0.0
 11
1006.455132946374
 21
485.99999807775021
 31
0.0
  0
LINE
  5
DA09
  8
0
 10
1001.9551331400889
 20
475.49999915063393
 30
0.0
 11
1001.9551331400889
 21
485.99999807775021
 31
0.0
  0
LINE
  5
DA0A
  8
0
 10
1006.755132436754
 20
475.49999915063393
 30
0.0
 11
1001.9551331400889
 21
475.49999915063393
 31
0.0
  0
LINE
  5
DA0B
  8
0
 10
1007.255133450033
 20
474.99999813735491
 30
0.0
 11
1006.755132436754
 21
475.49999915063393
 31
0.0
  0
LINE
  5
DA0C
  8
0
 10
1007.255133450033
 20
471.99999950826168
 30
0.0
 11
1007.255133450033
 21
474.99999813735491
 31
0.0
  0
LINE
  5
DA0D
  8
0
 10
1049.655132204296
 20
471.99999950826168
 30
0.0
 11
1007.255133450033
 21
471.99999950826168
 31
0.0
  0
LINE
  5
DA0E
  8
0
 10
1049.655132204296
 20
474.99999813735491
 30
0.0
 11
1049.655132204296
 21
471.99999950826168
 31
0.0
  0
LINE
  5
DA11
  8
0
 10
1031.1551328972
 20
460.49999855458742
 30
0.0
 11
1031.1551328972
 21
459.99999893829232
 31
0.0
  0
LINE
  5
DA12
  8
0
 10
1031.1551328972
 20
460.49999855458742
 30
0.0
 11
1025.7551327571291
 21
460.49999855458742
 31
0.0
  0
LINE
  5
DA13
  8
0
 10
1025.7551327571291
 20
459.99999893829232
 30
0.0
 11
1025.7551327571291
 21
460.49999855458742
 31
0.0
  0
LINE
  5
F37F
  8
0
 10
809.95513349771511
 20
503.00000009248419
 30
0.0
 11
806.45513385534298
 21
503.00000009248419
 31
0.0
  0
LINE
  5
F380
  8
0
 10
806.45513385534298
 20
524.99999776166658
 30
0.0
 11
809.95513349771511
 21
524.99999776166658
 31
0.0
  0
LINE
  5
F381
  8
0
 10
809.95513349771511
 20
524.99999776166658
 30
0.0
 11
810.45513264834892
 21
524.49999606200288
 31
0.0
  0
LINE
  5
F382
  8
0
 10
810.45513264834892
 20
503.49999809674182
 30
0.0
 11
809.95513349771511
 21
503.00000009248419
 31
0.0
  0
ARC
  5
F383
  8
0
 10
806.05513345301301
 20
524.39999873311478
 30
0.0
 40
0.4000000000000626
 50
270.0
 51
0.0
  0
ARC
  5
F384
  8
0
 10
806.05513345301301
 20
503.5999987331146
 30
0.0
 40
0.4000000000000626
 50
0.0
 51
90.0
  0
LINE
  5
F39A
  8
0
 10
806.05513267219078
 20
503.9999998151556
 30
0.0
 11
786.50006601819757
 21
503.9999998151556
 31
0.0
  0
LINE
  5
F39B
  8
0
 10
786.50006601819757
 20
524.00000171565296
 30
0.0
 11
806.05513267219078
 21
524.00000171565296
 31
0.0
  0
ARC
  5
F3A8
  8
0
 10
824.06282860760007
 20
504.9999987331143
 30
0.0
 40
1.392304845413292
 50
296.13067780444152
 51
0.0
  0
LINE
  5
F3A9
  8
0
 10
825.45513345301322
 20
522.99999873311435
 30
0.0
 11
825.45513345301322
 21
504.9999987331143
 31
0.0
  0
ARC
  5
F3AA
  8
0
 10
824.06282860760007
 20
522.99999873311435
 30
0.0
 40
1.392304845413292
 50
0.0
 51
63.869322195558112
  0
LINE
  5
F3AB
  8
0
 10
824.67602603137505
 20
503.74999895594777
 30
0.0
 11
810.45513264834892
 21
503.74999895594777
 31
0.0
  0
LINE
  5
F3AC
  8
0
 10
810.45513264834892
 20
524.24999889820299
 30
0.0
 11
824.67602603137505
 21
524.24999889820299
 31
0.0
  0
LINE
  5
F3C5
  8
0
 10
806.45513385534298
 20
524.99999776166658
 30
0.0
 11
806.45513385534298
 21
503.00000009248419
 31
0.0
  0
LINE
  5
F3C6
  8
0
 10
809.95513349771511
 20
524.99999776166658
 30
0.0
 11
809.95513349771511
 21
503.00000009248419
 31
0.0
  0
LINE
  5
F3C7
  8
0
 10
810.45513264834892
 20
524.49999606200288
 30
0.0
 11
810.45513264834892
 21
503.49999809674182
 31
0.0
  0
LINE
  5
F3C9
  8
0
 10
824.67602603137505
 20
509.09464524162507
 30
0.0
 11
824.67602603137505
 21
508.65844573807078
 31
0.0
  0
LINE
  5
F3CD
  8
0
 10
824.67602603137505
 20
519.34154897716905
 30
0.0
 11
824.67602603137505
 21
518.90535175026025
 31
0.0
  0
LINE
  5
F3E3
  8
0
 10
810.45513264834892
 20
518.90535175026025
 30
0.0
 11
824.67602603137505
 21
518.90535175026025
 31
0.0
  0
LINE
  5
F3E4
  8
0
 10
824.67602603137505
 20
509.09464524162507
 30
0.0
 11
810.45513264834892
 21
509.09464524162507
 31
0.0
  0
LINE
  5
F3E5
  8
0
 10
810.45513264834892
 20
508.65844573807078
 30
0.0
 11
824.67602603137505
 21
508.65844573807078
 31
0.0
  0
LINE
  5
F3E6
  8
0
 10
824.67602603137505
 20
519.34154897716905
 30
0.0
 11
810.45513264834892
 21
519.34154897716905
 31
0.0
  0
LINE
  5
F3E7
  8
0
 10
824.67602603137505
 20
503.7530934188257
 30
0.0
 11
810.45513264834892
 21
503.7530934188257
 31
0.0
  0
LINE
  5
F3EA
  8
0
 10
810.45513264834892
 20
524.24690311031145
 30
0.0
 11
824.67602603137505
 21
524.24690311031145
 31
0.0
  0
LINE
  5
F3EB
  8
0
 10
824.67602603137505
 20
503.74999895594777
 30
0.0
 11
824.67602603137505
 21
503.7530934188257
 31
0.0
  0
LINE
  5
F3EC
  8
0
 10
824.67602603137505
 20
524.24999889820299
 30
0.0
 11
824.67602603137505
 21
524.24690311031145
 31
0.0
  0
LINE
  5
F570
  8
0
 10
809.95513349771511
 20
748.00000008781228
 30
0.0
 11
810.45513264834892
 21
747.50000002023148
 31
0.0
  0
LINE
  5
F571
  8
0
 10
810.45513264834892
 20
726.49999974746493
 30
0.0
 11
809.95513349771511
 21
725.99999967988492
 31
0.0
  0
LINE
  5
F572
  8
0
 10
809.95513349771511
 20
725.99999967988492
 30
0.0
 11
806.45513385534298
 21
725.99999967988492
 31
0.0
  0
LINE
  5
F573
  8
0
 10
806.45513385534298
 20
748.00000008781228
 30
0.0
 11
809.95513349771511
 21
748.00000008781228
 31
0.0
  0
ARC
  5
F574
  8
0
 10
806.05513345301301
 20
747.39999981220603
 30
0.0
 40
0.4000000000000626
 50
270.0
 51
0.0
  0
ARC
  5
F575
  8
0
 10
806.05513345301301
 20
726.59999981220585
 30
0.0
 40
0.4000000000000626
 50
0.0
 51
90.0
  0
LINE
  5
F582
  8
0
 10
806.05513267219078
 20
726.99999921506219
 30
0.0
 11
786.50006601819757
 21
726.99999921506219
 31
0.0
  0
LINE
  5
F583
  8
0
 10
786.50006601819791
 20
746.99999963347057
 30
0.0
 11
806.05513267219078
 21
746.99999963347057
 31
0.0
  0
LINE
  5
10015
  8
0
 10
810.45513264834892
 20
747.50000002023148
 30
0.0
 11
810.45513264834892
 21
726.49999974746493
 31
0.0
  0
LINE
  5
10016
  8
0
 10
809.95513349771511
 20
748.00000008781228
 30
0.0
 11
809.95513349771511
 21
725.99999967988492
 31
0.0
  0
LINE
  5
10018
  8
0
 10
806.45513385534298
 20
748.00000008781228
 30
0.0
 11
806.45513385534298
 21
725.99999967988492
 31
0.0
  0
LINE
  5
1001B
  8
0
 10
810.45513264834892
 20
736.74816096718735
 30
0.0
 11
824.67602603137505
 21
736.74816096718735
 31
0.0
  0
LINE
  5
1001C
  8
0
 10
824.67602603137505
 20
728.25183799407819
 30
0.0
 11
810.45513264834892
 21
728.25183799407819
 31
0.0
  0
LINE
  5
1001F
  8
0
 10
810.45513264834892
 20
745.74816189397166
 30
0.0
 11
824.67602603137505
 21
745.74816189397166
 31
0.0
  0
LINE
  5
10020
  8
0
 10
824.67602603137505
 20
737.25183841534704
 30
0.0
 11
810.45513264834892
 21
737.25183841534704
 31
0.0
  0
LINE
  5
10022
  8
0
 10
824.67602603137505
 20
737.25183841534704
 30
0.0
 11
824.67602603137505
 21
736.74816096718735
 31
0.0
  0
LINE
  5
10041
  8
0
 10
824.67602603137505
 20
728.25183799407819
 30
0.0
 11
824.67602603137505
 21
727.99999983153486
 31
0.0
  0
LINE
  5
10045
  8
0
 10
824.67602603137505
 20
746.00000026042346
 30
0.0
 11
824.67602603137505
 21
745.74816189397166
 31
0.0
  0
LINE
  5
10046
  8
0
 10
825.45513324439537
 20
745.99999949831067
 30
0.0
 11
825.45513324439537
 21
728.00000027209978
 31
0.0
  0
LINE
  5
10048
  8
0
 10
825.45513324439537
 20
746.00000026042346
 30
0.0
 11
810.45513264834892
 21
746.00000026042346
 31
0.0
  0
LINE
  5
10049
  8
0
 10
810.45513264834892
 20
727.99999983153486
 30
0.0
 11
825.45513324439537
 21
728.00000027209967
 31
0.0
  0
ARC
  5
10235
  8
0
 10
1028.4551331831981
 20
513.999998437258
 30
0.0
 40
10.249999999999989
 50
208.59212264091431
 51
211.4078773590692
  0
ARC
  5
10238
  8
0
 10
1028.4551331831981
 20
513.999998437258
 30
0.0
 40
10.25000000000002
 50
148.5921226409308
 51
151.40787735907429
  0
ARC
  5
1023B
  8
0
 10
1028.4551331831981
 20
513.999998437258
 30
0.0
 40
10.25000000000008
 50
28.59212264092568
 51
31.407877359069129
  0
ARC
  5
1023E
  8
0
 10
1028.4551331831981
 20
513.999998437258
 30
0.0
 40
10.25000000000005
 50
328.59212264093082
 51
331.40787735907429
  0
ARC
  5
10241
  8
0
 10
1028.4551331831981
 20
513.999998437258
 30
0.0
 40
10.24999999999992
 50
268.5921226409281
 51
271.40787735907202
  0
ARC
  5
10244
  8
0
 10
1028.4551331831981
 20
513.999998437258
 30
0.0
 40
10.25000000000006
 50
88.592122640928068
 51
91.407877359071946
  0
CIRCLE
  5
10248
  8
0
 10
1028.4551331831981
 20
513.999998437258
 30
0.0
 40
10.99999999999994
  0
LINE
  5
10328
  8
0
 10
676.00006461143494
 20
789.40000012516998
 30
0.0
 11
676.71414315700531
 21
789.90000113844894
 31
0.0
  0
LINE
  5
10329
  8
0
 10
721.88906967639923
 20
789.90000113844894
 30
0.0
 11
722.20760434865952
 21
789.40000012516998
 31
0.0
  0
LINE
  5
1032B
  8
0
 10
732.00006633996964
 20
789.40000012516975
 30
0.0
 11
731.50006532669056
 21
789.90000113844872
 31
0.0
  0
LINE
  5
1032C
  8
0
 10
669.00006532669056
 20
789.90000113845008
 30
0.0
 11
731.50006532669056
 21
789.90000113844872
 31
0.0
  0
LINE
  5
1032D
  8
0
 10
675.27006417512894
 20
789.40000012516998
 30
0.0
 11
676.00006461143494
 21
789.40000012516998
 31
0.0
  0
LINE
  5
1032E
  8
0
 10
675.27006417512894
 20
789.40000012516998
 30
0.0
 11
674.73811507225025
 21
789.90000113844894
 31
0.0
  0
LINE
  5
10331
  8
0
 10
512.72998601198185
 20
789.40000012516998
 30
0.0
 11
511.82897239923477
 21
789.40000012516998
 31
0.0
  0
LINE
  5
10332
  8
0
 10
518.99997740983963
 20
789.90000113844894
 30
0.0
 11
456.49999231100088
 21
789.90000113844894
 31
0.0
  0
LINE
  5
10333
  8
0
 10
513.26194256544113
 20
789.90000113844894
 30
0.0
 11
512.72998601198185
 21
789.40000012516998
 31
0.0
  0
LINE
  5
10334
  8
0
 10
455.99999874830252
 20
789.40000012516998
 30
0.0
 11
456.49999231100088
 21
789.90000113844894
 31
0.0
  0
LINE
  5
10335
  8
0
 10
511.82897239923477
 20
789.40000012516998
 30
0.0
 11
511.28591448068619
 21
789.90000113844894
 31
0.0
  0
LINE
  5
10338
  8
0
 10
787.00006604194664
 20
789.99999910593033
 30
0.0
 11
456.99998587369919
 21
789.99999910593033
 31
0.0
  0
LINE
  5
10339
  8
0
 10
456.99998587369919
 20
789.99999910593033
 30
0.0
 11
456.99998587369919
 21
789.90000113844872
 31
0.0
  0
LINE
  5
1033C
  8
0
 10
723.00006300210953
 20
758.7499991059301
 30
0.0
 11
722.0000684261322
 21
758.7499991059301
 31
0.0
  0
LINE
  5
1033D
  8
0
 10
772.00006637722254
 20
758.50000046193577
 30
0.0
 11
723.00006300210953
 21
758.50000046193577
 31
0.0
  0
LINE
  5
1033E
  8
0
 10
772.00006637722254
 20
758.15000012516953
 30
0.0
 11
786.00006599444885
 21
758.15000012516953
 31
0.0
  0
LINE
  5
1033F
  8
0
 10
786.50006601819757
 20
757.64999911189057
 30
0.0
 11
786.00006599444885
 21
758.15000012516953
 31
0.0
  0
LINE
  5
10340
  8
0
 10
731.50006532669056
 20
758.99999961256935
 30
0.0
 11
732.00006633996964
 21
759.50000062584832
 31
0.0
  0
LINE
  5
10341
  8
0
 10
787.00006604194664
 20
758.99999961256935
 30
0.0
 11
722.0000684261322
 21
758.99999961256958
 31
0.0
  0
LINE
  5
10387
  8
1
 10
467.99998706579453
 20
784.9999997317791
 30
0.0
 11
467.99998706579453
 21
762.99999973177898
 31
0.0
  0
LINE
  5
10388
  8
1
 10
456.99998706579441
 20
773.9999997317791
 30
0.0
 11
478.99998706579453
 21
773.9999997317791
 31
0.0
  0
LINE
  5
1038A
  8
0
 10
485.9999841274086
 20
776.30940079689003
 30
0.0
 11
485.9999841274086
 21
771.69059962034203
 31
0.0
  0
LINE
  5
1038B
  8
0
 10
485.9999841274086
 20
771.69059962034203
 30
0.0
 11
489.99999223364023
 21
769.38119903206803
 31
0.0
  0
LINE
  5
1038C
  8
0
 10
489.99999223364023
 20
769.38119903206803
 30
0.0
 11
494.00000033987192
 21
771.69059962034203
 31
0.0
  0
LINE
  5
1038D
  8
0
 10
494.00000033987192
 20
771.69059962034203
 30
0.0
 11
494.00000033987192
 21
776.30940079689003
 31
0.0
  0
LINE
  5
1038E
  8
0
 10
494.00000033987192
 20
776.30940079689003
 30
0.0
 11
489.99999223364023
 21
778.61880138516403
 31
0.0
  0
LINE
  5
1038F
  8
0
 10
489.99999223364023
 20
778.61880138516403
 30
0.0
 11
485.9999841274086
 21
776.30940079689003
 31
0.0
  0
CIRCLE
  5
10390
  8
0
 10
489.99998603475962
 20
773.9999997317791
 30
0.0
 40
8.0000000000000142
  0
LINE
  5
10391
  8
1
 10
489.99998603475962
 20
784.9999997317791
 30
0.0
 11
489.99998603475962
 21
762.99999973177898
 31
0.0
  0
LINE
  5
10392
  8
1
 10
478.99998603475962
 20
773.9999997317791
 30
0.0
 11
500.99998603475962
 21
773.9999997317791
 31
0.0
  0
LINE
  5
10393
  8
0
 10
485.9999841274086
 20
739.309400852811
 30
0.0
 11
485.9999841274086
 21
734.69059967626299
 31
0.0
  0
LINE
  5
10394
  8
0
 10
485.9999841274086
 20
734.69059967626299
 30
0.0
 11
489.99999223364023
 21
732.38119908798899
 31
0.0
  0
LINE
  5
10395
  8
0
 10
489.99999223364023
 20
732.38119908798899
 30
0.0
 11
494.00000033987192
 21
734.69059967626299
 31
0.0
  0
LINE
  5
10396
  8
0
 10
494.00000033987192
 20
734.69059967626299
 30
0.0
 11
494.00000033987192
 21
739.309400852811
 31
0.0
  0
LINE
  5
10397
  8
0
 10
494.00000033987192
 20
739.309400852811
 30
0.0
 11
489.99999223364023
 21
741.618801441085
 31
0.0
  0
LINE
  5
10398
  8
0
 10
489.99999223364023
 20
741.618801441085
 30
0.0
 11
485.9999841274086
 21
739.309400852811
 31
0.0
  0
CIRCLE
  5
10399
  8
0
 10
489.99998603475962
 20
736.99999978769995
 30
0.0
 40
8.0000000000000142
  0
LINE
  5
1039A
  8
1
 10
489.99998603475962
 20
747.99999978769995
 30
0.0
 11
489.99998603475962
 21
725.99999978770006
 31
0.0
  0
LINE
  5
1039C
  8
0
 10
463.99998515844351
 20
739.3094007968898
 30
0.0
 11
463.99998515844351
 21
734.69059962034169
 31
0.0
  0
LINE
  5
1039D
  8
0
 10
463.99998515844351
 20
734.69059962034169
 30
0.0
 11
467.99999326467508
 21
732.38119903206768
 31
0.0
  0
LINE
  5
1039E
  8
0
 10
467.99999326467508
 20
732.38119903206768
 30
0.0
 11
472.00000137090677
 21
734.69059962034169
 31
0.0
  0
LINE
  5
1039F
  8
0
 10
472.00000137090677
 20
734.69059962034169
 30
0.0
 11
472.00000137090677
 21
739.3094007968898
 31
0.0
  0
LINE
  5
103A0
  8
0
 10
472.00000137090677
 20
739.3094007968898
 30
0.0
 11
467.99999326467508
 21
741.61880138516381
 31
0.0
  0
LINE
  5
103A1
  8
0
 10
467.99999326467508
 20
741.61880138516381
 30
0.0
 11
463.99998515844351
 21
739.3094007968898
 31
0.0
  0
CIRCLE
  5
103A2
  8
0
 10
467.99998706579453
 20
736.99999973177887
 30
0.0
 40
8.0000000000000142
  0
LINE
  5
103A3
  8
1
 10
467.99998706579453
 20
747.99999973177876
 30
0.0
 11
467.99998706579453
 21
725.99999973177876
 31
0.0
  0
LINE
  5
103A4
  8
1
 10
445.99999874830252
 20
736.99999973177887
 30
0.0
 11
835.45513324439548
 21
736.99999973177887
 31
0.0
  0
LINE
  5
103A5
  8
0
 10
463.99998515844351
 20
702.30940090873185
 30
0.0
 11
463.99998515844351
 21
697.69059973218395
 31
0.0
  0
LINE
  5
103A6
  8
0
 10
463.99998515844351
 20
697.69059973218395
 30
0.0
 11
467.99999326467508
 21
695.38119914390995
 31
0.0
  0
LINE
  5
103A7
  8
0
 10
467.99999326467508
 20
695.38119914390995
 30
0.0
 11
472.00000137090677
 21
697.69059973218395
 31
0.0
  0
LINE
  5
103A8
  8
0
 10
472.00000137090677
 20
697.69059973218395
 30
0.0
 11
472.00000137090677
 21
702.30940090873185
 31
0.0
  0
LINE
  5
103A9
  8
0
 10
472.00000137090677
 20
702.30940090873185
 30
0.0
 11
467.99999326467508
 21
704.61880149700585
 31
0.0
  0
LINE
  5
103AA
  8
0
 10
467.99999326467508
 20
704.61880149700585
 30
0.0
 11
463.99998515844351
 21
702.30940090873185
 31
0.0
  0
CIRCLE
  5
103AB
  8
0
 10
467.99998706579453
 20
699.99999984362103
 30
0.0
 40
8.0000000000000142
  0
LINE
  5
103AC
  8
1
 10
467.99998706579453
 20
710.99999984362103
 30
0.0
 11
467.99998706579453
 21
688.99999984362103
 31
0.0
  0
LINE
  5
103AD
  8
1
 10
456.99998706579441
 20
699.99999984362103
 30
0.0
 11
478.99998706579453
 21
699.99999984362103
 31
0.0
  0
LINE
  5
103AE
  8
0
 10
485.9999841274086
 20
702.30940090873185
 30
0.0
 11
485.9999841274086
 21
697.69059973218395
 31
0.0
  0
LINE
  5
103AF
  8
0
 10
485.9999841274086
 20
697.69059973218395
 30
0.0
 11
489.99999223364023
 21
695.38119914390995
 31
0.0
  0
LINE
  5
103B0
  8
0
 10
489.99999223364023
 20
695.38119914390995
 30
0.0
 11
494.00000033987192
 21
697.69059973218395
 31
0.0
  0
LINE
  5
103B1
  8
0
 10
494.00000033987192
 20
697.69059973218395
 30
0.0
 11
494.00000033987192
 21
702.30940090873185
 31
0.0
  0
LINE
  5
103B2
  8
0
 10
494.00000033987192
 20
702.30940090873185
 30
0.0
 11
489.99999223364023
 21
704.61880149700585
 31
0.0
  0
LINE
  5
103B3
  8
0
 10
489.99999223364023
 20
704.61880149700585
 30
0.0
 11
485.9999841274086
 21
702.30940090873185
 31
0.0
  0
CIRCLE
  5
103B4
  8
0
 10
489.99998603475962
 20
699.99999984362103
 30
0.0
 40
8.0000000000000142
  0
LINE
  5
103B5
  8
1
 10
489.99998603475962
 20
710.99999984362103
 30
0.0
 11
489.99998603475962
 21
688.99999984362103
 31
0.0
  0
LINE
  5
103B6
  8
1
 10
478.99998603475962
 20
699.99999984362103
 30
0.0
 11
500.99998603475962
 21
699.99999984362103
 31
0.0
  0
LINE
  5
103BA
  8
1
 10
536.99998706579197
 20
751.4999997317791
 30
0.0
 11
536.99998706579197
 21
722.4999997317791
 31
0.0
  0
LINE
  5
103BC
  8
1
 10
606.99999898672104
 20
744.9999997317791
 30
0.0
 11
606.99999898672104
 21
728.99999973177898
 31
0.0
  0
ARC
  5
10448
  8
0
 10
813.48381151806745
 20
741.50000015465935
 30
0.0
 40
11.9713217263281
 50
339.21504088459608
 51
20.784959115403879
  0
ARC
  5
10449
  8
0
 10
813.48381151806745
 20
732.49999973339072
 30
0.0
 40
11.9713217263281
 50
339.21504088459608
 51
20.784959115403879
  0
LINE
  5
1044B
  8
3
 10
786.50006601819757
 20
728.74999922474467
 30
0.0
 11
796.40609575435542
 21
728.74999922474512
 31
0.0
  0
LINE
  5
1044C
  8
3
 10
786.50006601819791
 20
745.25000023881285
 30
0.0
 11
796.40609575435565
 21
745.25000023881262
 31
0.0
  0
LINE
  5
1044E
  8
0
 10
796.40609575435542
 20
746.99999973177876
 30
0.0
 11
796.40609575435542
 21
726.99999973177876
 31
0.0
  0
LINE
  5
1044F
  8
3
 10
796.40609575435542
 20
728.74999922474512
 30
0.0
 11
799.40609578043245
 21
727.01794840212074
 31
0.0
  0
LINE
  5
10450
  8
3
 10
796.40609575435565
 20
745.25000023881262
 30
0.0
 11
799.40609578043245
 21
746.98205106143689
 31
0.0
  0
LINE
  5
10456
  8
0
 10
809.95513349771511
 20
263.99999973018458
 30
0.0
 11
810.45513264834892
 21
263.49999966260373
 31
0.0
  0
LINE
  5
10457
  8
0
 10
810.45513264834892
 20
242.4999993898372
 30
0.0
 11
809.95513349771511
 21
241.99999932225711
 31
0.0
  0
LINE
  5
10458
  8
0
 10
809.95513349771511
 20
241.99999932225711
 30
0.0
 11
806.45513385534298
 21
241.99999932225711
 31
0.0
  0
LINE
  5
10459
  8
0
 10
806.45513385534298
 20
263.99999973018458
 30
0.0
 11
809.95513349771511
 21
263.99999973018458
 31
0.0
  0
ARC
  5
1045A
  8
0
 10
806.05513345301301
 20
263.39999945457828
 30
0.0
 40
0.4000000000000626
 50
270.0
 51
0.0
  0
ARC
  5
1045B
  8
0
 10
806.05513345301301
 20
242.5999994545781
 30
0.0
 40
0.4000000000000626
 50
0.0
 51
90.0
  0
LINE
  5
1045C
  8
0
 10
806.05513267219078
 20
242.99999885743441
 30
0.0
 11
786.99999898672104
 21
242.99999885743441
 31
0.0
  0
LINE
  5
1045D
  8
0
 10
786.99999898672104
 20
262.99999927584292
 30
0.0
 11
806.05513267219078
 21
262.99999927584292
 31
0.0
  0
LINE
  5
1045E
  8
0
 10
810.45513264834892
 20
263.49999966260373
 30
0.0
 11
810.45513264834892
 21
242.4999993898372
 31
0.0
  0
LINE
  5
1045F
  8
0
 10
809.95513349771511
 20
263.99999973018458
 30
0.0
 11
809.95513349771511
 21
241.99999932225711
 31
0.0
  0
LINE
  5
10460
  8
0
 10
806.45513385534298
 20
263.99999973018458
 30
0.0
 11
806.45513385534298
 21
241.99999932225711
 31
0.0
  0
LINE
  5
10461
  8
0
 10
810.45513264834892
 20
252.7481606095597
 30
0.0
 11
824.67602603137505
 21
252.7481606095597
 31
0.0
  0
LINE
  5
10462
  8
0
 10
824.67602603137505
 20
244.2518376364504
 30
0.0
 11
810.45513264834892
 21
244.2518376364504
 31
0.0
  0
LINE
  5
10463
  8
0
 10
810.45513264834892
 20
261.7481615363439
 30
0.0
 11
824.67602603137505
 21
261.7481615363439
 31
0.0
  0
LINE
  5
10464
  8
0
 10
824.67602603137505
 20
253.25183805771931
 30
0.0
 11
810.45513264834892
 21
253.25183805771931
 31
0.0
  0
LINE
  5
10465
  8
0
 10
824.67602603137505
 20
253.25183805771931
 30
0.0
 11
824.67602603137505
 21
252.7481606095597
 31
0.0
  0
LINE
  5
10466
  8
0
 10
824.67602603137505
 20
244.2518376364504
 30
0.0
 11
824.67602603137505
 21
243.9999994739072
 31
0.0
  0
LINE
  5
10467
  8
0
 10
824.67602603137505
 20
261.99999990279582
 30
0.0
 11
824.67602603137505
 21
261.7481615363439
 31
0.0
  0
LINE
  5
10468
  8
0
 10
825.45513324439537
 20
261.99999914068292
 30
0.0
 11
825.45513324439537
 21
243.999999914472
 31
0.0
  0
LINE
  5
10469
  8
0
 10
825.45513324439537
 20
261.99999990279582
 30
0.0
 11
810.45513264834892
 21
261.99999990279582
 31
0.0
  0
LINE
  5
1046A
  8
0
 10
810.45513264834892
 20
243.9999994739072
 30
0.0
 11
825.45513324439537
 21
243.999999914472
 31
0.0
  0
LINE
  5
1046B
  8
1
 10
445.99999874830252
 20
252.99999937415109
 30
0.0
 11
835.45513324439548
 21
252.99999937415109
 31
0.0
  0
ARC
  5
1046C
  8
0
 10
813.48381151806745
 20
257.49999979703159
 30
0.0
 40
11.9713217263281
 50
339.21504088459608
 51
20.784959115403879
  0
ARC
  5
1046D
  8
0
 10
813.48381151806745
 20
248.499999375763
 30
0.0
 40
11.9713217263281
 50
339.21504088459608
 51
20.784959115403879
  0
LINE
  5
1046E
  8
3
 10
786.99999898672104
 20
244.74999886711689
 30
0.0
 11
796.40609575435542
 21
244.7499988671174
 31
0.0
  0
LINE
  5
1046F
  8
3
 10
786.99999898672104
 20
261.24999988118509
 30
0.0
 11
796.40609575435565
 21
261.24999988118481
 31
0.0
  0
LINE
  5
10470
  8
0
 10
796.40609575435542
 20
262.99999937415112
 30
0.0
 11
796.40609575435542
 21
242.99999937415109
 31
0.0
  0
LINE
  5
10471
  8
3
 10
796.40609575435542
 20
244.7499988671174
 30
0.0
 11
799.40609578043245
 21
243.01794804449301
 31
0.0
  0
LINE
  5
10472
  8
3
 10
796.40609575435565
 20
261.24999988118481
 30
0.0
 11
799.40609578043245
 21
262.98205070380919
 31
0.0
  0
LINE
  5
104B8
  8
1
 10
781.50006601819769
 20
513.99999877500568
 30
0.0
 11
835.45513324439548
 21
513.99999877500568
 31
0.0
  0
LINE
  5
104B9
  8
3
 10
786.50006601819757
 20
505.74999826797159
 30
0.0
 11
796.40609575435542
 21
505.74999826797188
 31
0.0
  0
LINE
  5
104BA
  8
3
 10
786.50006601819757
 20
522.24999928203965
 30
0.0
 11
796.40609575435565
 21
522.24999928203943
 31
0.0
  0
LINE
  5
104BB
  8
0
 10
796.40609575435542
 20
523.99999877500557
 30
0.0
 11
796.40609575435542
 21
503.99999877500562
 31
0.0
  0
LINE
  5
104BC
  8
3
 10
796.40609575435542
 20
505.74999826797188
 30
0.0
 11
799.40609578043245
 21
504.01794744534749
 31
0.0
  0
LINE
  5
104BD
  8
3
 10
796.40609575435565
 20
522.24999928203943
 30
0.0
 11
799.40609578043245
 21
523.9820501046637
 31
0.0
  0
ARC
  5
104BF
  8
0
 10
809.6232330360034
 20
513.99999849594292
 30
0.0
 40
15.83190031269638
 50
341.9504220081688
 51
18.049577991831171
  0
ARC
  5
104C0
  8
0
 10
809.6232330360034
 20
524.24690223148696
 30
0.0
 40
15.83190031269638
 50
341.9504220081688
 51
356.51358633160447
  0
ARC
  5
104C1
  8
0
 10
809.6232330360034
 20
503.75309531852429
 30
0.0
 40
15.83190031269638
 50
3.486413668408531
 51
18.049577991834639
  0
LINE
  5
10505
  8
1
 10
478.999987065791
 20
505.99999874830269
 30
0.0
 11
478.999987065791
 21
519.99999874830257
 31
0.0
  0
LINE
  5
10506
  8
1
 10
471.99998706579112
 20
512.99999874830257
 30
0.0
 11
485.99998706579112
 21
512.99999874830257
 31
0.0
  0
LINE
  5
1050A
  8
1
 10
478.999987065791
 20
486.49999958276737
 30
0.0
 11
478.999987065791
 21
500.99999818205839
 31
0.0
  0
LINE
  5
1050B
  8
1
 10
536.99998408555984
 20
476.99999969719698
 30
0.0
 11
536.99998408555984
 21
444.99999893829238
 31
0.0
  0
LINE
  5
1050E
  8
1
 10
636.99999898672104
 20
476.99999969719698
 30
0.0
 11
636.99999898672104
 21
450.99999874830229
 31
0.0
  0
ARC
  5
10553
  8
0
 10
487.49998706579203
 20
252.99999937415109
 30
0.0
 40
7.0
 50
233.71519009797211
 51
126.2848099020275
  0
LINE
  5
1059C
  8
1
 10
487.49998706579203
 20
262.99999937415112
 30
0.0
 11
487.49998706579203
 21
242.99999937415109
 31
0.0
  0
ARC
  5
105A2
  8
0
 10
756.49999779462814
 20
252.99999937415109
 30
0.0
 40
7.0
 50
53.715190097971437
 51
306.28480990202843
  0
LINE
  5
105A6
  8
1
 10
756.49999779462814
 20
262.99999937415112
 30
0.0
 11
756.49999779462814
 21
242.99999937415109
 31
0.0
  0
CIRCLE
  5
105A9
  8
0
 10
536.99998706579197
 20
275.49999937415112
 30
0.0
 40
7.0
  0
CIRCLE
  5
105AB
  8
0
 10
536.99998706579197
 20
291.99999937415112
 30
0.0
 40
1.6209999999999991
  0
CIRCLE
  5
105AC
  8
3
 10
536.99998706579197
 20
291.99999937415112
 30
0.0
 40
2.0
  0
LINE
  5
105AD
  8
1
 10
536.99998706579197
 20
315.99999874830229
 30
0.0
 11
536.99998706579197
 21
190.00000000000011
 31
0.0
  0
LINE
  5
105AE
  8
1
 10
543.99998706579208
 20
291.99999937415112
 30
0.0
 11
529.99998706579197
 21
291.99999937415112
 31
0.0
  0
LINE
  5
105B1
  8
1
 10
546.99998706579208
 20
275.49999937415112
 30
0.0
 11
526.99998706579208
 21
275.49999937415112
 31
0.0
  0
LINE
  5
105B4
  8
0
 10
530.9999868273735
 20
226.8944484954396
 30
0.0
 11
530.9999868273735
 21
204.1055304151607
 31
0.0
  0
LINE
  5
105B6
  8
0
 10
542.99998134374607
 20
204.10558000913699
 30
0.0
 11
542.99998134374607
 21
226.89443857664429
 31
0.0
  0
LINE
  5
105B8
  8
0
 10
534.29998308420193
 20
206.9583206828307
 30
0.0
 11
534.29998308420181
 21
224.04167130589479
 31
0.0
  0
LINE
  5
105B9
  8
0
 10
539.6999850869181
 20
224.0416705898667
 30
0.0
 11
539.69998508691776
 21
206.95833314213979
 31
0.0
  0
CIRCLE
  5
105BB
  8
0
 10
536.99998706579197
 20
230.49999937415109
 30
0.0
 40
7.0
  0
CIRCLE
  5
105BC
  8
0
 10
536.99998706579197
 20
213.99999937415109
 30
0.0
 40
1.6209999999999991
  0
CIRCLE
  5
105BD
  8
3
 10
536.99998706579197
 20
213.99999937415109
 30
0.0
 40
2.0
  0
LINE
  5
105BE
  8
1
 10
543.99998706579208
 20
213.99999937415109
 30
0.0
 11
529.99998706579197
 21
213.99999937415109
 31
0.0
  0
LINE
  5
105BF
  8
1
 10
546.99998706579208
 20
230.49999937415109
 30
0.0
 11
526.99998706579208
 21
230.49999937415109
 31
0.0
  0
LINE
  5
105C0
  8
1
 10
606.99999898672104
 20
260.9999993741514
 30
0.0
 11
606.99999898672104
 21
244.9999993741514
 31
0.0
  0
LINE
  5
105C2
  8
1
 10
736.99999898672104
 20
262.3749993741514
 30
0.0
 11
736.99999898672104
 21
243.6249993741514
 31
0.0
  0
LINE
  5
10608
  8
0
 10
1028.7069718162061
 20
524.24690418011164
 30
0.0
 11
1037.2032945501901
 21
519.34154996252414
 31
0.0
  0
LINE
  5
10609
  8
0
 10
1037.4551331831981
 20
518.90535265484471
 30
0.0
 11
1037.4551331831981
 21
509.09464421967118
 31
0.0
  0
LINE
  5
1060A
  8
0
 10
1037.2032945501901
 20
508.65844691199192
 30
0.0
 11
1028.7069718162061
 21
503.75309269440459
 31
0.0
  0
LINE
  5
1060B
  8
0
 10
1028.203294550189
 20
524.24690418011164
 30
0.0
 11
1019.706971816206
 21
519.34154996252414
 31
0.0
  0
LINE
  5
1060C
  8
0
 10
1019.455133183198
 20
518.90535265484471
 30
0.0
 11
1019.455133183198
 21
509.09464421967118
 31
0.0
  0
LINE
  5
1060D
  8
0
 10
1019.706971816206
 20
508.65844691199192
 30
0.0
 11
1028.203294550189
 21
503.75309269440459
 31
0.0
  0
LINE
  5
106AA
  8
1
 10
1028.455132827165
 20
439.99999893829238
 30
0.0
 11
1028.4551328271641
 21
544.00000035762787
 31
0.0
  0
LINE
  5
106AC
  8
0
 10
1049.355132713916
 20
529.49999868869759
 30
0.0
 11
1049.355132713916
 21
472.49999865889538
 31
0.0
  0
LINE
  5
106B1
  8
0
 10
1049.9551335573219
 20
530.50000071525574
 30
0.0
 11
1049.9551335573219
 21
499.99999850988388
 31
0.0
  0
LINE
  5
106B2
  8
0
 10
1050.455132707955
 20
493.9999975264073
 30
0.0
 11
1050.455132707955
 21
531.99999630451202
 31
0.0
  0
LINE
  5
106F9
  8
1
 10
1044.4551331831981
 20
513.999998437258
 30
0.0
 11
1012.455133183198
 21
513.999998437258
 31
0.0
  0
LINE
  5
106FD
  8
1
 10
1055.9551328271641
 20
510.99999874830269
 30
0.0
 11
1055.9551328271641
 21
522.99999874830269
 31
0.0
  0
LINE
  5
106FE
  8
1
 10
1061.9551328271521
 20
516.99999874830235
 30
0.0
 11
1049.9551328271521
 21
516.99999874830235
 31
0.0
  0
LINE
  5
10700
  8
1
 10
1000.955132827164
 20
510.99999874830269
 30
0.0
 11
1000.955132827164
 21
522.99999874830269
 31
0.0
  0
LINE
  5
10701
  8
1
 10
1006.9551328271521
 20
516.99999874830235
 30
0.0
 11
994.95513282715251
 21
516.99999874830235
 31
0.0
  0
LINE
  5
10788
  8
0
 10
200.0999979674817
 20
534.00000035762775
 30
0.0
 11
305.9000007808209
 21
534.00000035762775
 31
0.0
  0
LINE
  5
10789
  8
0
 10
200.09999796748161
 20
531.99999630451202
 30
0.0
 11
305.9000007808209
 21
531.99999630451202
 31
0.0
  0
LINE
  5
1078A
  8
0
 10
200.09999796748161
 20
526.99999874830269
 30
0.0
 11
305.9000007808209
 21
526.99999874830269
 31
0.0
  0
LINE
  5
1078B
  8
0
 10
200.09999796748161
 20
521.99999874830269
 30
0.0
 11
305.9000007808209
 21
521.99999874830269
 31
0.0
  0
LINE
  5
1078C
  8
0
 10
200.09999796748161
 20
516.99999874830257
 30
0.0
 11
221.999999374152
 21
516.99999874830257
 31
0.0
  0
LINE
  5
1078D
  8
0
 10
200.09999796748161
 20
511.99999874830257
 30
0.0
 11
305.9000007808209
 21
511.99999874830257
 31
0.0
  0
LINE
  5
1078E
  8
0
 10
200.09999796748161
 20
506.99999874830269
 30
0.0
 11
305.9000007808209
 21
506.99999874830269
 31
0.0
  0
LINE
  5
1078F
  8
0
 10
200.09999796748161
 20
501.99999874830269
 30
0.0
 11
305.9000007808209
 21
501.99999874830269
 31
0.0
  0
CIRCLE
  5
10790
  8
0
 10
225.49999937415129
 20
516.99999874830257
 30
0.0
 40
3.499999999999317
  0
LINE
  5
10791
  8
1
 10
225.49999937415109
 20
523.49999874830189
 30
0.0
 11
225.49999937415109
 21
510.49999874830331
 31
0.0
  0
LINE
  5
10793
  8
0
 10
283.99999937415078
 20
516.99999874830257
 30
0.0
 11
305.9000007808209
 21
516.99999874830257
 31
0.0
  0
LINE
  5
10794
  8
0
 10
228.9999993741506
 20
516.99999874830257
 30
0.0
 11
276.99999937415208
 21
516.99999874830257
 31
0.0
  0
LINE
  5
10795
  8
1
 10
218.99999937415191
 20
516.99999874830257
 30
0.0
 11
231.9999993741506
 21
516.99999874830257
 31
0.0
  0
CIRCLE
  5
1079D
  8
0
 10
280.49999937415129
 20
516.99999874830257
 30
0.0
 40
2.9999999999999849
  0
CIRCLE
  5
1079E
  8
0
 10
280.4999993741514
 20
516.99999874830257
 30
0.0
 40
3.499999999999317
  0
LINE
  5
1079F
  8
1
 10
280.49999937415129
 20
523.49999874830189
 30
0.0
 11
280.49999937415129
 21
510.49999874830331
 31
0.0
  0
LINE
  5
107A0
  8
1
 10
273.9999993741522
 20
516.99999874830257
 30
0.0
 11
286.99999937415078
 21
516.99999874830257
 31
0.0
  0
LINE
  5
107A1
  8
1
 10
252.9999993741514
 20
439.99999893829232
 30
0.0
 11
252.99999937415129
 21
544.00000035762787
 31
0.0
  0
LINE
  5
10883
  8
0
 10
281.99999920556229
 20
516.1339744291954
 30
0.0
 11
280.4999997278187
 21
515.26794658272229
 31
0.0
  0
LINE
  5
10884
  8
0
 10
280.4999997278187
 20
515.26794658272229
 30
0.0
 11
278.9999999988558
 21
516.1339715957713
 31
0.0
  0
LINE
  5
10885
  8
0
 10
278.9999999988558
 20
516.1339715957713
 30
0.0
 11
278.99999974763659
 21
517.8660244552932
 31
0.0
  0
LINE
  5
10886
  8
0
 10
281.99999920556229
 20
517.86602357190725
 30
0.0
 11
281.99999920556229
 21
516.1339744291954
 31
0.0
  0
LINE
  5
10887
  8
0
 10
280.4999994765995
 20
518.73204858495615
 30
0.0
 11
281.99999920556229
 21
517.86602357190725
 31
0.0
  0
LINE
  5
10888
  8
0
 10
278.99999974763659
 20
517.8660244552932
 30
0.0
 11
280.4999994765995
 21
518.73204858495615
 31
0.0
  0
LINE
  5
10899
  8
1
 10
516.99998706579197
 20
469.9999987483024
 30
0.0
 11
516.99998706579197
 21
483.9999987483024
 31
0.0
  0
LINE
  5
1089A
  8
1
 10
509.99998706579208
 20
476.9999987483024
 30
0.0
 11
523.99998706579197
 21
476.9999987483024
 31
0.0
  0
LINE
  5
108A2
  8
1
 10
727.00006604194641
 20
469.9999987483024
 30
0.0
 11
727.00006604194641
 21
483.9999987483024
 31
0.0
  0
LINE
  5
108A3
  8
1
 10
720.00006604194641
 20
476.9999987483024
 30
0.0
 11
734.0000660419463
 21
476.9999987483024
 31
0.0
  0
CIRCLE
  5
12AF7
  8
0
 10
636.99999898672104
 20
736.99999973177898
 30
0.0
 40
9.4999999999999432
  0
CIRCLE
  5
12AF8
  8
0
 10
636.99999898672104
 20
736.99999973177898
 30
0.0
 40
4.3749999999999432
  0
LINE
  5
12AF9
  8
1
 10
636.99999898672104
 20
751.4999997317791
 30
0.0
 11
636.99999898672104
 21
722.4999997317791
 31
0.0
  0
ARC
  5
12D6A
  8
0
 10
457.49999898672093
 20
252.99999937415109
 30
0.0
 40
7.0000000000000124
 50
265.90384863544
 51
301.002719133874
  0
ARC
  5
12D6D
  8
0
 10
536.99999898672104
 20
305.49999937415112
 30
0.0
 40
7.0000000000000124
 50
175.903961377607
 51
4.096038622392987
  0
ARC
  5
12D6F
  8
0
 10
536.99999898672104
 20
200.49999937415109
 30
0.0
 40
7.0000000000000124
 50
355.903961377607
 51
184.09603862239291
  0
ARC
  5
12D70
  8
0
 10
786.49999898672104
 20
252.99999937415109
 30
0.0
 40
7.0000000000000124
 50
85.903848635439175
 51
121.002719133874
  0
CIRCLE
  5
12D77
  8
0
 10
636.99999898672104
 20
252.9999993741514
 30
0.0
 40
4.4000000000000341
  0
LINE
  5
12D78
  8
1
 10
636.99999898672104
 20
262.39999937415138
 30
0.0
 11
636.99999898672104
 21
243.5999993741512
 31
0.0
  0
LINE
  5
12D79
  8
2
 10
741.3749985396862
 20
466.87499843537802
 30
0.0
 11
732.62499943375576
 21
466.87499843537802
 31
0.0
  0
LINE
  5
12D7A
  8
2
 10
727.49999836087215
 20
471.99999950826162
 30
0.0
 11
732.62499943375576
 21
466.87499843537802
 31
0.0
  0
LINE
  5
12D7B
  8
2
 10
741.3749985396862
 20
466.87499843537802
 30
0.0
 11
746.49999961256981
 21
471.99999950826162
 31
0.0
  0
LINE
  5
12D7C
  8
2
 10
732.62499943375576
 20
466.87499843537802
 30
0.0
 11
732.62499943375576
 21
455.9999987483024
 31
0.0
  0
LINE
  5
12D7D
  8
2
 10
741.3749985396862
 20
455.9999987483024
 30
0.0
 11
741.3749985396862
 21
466.87499843537802
 31
0.0
  0
LINE
  5
12D7E
  8
1
 10
736.99999898672104
 20
476.99999969719698
 30
0.0
 11
736.99999898672104
 21
450.99999874830229
 31
0.0
  0
CIRCLE
  5
1330F
  8
3
 10
478.999987065791
 20
512.99999874830257
 30
0.0
 40
4.0
  0
CIRCLE
  5
13310
  8
0
 10
478.999987065791
 20
512.99999874830257
 30
0.0
 40
3.399999999999999
  0
CIRCLE
  5
13313
  8
3
 10
606.99999898672104
 20
252.9999993741514
 30
0.0
 40
5.0
  0
CIRCLE
  5
13314
  8
0
 10
606.99999898672104
 20
252.9999993741514
 30
0.0
 40
4.1879999999999988
  0
CIRCLE
  5
1331D
  8
3
 10
606.99999898672104
 20
736.99999973177898
 30
0.0
 40
5.0
  0
CIRCLE
  5
1331E
  8
0
 10
606.99999898672104
 20
736.99999973177898
 30
0.0
 40
4.1879999999999988
  0
CIRCLE
  5
13323
  8
3
 10
1000.9551328271521
 20
516.99999874830257
 30
0.0
 40
3.0
  0
CIRCLE
  5
13324
  8
0
 10
1000.9551328271521
 20
516.99999874830257
 30
0.0
 40
2.458499999999999
  0
CIRCLE
  5
13325
  8
3
 10
1055.9551328271521
 20
516.99999874830257
 30
0.0
 40
3.0
  0
CIRCLE
  5
13326
  8
0
 10
1055.9551328271521
 20
516.99999874830257
 30
0.0
 40
2.458499999999999
  0
CIRCLE
  5
13327
  8
3
 10
727.00006604194641
 20
476.9999987483024
 30
0.0
 40
4.0
  0
CIRCLE
  5
13328
  8
0
 10
727.00006604194641
 20
476.9999987483024
 30
0.0
 40
3.399999999999999
  0
CIRCLE
  5
13329
  8
3
 10
516.99998706579197
 20
476.9999987483024
 30
0.0
 40
4.0
  0
CIRCLE
  5
1332A
  8
0
 10
516.99998706579197
 20
476.9999987483024
 30
0.0
 40
3.399999999999999
  0
LINE
  5
1357F
  8
0
 10
483.49998706579203
 20
258.49999937415112
 30
0.0
 11
483.49998706579203
 21
247.49999937415109
 31
0.0
  0
LINE
  5
13581
  8
0
 10
483.89443579032798
 20
246.99999937415109
 30
0.0
 11
458.99998706579203
 21
246.99999937415109
 31
0.0
  0
LINE
  5
13587
  8
0
 10
458.49998706579203
 20
247.49999937415109
 30
0.0
 11
458.49998706579203
 21
258.49999937415112
 31
0.0
  0
CIRCLE
  5
13589
  8
0
 10
470.99998706579203
 20
252.99999937415109
 30
0.0
 40
4.0
  0
LINE
  5
1358B
  8
0
 10
458.49998706579203
 20
247.49999937415109
 30
0.0
 11
458.99998706579203
 21
246.99999937415109
 31
0.0
  0
LINE
  5
1358C
  8
0
 10
458.99998706579203
 20
258.99999937415112
 30
0.0
 11
458.49998706579203
 21
258.49999937415112
 31
0.0
  0
LINE
  5
1358E
  8
0
 10
482.99998706579203
 20
246.99999937415109
 30
0.0
 11
483.49998706579203
 21
247.49999937415109
 31
0.0
  0
LINE
  5
13590
  8
0
 10
483.49998706579203
 20
258.49999937415112
 30
0.0
 11
482.99998706579203
 21
258.99999937415112
 31
0.0
  0
LINE
  5
13591
  8
0
 10
458.99998706579203
 20
258.99999937415112
 30
0.0
 11
483.89443579032798
 21
258.99999937415112
 31
0.0
  0
LINE
  5
13592
  8
0
 10
469.49998706579208
 20
253.86602477793551
 30
0.0
 11
469.49998706579208
 21
252.1339739703667
 31
0.0
  0
LINE
  5
13593
  8
0
 10
470.99998706579203
 20
251.26794856658231
 30
0.0
 11
472.49998706579208
 21
252.1339739703667
 31
0.0
  0
LINE
  5
13594
  8
0
 10
472.49998706579208
 20
252.1339739703667
 30
0.0
 11
472.49998706579208
 21
253.86602477793551
 31
0.0
  0
LINE
  5
13595
  8
0
 10
470.99998706579203
 20
254.73205018172001
 30
0.0
 11
472.49998706579208
 21
253.86602477793551
 31
0.0
  0
LINE
  5
13596
  8
0
 10
470.99998706579203
 20
254.73205018172001
 30
0.0
 11
469.49998706579208
 21
253.86602477793551
 31
0.0
  0
CIRCLE
  5
13597
  8
0
 10
470.99998706579203
 20
252.99999937415109
 30
0.0
 40
3.5
  0
LINE
  5
13598
  8
0
 10
470.99998706579203
 20
251.26794856658231
 30
0.0
 11
469.49998706579208
 21
252.1339739703667
 31
0.0
  0
LINE
  5
135A8
  8
0
 10
760.49999779462814
 20
450.4999987483024
 30
0.0
 11
760.49999779462803
 21
455.9999987483024
 31
0.0
  0
LINE
  5
135AB
  8
0
 10
785.49999779462803
 20
455.9999987483024
 30
0.0
 11
785.49999779462814
 21
450.4999987483024
 31
0.0
  0
LINE
  5
135AD
  8
0
 10
785.49999779462814
 20
450.4999987483024
 30
0.0
 11
784.99999779462814
 21
449.9999987483024
 31
0.0
  0
LINE
  5
135B0
  8
0
 10
760.49999779462814
 20
450.4999987483024
 30
0.0
 11
760.99999779462814
 21
449.9999987483024
 31
0.0
  0
LINE
  5
135B1
  8
0
 10
784.99999779462814
 20
449.9999987483024
 30
0.0
 11
760.99999779462814
 21
449.9999987483024
 31
0.0
  0
LINE
  5
135C5
  8
0
 10
1030.455132827165
 20
459.99999893829198
 30
0.0
 11
1030.455132827165
 21
460.49999855458742
 31
0.0
  0
LINE
  5
135C6
  8
0
 10
1026.455132827165
 20
460.49999855458742
 30
0.0
 11
1026.455132827165
 21
459.99999893829198
 31
0.0
  0
LINE
  5
135C7
  8
0
 10
1022.455132827164
 20
459.99999893829232
 30
0.0
 11
1034.455132827165
 21
459.99999893829232
 31
0.0
  0
LINE
  5
135CB
  8
0
 10
1022.455132827165
 20
459.49999893829232
 30
0.0
 11
1022.955132827165
 21
459.99999893829232
 31
0.0
  0
LINE
  5
135CE
  8
0
 10
1033.955132827165
 20
459.99999893829232
 30
0.0
 11
1034.4551328271641
 21
459.49999893829232
 31
0.0
  0
LINE
  5
135CF
  8
0
 10
1034.4551328271641
 20
459.99999893829232
 30
0.0
 11
1034.4551328271641
 21
450.49999893829221
 31
0.0
  0
LINE
  5
135D5
  8
0
 10
1022.455132827165
 20
450.49999893829221
 30
0.0
 11
1022.455132827164
 21
459.99999893829232
 31
0.0
  0
LINE
  5
135D6
  8
0
 10
1034.4551328271641
 20
450.49999893829221
 30
0.0
 11
1033.955132827165
 21
449.99999893829232
 31
0.0
  0
LINE
  5
135D8
  8
0
 10
1022.955132827165
 20
449.99999893829232
 30
0.0
 11
1022.455132827165
 21
450.49999893829221
 31
0.0
  0
LINE
  5
135DA
  8
0
 10
1033.955132827165
 20
449.99999893829232
 30
0.0
 11
1022.955132827165
 21
449.99999893829232
 31
0.0
  0
LINE
  5
1371E
  8
1
 10
772.99999779462814
 20
471.19999874830239
 30
0.0
 11
772.99999779462814
 21
444.9999987483024
 31
0.0
  0
LINE
  5
13728
  8
1
 10
470.99998706579203
 20
241.99999937415109
 30
0.0
 11
470.99998706579203
 21
263.99999937415112
 31
0.0
  0
LINE
  5
13803
  8
3
 10
1030.0761328271631
 20
459.99999893829232
 30
0.0
 11
1030.0761328271631
 21
460.49999855458742
 31
0.0
  0
LINE
  5
13806
  8
3
 10
1026.8341328271661
 20
459.99999893829232
 30
0.0
 11
1026.8341328271661
 21
460.49999855458742
 31
0.0
  0
LINE
  5
13987
  8
0
 10
785.49999779462814
 20
258.49999937415112
 30
0.0
 11
785.49999779462814
 21
247.49999937415109
 31
0.0
  0
LINE
  5
13988
  8
0
 10
784.99999779462814
 20
246.99999937415109
 30
0.0
 11
760.10554907009214
 21
246.99999937415109
 31
0.0
  0
LINE
  5
13989
  8
0
 10
760.49999779462814
 20
247.49999937415109
 30
0.0
 11
760.49999779462814
 21
258.49999937415112
 31
0.0
  0
CIRCLE
  5
1398A
  8
0
 10
772.99999779462814
 20
252.99999937415109
 30
0.0
 40
4.0
  0
LINE
  5
1398B
  8
0
 10
760.49999779462814
 20
247.49999937415109
 30
0.0
 11
760.99999779462814
 21
246.99999937415109
 31
0.0
  0
LINE
  5
1398C
  8
0
 10
760.99999779462814
 20
258.99999937415112
 30
0.0
 11
760.49999779462814
 21
258.49999937415112
 31
0.0
  0
LINE
  5
1398D
  8
0
 10
784.99999779462814
 20
246.99999937415109
 30
0.0
 11
785.49999779462814
 21
247.49999937415109
 31
0.0
  0
LINE
  5
1398E
  8
0
 10
785.49999779462814
 20
258.49999937415112
 30
0.0
 11
784.99999779462814
 21
258.99999937415112
 31
0.0
  0
LINE
  5
1398F
  8
0
 10
760.10554907009214
 20
258.99999937415112
 30
0.0
 11
784.99999779462814
 21
258.99999937415112
 31
0.0
  0
LINE
  5
13990
  8
0
 10
771.49999779462814
 20
253.86602477793551
 30
0.0
 11
771.49999779462814
 21
252.1339739703667
 31
0.0
  0
LINE
  5
13991
  8
0
 10
772.99999779462814
 20
251.26794856658231
 30
0.0
 11
774.49999779462814
 21
252.1339739703667
 31
0.0
  0
LINE
  5
13992
  8
0
 10
774.49999779462814
 20
252.1339739703667
 30
0.0
 11
774.49999779462814
 21
253.86602477793551
 31
0.0
  0
LINE
  5
13993
  8
0
 10
772.99999779462814
 20
254.73205018172001
 30
0.0
 11
774.49999779462814
 21
253.86602477793551
 31
0.0
  0
LINE
  5
13994
  8
0
 10
772.99999779462814
 20
254.73205018172001
 30
0.0
 11
771.49999779462814
 21
253.86602477793551
 31
0.0
  0
CIRCLE
  5
13995
  8
0
 10
772.99999779462814
 20
252.99999937415109
 30
0.0
 40
3.5
  0
LINE
  5
13996
  8
0
 10
772.99999779462814
 20
251.26794856658231
 30
0.0
 11
771.49999779462814
 21
252.1339739703667
 31
0.0
  0
LINE
  5
1399A
  8
0
 10
458.49998706579208
 20
450.4999987483024
 30
0.0
 11
458.49998706579208
 21
455.9999987483024
 31
0.0
  0
LINE
  5
1399B
  8
0
 10
483.49998706579203
 20
455.9999987483024
 30
0.0
 11
483.49998706579208
 21
450.4999987483024
 31
0.0
  0
LINE
  5
1399C
  8
0
 10
483.49998706579208
 20
450.4999987483024
 30
0.0
 11
482.99998706579208
 21
449.9999987483024
 31
0.0
  0
LINE
  5
1399D
  8
0
 10
458.49998706579208
 20
450.4999987483024
 30
0.0
 11
458.99998706579208
 21
449.9999987483024
 31
0.0
  0
LINE
  5
1399E
  8
0
 10
482.99998706579208
 20
449.9999987483024
 30
0.0
 11
458.99998706579208
 21
449.9999987483024
 31
0.0
  0
LINE
  5
139A6
  8
0
 10
254.9999993741514
 20
459.99999893829198
 30
0.0
 11
254.99999937415151
 21
460.49999855458731
 31
0.0
  0
LINE
  5
139A7
  8
0
 10
250.9999993741514
 20
460.49999855458731
 30
0.0
 11
250.9999993741514
 21
459.99999893829198
 31
0.0
  0
LINE
  5
139A8
  8
0
 10
246.99999932199719
 20
459.99999893829232
 30
0.0
 11
258.99999942630541
 21
459.99999893829238
 31
0.0
  0
LINE
  5
139A9
  8
0
 10
246.9999993741514
 20
459.49999893829232
 30
0.0
 11
247.49999937415151
 21
459.99999893829232
 31
0.0
  0
LINE
  5
139AA
  8
0
 10
258.49999937415151
 20
459.99999893829232
 30
0.0
 11
258.99999937415151
 21
459.49999893829232
 31
0.0
  0
LINE
  5
139AB
  8
0
 10
258.99999937415151
 20
459.99999893829232
 30
0.0
 11
258.99999937415151
 21
450.49999893829221
 31
0.0
  0
LINE
  5
139AC
  8
0
 10
246.9999993741514
 20
450.49999893829221
 30
0.0
 11
246.9999993741514
 21
459.99999893829232
 31
0.0
  0
LINE
  5
139AD
  8
0
 10
258.99999937415151
 20
450.49999893829221
 30
0.0
 11
258.49999937415151
 21
449.99999893829232
 31
0.0
  0
LINE
  5
139AE
  8
0
 10
247.49999937415151
 20
449.99999893829232
 30
0.0
 11
246.9999993741514
 21
450.49999893829221
 31
0.0
  0
LINE
  5
139AF
  8
0
 10
258.49999937415151
 20
449.99999893829232
 30
0.0
 11
247.49999937415151
 21
449.99999893829232
 31
0.0
  0
LINE
  5
139B7
  8
1
 10
470.99998706579208
 20
471.19999874830239
 30
0.0
 11
470.99998706579208
 21
444.9999987483024
 31
0.0
  0
LINE
  5
139B8
  8
1
 10
772.99999779462814
 20
241.99999937415109
 30
0.0
 11
772.99999779462814
 21
263.99999937415112
 31
0.0
  0
LINE
  5
139BB
  8
3
 10
254.62099937415019
 20
459.99999893829232
 30
0.0
 11
254.62099937415019
 21
460.49999855458731
 31
0.0
  0
LINE
  5
139BC
  8
3
 10
251.37899937415301
 20
459.99999893829232
 30
0.0
 11
251.3789993741529
 21
460.49999855458731
 31
0.0
  0
LINE
  5
139DF
  8
5
 10
531.49998706579208
 20
226.49999937415109
 30
0.0
 11
542.49998706579197
 21
226.49999937415109
 31
0.0
  0
LINE
  5
139E0
  8
5
 10
542.99998706579208
 20
225.99999937415109
 30
0.0
 11
542.99998706579208
 21
201.99999937415109
 31
0.0
  0
LINE
  5
139E1
  8
5
 10
542.49998706579197
 20
201.49999937415109
 30
0.0
 11
531.49998706579208
 21
201.49999937415109
 31
0.0
  0
CIRCLE
  5
139E2
  8
5
 10
536.99998706579197
 20
213.99999937415109
 30
0.0
 40
4.0
  0
LINE
  5
139E3
  8
5
 10
542.49998706579197
 20
201.49999937415109
 30
0.0
 11
542.99998706579208
 21
201.99999937415109
 31
0.0
  0
LINE
  5
139E4
  8
5
 10
530.99998706579208
 20
201.99999937415109
 30
0.0
 11
531.49998706579208
 21
201.49999937415109
 31
0.0
  0
LINE
  5
139E5
  8
5
 10
542.99998706579208
 20
225.99999937415109
 30
0.0
 11
542.49998706579197
 21
226.49999937415109
 31
0.0
  0
LINE
  5
139E6
  8
5
 10
531.49998706579208
 20
226.49999937415109
 30
0.0
 11
530.99998706579208
 21
225.99999937415109
 31
0.0
  0
LINE
  5
139E7
  8
5
 10
530.99998706579208
 20
201.99999937415109
 30
0.0
 11
530.99998706579208
 21
225.99999937415109
 31
0.0
  0
LINE
  5
139E8
  8
5
 10
536.13396166200766
 20
212.49999937415109
 30
0.0
 11
537.86601246957662
 21
212.49999937415109
 31
0.0
  0
LINE
  5
139E9
  8
5
 10
538.73203787336092
 20
213.99999937415109
 30
0.0
 11
537.86601246957662
 21
215.49999937415109
 31
0.0
  0
LINE
  5
139EA
  8
5
 10
537.86601246957662
 20
215.49999937415109
 30
0.0
 11
536.13396166200766
 21
215.49999937415109
 31
0.0
  0
LINE
  5
139EB
  8
5
 10
535.26793625822324
 20
213.99999937415109
 30
0.0
 11
536.13396166200766
 21
215.49999937415109
 31
0.0
  0
LINE
  5
139EC
  8
5
 10
535.26793625822324
 20
213.99999937415109
 30
0.0
 11
536.13396166200766
 21
212.49999937415109
 31
0.0
  0
CIRCLE
  5
139ED
  8
5
 10
536.99998706579197
 20
213.99999937415109
 30
0.0
 40
3.5
  0
LINE
  5
139EE
  8
5
 10
538.73203787336092
 20
213.99999937415109
 30
0.0
 11
537.86601246957662
 21
212.49999937415109
 31
0.0
  0
LINE
  5
139F2
  8
5
 10
1054.9551328271641
 20
450.49999893829232
 30
0.0
 11
1054.9551328271641
 21
456.69999872334301
 31
0.0
  0
LINE
  5
139F3
  8
5
 10
1079.955132827165
 20
455.9999987483024
 30
0.0
 11
1079.955132827165
 21
450.49999893829232
 31
0.0
  0
LINE
  5
139F4
  8
5
 10
1079.955132827165
 20
450.49999893829232
 30
0.0
 11
1079.455132827165
 21
449.99999893829232
 31
0.0
  0
LINE
  5
139F5
  8
5
 10
1054.9551328271641
 20
450.49999893829232
 30
0.0
 11
1055.455132827165
 21
449.99999893829232
 31
0.0
  0
LINE
  5
139F6
  8
5
 10
1079.455132827165
 20
449.99999893829232
 30
0.0
 11
1055.455132827165
 21
449.99999893829232
 31
0.0
  0
LINE
  5
139FE
  8
5
 10
538.9999870657922
 20
459.99999893829209
 30
0.0
 11
538.9999870657922
 21
460.49999855458731
 31
0.0
  0
LINE
  5
139FF
  8
5
 10
534.9999870657922
 20
460.49999855458731
 30
0.0
 11
534.9999870657922
 21
459.99999893829209
 31
0.0
  0
LINE
  5
13A00
  8
5
 10
531.4999870657922
 20
459.99999893829232
 30
0.0
 11
542.4999870657922
 21
459.99999893829232
 31
0.0
  0
LINE
  5
13A01
  8
5
 10
530.9999870657922
 20
459.49999893829232
 30
0.0
 11
531.4999870657922
 21
459.99999893829232
 31
0.0
  0
LINE
  5
13A02
  8
5
 10
542.4999870657922
 20
459.99999893829232
 30
0.0
 11
542.9999870657922
 21
459.49999893829232
 31
0.0
  0
LINE
  5
13A03
  8
5
 10
542.9999870657922
 20
459.49999893829232
 30
0.0
 11
542.9999870657922
 21
450.49999893829232
 31
0.0
  0
LINE
  5
13A04
  8
5
 10
530.9999870657922
 20
450.49999893829232
 30
0.0
 11
530.9999870657922
 21
459.49999893829232
 31
0.0
  0
LINE
  5
13A05
  8
5
 10
542.9999870657922
 20
450.49999893829232
 30
0.0
 11
542.4999870657922
 21
449.99999893829232
 31
0.0
  0
LINE
  5
13A06
  8
5
 10
531.4999870657922
 20
449.99999893829232
 30
0.0
 11
530.9999870657922
 21
450.49999893829232
 31
0.0
  0
LINE
  5
13A07
  8
5
 10
542.4999870657922
 20
449.99999893829232
 30
0.0
 11
531.4999870657922
 21
449.99999893829232
 31
0.0
  0
LINE
  5
13A0F
  8
1
 10
1067.455132827165
 20
471.19999893829242
 30
0.0
 11
1067.455132827165
 21
444.99999893829238
 31
0.0
  0
LINE
  5
13A13
  8
5
 10
538.62098706579093
 20
459.99999893829232
 30
0.0
 11
538.62098706579093
 21
460.49999855458731
 31
0.0
  0
LINE
  5
13A14
  8
5
 10
535.37898706579358
 20
459.99999893829232
 30
0.0
 11
535.37898706579358
 21
460.49999855458731
 31
0.0
  0
LINE
  5
13A37
  8
5
 10
531.49998706579208
 20
304.49999937415112
 30
0.0
 11
542.49998706579197
 21
304.49999937415112
 31
0.0
  0
LINE
  5
13A38
  8
5
 10
542.99998706579208
 20
303.99999937415112
 30
0.0
 11
542.99998706579208
 21
279.99999937415112
 31
0.0
  0
LINE
  5
13A39
  8
5
 10
542.49998706579197
 20
279.49999937415112
 30
0.0
 11
531.49998706579208
 21
279.49999937415112
 31
0.0
  0
CIRCLE
  5
13A3A
  8
5
 10
536.99998706579197
 20
291.99999937415112
 30
0.0
 40
4.0
  0
LINE
  5
13A3B
  8
5
 10
542.49998706579197
 20
279.49999937415112
 30
0.0
 11
542.99998706579208
 21
279.99999937415112
 31
0.0
  0
LINE
  5
13A3C
  8
5
 10
530.99998706579208
 20
279.99999937415112
 30
0.0
 11
531.49998706579208
 21
279.49999937415112
 31
0.0
  0
LINE
  5
13A3D
  8
5
 10
542.99998706579208
 20
303.99999937415112
 30
0.0
 11
542.49998706579197
 21
304.49999937415112
 31
0.0
  0
LINE
  5
13A3E
  8
5
 10
531.49998706579208
 20
304.49999937415112
 30
0.0
 11
530.99998706579208
 21
303.99999937415112
 31
0.0
  0
LINE
  5
13A3F
  8
5
 10
530.99998706579208
 20
279.99999937415112
 30
0.0
 11
530.99998706579208
 21
303.99999937415112
 31
0.0
  0
LINE
  5
13A40
  8
5
 10
536.13396166200766
 20
290.49999937415112
 30
0.0
 11
537.86601246957662
 21
290.49999937415112
 31
0.0
  0
LINE
  5
13A41
  8
5
 10
538.73203787336092
 20
291.99999937415112
 30
0.0
 11
537.86601246957662
 21
293.49999937415112
 31
0.0
  0
LINE
  5
13A42
  8
5
 10
537.86601246957662
 20
293.49999937415112
 30
0.0
 11
536.13396166200766
 21
293.49999937415112
 31
0.0
  0
LINE
  5
13A43
  8
5
 10
535.26793625822324
 20
291.99999937415112
 30
0.0
 11
536.13396166200766
 21
293.49999937415112
 31
0.0
  0
LINE
  5
13A44
  8
5
 10
535.26793625822324
 20
291.99999937415112
 30
0.0
 11
536.13396166200766
 21
290.49999937415112
 31
0.0
  0
CIRCLE
  5
13A45
  8
5
 10
536.99998706579197
 20
291.99999937415112
 30
0.0
 40
3.5
  0
LINE
  5
13A46
  8
5
 10
538.73203787336092
 20
291.99999937415112
 30
0.0
 11
537.86601246957662
 21
290.49999937415112
 31
0.0
  0
LINE
  5
13A4A
  8
5
 10
976.9551328271649
 20
450.49999893829232
 30
0.0
 11
976.9551328271649
 21
455.99999874830252
 31
0.0
  0
LINE
  5
13A4B
  8
5
 10
1001.955132827165
 20
456.69999872334301
 30
0.0
 11
1001.955132827165
 21
450.49999893829232
 31
0.0
  0
LINE
  5
13A4C
  8
5
 10
1001.955132827165
 20
450.49999893829232
 30
0.0
 11
1001.455132827165
 21
449.99999893829232
 31
0.0
  0
LINE
  5
13A4D
  8
5
 10
976.9551328271649
 20
450.49999893829232
 30
0.0
 11
977.45513282716479
 21
449.99999893829232
 31
0.0
  0
LINE
  5
13A4E
  8
5
 10
1001.455132827165
 20
449.99999893829232
 30
0.0
 11
977.45513282716479
 21
449.99999893829232
 31
0.0
  0
LINE
  5
13A67
  8
1
 10
989.4551328271649
 20
471.19999893829242
 30
0.0
 11
989.4551328271649
 21
444.99999893829238
 31
0.0
  0
ARC
  5
13A98
  8
0
 10
457.49999898672093
 20
252.99999937415109
 30
0.0
 40
7.0000000000000124
 50
58.997280866125969
 51
94.096151364559589
  0
ARC
  5
13A99
  8
0
 10
786.49999898672104
 20
252.99999937415109
 30
0.0
 40
7.0000000000000124
 50
238.997280866126
 51
274.0961513645608
  0
LINE
  5
13ADD
  8
0
 10
1022.455132827165
 20
455.99999874830229
 30
0.0
 11
1004.955133631827
 21
455.99999874830229
 31
0.0
  0
LINE
  5
13AE0
  8
0
 10
246.9999993741514
 20
455.99999874830218
 30
0.0
 11
229.5000001788141
 21
455.99999874830229
 31
0.0
  0
LINE
  5
13C12
  8
5
 10
279.49999937415151
 20
450.49999893829232
 30
0.0
 11
279.49999937415151
 21
456.69999872334301
 31
0.0
  0
LINE
  5
13C13
  8
5
 10
304.49999937415151
 20
455.9999987483024
 30
0.0
 11
304.49999937415151
 21
450.49999893829232
 31
0.0
  0
LINE
  5
13C14
  8
5
 10
304.49999937415151
 20
450.49999893829232
 30
0.0
 11
303.99999937415151
 21
449.99999893829232
 31
0.0
  0
LINE
  5
13C15
  8
5
 10
279.49999937415151
 20
450.49999893829232
 30
0.0
 11
279.9999993741514
 21
449.99999893829232
 31
0.0
  0
LINE
  5
13C16
  8
5
 10
303.99999937415151
 20
449.99999893829232
 30
0.0
 11
279.9999993741514
 21
449.99999893829232
 31
0.0
  0
LINE
  5
13C17
  8
1
 10
291.9999993741514
 20
471.19999893829242
 30
0.0
 11
291.9999993741514
 21
444.99999893829238
 31
0.0
  0
LINE
  5
13C18
  8
5
 10
201.4999993741516
 20
450.49999893829232
 30
0.0
 11
201.49999937415171
 21
455.99999874830252
 31
0.0
  0
LINE
  5
13C19
  8
5
 10
226.4999993741516
 20
456.69999872334301
 30
0.0
 11
226.4999993741516
 21
450.49999893829232
 31
0.0
  0
LINE
  5
13C1A
  8
5
 10
226.4999993741516
 20
450.49999893829232
 30
0.0
 11
225.9999993741516
 21
449.99999893829232
 31
0.0
  0
LINE
  5
13C1B
  8
5
 10
201.4999993741516
 20
450.49999893829232
 30
0.0
 11
201.9999993741516
 21
449.99999893829232
 31
0.0
  0
LINE
  5
13C1C
  8
5
 10
225.9999993741516
 20
449.99999893829232
 30
0.0
 11
201.9999993741516
 21
449.99999893829232
 31
0.0
  0
LINE
  5
13C1D
  8
1
 10
213.9999993741516
 20
471.19999893829242
 30
0.0
 11
213.9999993741516
 21
444.99999893829238
 31
0.0
  0
ENDSEC
  0
EOF
