  0
SECTION
  2
HEADER
  9
$ACADVER
  1
AC1009
  9
$INSBASE
 10
0.0
 20
0.0
 30
0.0
  9
$EXTMIN
 10
50.0
 20
47.03956343792634
 30
0.0
  9
$EXTMAX
 10
492.0
 20
333.30000000000018
 30
0.0
  9
$LIMMIN
 10
0.0
 20
0.0
  9
$LIMMAX
 10
4205.0
 20
2970.0
  9
$ORTHOMODE
 70
     1
  9
$REGENMODE
 70
     1
  9
$FILLMODE
 70
     1
  9
$QTEXTMODE
 70
     0
  9
$MIRRTEXT
 70
     0
  9
$DRAGMODE
 70
     2
  9
$LTSCALE
 40
10.0
  9
$OSMODE
 70
    37
  9
$ATTMODE
 70
     1
  9
$TEXTSIZE
 40
3.0
  9
$TRACEWID
 40
0.05
  9
$TEXTSTYLE
  7
STANDARD
  9
$CLAYER
  8
0
  9
$CELTYPE
  6
BYLAYER
  9
$CECOLOR
 62
   256
  9
$DIMSCALE
 40
1.0
  9
$DIMASZ
 40
3.0
  9
$DIMEXO
 40
2.0
  9
$DIMDLI
 40
10.0
  9
$DIMRND
 40
0.0
  9
$DIMDLE
 40
0.0
  9
$DIMEXE
 40
2.0
  9
$DIMTP
 40
0.0
  9
$DIMTM
 40
0.0
  9
$DIMTXT
 40
3.0
  9
$DIMCEN
 40
0.0
  9
$DIMTSZ
 40
0.0
  9
$DIMTOL
 70
     0
  9
$DIMLIM
 70
     0
  9
$DIMTIH
 70
     0
  9
$DIMTOH
 70
     0
  9
$DIMSE1
 70
     0
  9
$DIMSE2
 70
     0
  9
$DIMTAD
 70
     1
  9
$DIMZIN
 70
     0
  9
$DIMBLK
  1

  9
$DIMASO
 70
     0
  9
$DIMSHO
 70
     0
  9
$DIMPOST
  1

  9
$DIMAPOST
  1

  9
$DIMALT
 70
     0
  9
$DIMALTD
 70
     2
  9
$DIMALTF
 40
25.399999999999999
  9
$DIMLFAC
 40
1.0
  9
$DIMTOFL
 70
     1
  9
$DIMTVP
 40
1.6000000000000001
  9
$DIMTIX
 70
     0
  9
$DIMSOXD
 70
     0
  9
$DIMSAH
 70
     0
  9
$DIMBLK1
  1

  9
$DIMBLK2
  1

  9
$DIMSTYLE
  2
STANDARD
  9
$DIMCLRD
 70
     0
  9
$DIMCLRE
 70
     0
  9
$DIMCLRT
 70
     0
  9
$DIMTFAC
 40
1.0
  9
$DIMGAP
 40
0.09
  9
$LUNITS
 70
     2
  9
$LUPREC
 70
     2
  9
$SKETCHINC
 40
0.1
  9
$FILLETRAD
 40
0.0
  9
$AUNITS
 70
     0
  9
$AUPREC
 70
     2
  9
$MENU
  1
ME
  9
$ELEVATION
 40
0.0
  9
$PELEVATION
 40
0.0
  9
$THICKNESS
 40
0.0
  9
$LIMCHECK
 70
     0
  9
$BLIPMODE
 70
     0
  9
$CHAMFERA
 40
3.0
  9
$CHAMFERB
 40
3.0
  9
$SKPOLY
 70
     0
  9
$TDCREATE
 40
2451920.3634869209
  9
$TDUPDATE
 40
2456598.7253292711
  9
$TDINDWG
 40
0.773947963
  9
$TDUSRTIMER
 40
2456598.1080595371
  9
$USRTIMER
 70
     1
  9
$ANGBASE
 50
0.0
  9
$ANGDIR
 70
     0
  9
$PDMODE
 70
     0
  9
$PDSIZE
 40
0.0
  9
$PLINEWID
 40
0.0
  9
$COORDS
 70
     1
  9
$SPLFRAME
 70
     0
  9
$SPLINETYPE
 70
     6
  9
$SPLINESEGS
 70
     8
  9
$ATTDIA
 70
     0
  9
$ATTREQ
 70
     1
  9
$HANDLING
 70
     1
  9
$HANDSEED
  5
349
  9
$SURFTAB1
 70
     6
  9
$SURFTAB2
 70
     6
  9
$SURFTYPE
 70
     6
  9
$SURFU
 70
     6
  9
$SURFV
 70
     6
  9
$UCSNAME
  2

  9
$UCSORG
 10
0.0
 20
0.0
 30
0.0
  9
$UCSXDIR
 10
1.0
 20
0.0
 30
0.0
  9
$UCSYDIR
 10
0.0
 20
1.0
 30
0.0
  9
$PUCSNAME
  2

  9
$PUCSORG
 10
0.0
 20
0.0
 30
0.0
  9
$PUCSXDIR
 10
1.0
 20
0.0
 30
0.0
  9
$PUCSYDIR
 10
0.0
 20
1.0
 30
0.0
  9
$USERI1
 70
     1
  9
$USERI2
 70
     1
  9
$USERI3
 70
     5
  9
$USERI4
 70
     1
  9
$USERI5
 70
     0
  9
$USERR1
 40
5.0
  9
$USERR2
 40
3.0
  9
$USERR3
 40
1.5
  9
$USERR4
 40
1.5
  9
$USERR5
 40
10.0
  9
$WORLDVIEW
 70
     1
  9
$SHADEDGE
 70
     3
  9
$SHADEDIF
 70
    70
  9
$TILEMODE
 70
     1
  9
$MAXACTVP
 70
    16
  9
$PLIMCHECK
 70
     0
  9
$PEXTMIN
 10
1.0000000000000000E+020
 20
1.0000000000000000E+020
 30
1.0000000000000000E+020
  9
$PEXTMAX
 10
-1.0000000000000000E+020
 20
-1.0000000000000000E+020
 30
-1.0000000000000000E+020
  9
$PLIMMIN
 10
0.0
 20
0.0
  9
$PLIMMAX
 10
12.0
 20
9.0
  9
$UNITMODE
 70
     0
  9
$VISRETAIN
 70
     0
  9
$PLINEGEN
 70
     0
  9
$PSLTSCALE
 70
     0
  0
ENDSEC
  0
SECTION
  2
TABLES
  0
TABLE
  2
VPORT
 70
     1
  0
VPORT
  2
*ACTIVE
 70
     0
 10
0.0
 20
0.0
 11
1.0
 21
1.0
 12
464.0695202563669
 22
191.56500000000011
 13
0.0
 23
0.0
 14
5.0
 24
5.0
 15
10.0
 25
10.0
 16
0.0
 26
0.0
 36
1.0
 17
0.0
 27
0.0
 37
0.0
 40
475.64776252319098
 41
1.755244755244755
 42
50.0
 43
0.0
 44
0.0
 50
0.0
 51
0.0
 71
    16
 72
  1000
 73
     1
 74
     0
 75
     0
 76
     0
 77
     0
 78
     1
  0
ENDTAB
  0
TABLE
  2
LTYPE
 70
     4
  0
LTYPE
  2
CONTINUOUS
 70
     0
  3
Solid Line
 72
    65
 73
     0
 40
0.0
  0
LTYPE
  2
CENTER
 70
     0
  3
____ _ ____ _ ____ _ ____ _ ____ _ ____ _ ____
 72
    65
 73
     4
 40
2.0
 49
1.25
 49
-0.25
 49
0.25
 49
-0.25
  0
LTYPE
  2
HIDDEN
 70
     0
  3
_ _ _ _ _ _ _ _ _ _ _ _ _ _ _ _ _ _ _ _ _ _ _
 72
    65
 73
     2
 40
0.375
 49
0.25
 49
-0.125
  0
LTYPE
  2
PHANTOM2
 70
     0
  3
___ _ _ ___ _ _ ___ _ _ ___ _ _
 72
    65
 73
     6
 40
1.25
 49
0.625
 49
-0.125
 49
0.125
 49
-0.125
 49
0.125
 49
-0.125
  0
ENDTAB
  0
TABLE
  2
LAYER
 70
     3
  0
LAYER
  2
0
 70
     0
 62
     7
  6
CONTINUOUS
  0
LAYER
  2
1
 70
     0
 62
     1
  6
CENTER
  0
LAYER
  2
2
 70
     0
 62
     2
  6
HIDDEN
  0
ENDTAB
  0
TABLE
  2
STYLE
 70
     2
  0
STYLE
  2
STANDARD
 70
     0
 40
0.0
 41
1.0
 50
0.0
 71
     0
 42
3.0
  3
C:/r13/com/fonts/Romans
  4
C:/r13/com/fonts/Extfont
  0
STYLE
  2
STANDARD1
 70
     0
 40
0.0
 41
1.0
 50
0.0
 71
     0
 42
3.0
  3
txt
  4

  0
ENDTAB
  0
TABLE
  2
VIEW
 70
     0
  0
ENDTAB
  0
TABLE
  2
UCS
 70
     0
  0
ENDTAB
  0
TABLE
  2
APPID
 70
     6
  0
APPID
  2
ACAD
 70
     0
  0
APPID
  2
ACAD_DSTYLE_DIMJAG
 70
     0
  0
APPID
  2
ACAD_DSTYLE_DIMTALN
 70
     0
  0
APPID
  2
ACAD_EXEMPT_FROM_CAD_STANDARDS
 70
     0
  0
APPID
  2
ACAD_MLEADERVER
 70
     0
  0
APPID
  2
ACAD_NAV_VCDISPLAY
 70
     0
  0
ENDTAB
  0
TABLE
  2
DIMSTYLE
 70
     1
  0
DIMSTYLE
  2
STANDARD
 70
     0
  3

  4

  5

  6

  7

 40
1.0
 41
0.18
 42
0.0625
 43
0.38
 44
0.18
 45
0.0
 46
0.0
 47
0.0
 48
0.0
140
0.18
141
0.09
142
0.0
143
25.399999999999999
144
1.0
145
0.0
146
1.0
147
0.09
 71
     0
 72
     0
 73
     1
 74
     1
 75
     0
 76
     0
 77
     0
 78
     0
170
     0
171
     2
172
     0
173
     0
174
     0
175
     0
176
     0
177
     0
178
     0
  0
ENDTAB
  0
ENDSEC
  0
SECTION
  2
BLOCKS
  0
BLOCK
  8
0
  2
$MODEL_SPACE
 70
     0
 10
0.0
 20
0.0
 30
0.0
  3
$MODEL_SPACE
  1

  0
ENDBLK
  5
D4
  8
0
  0
BLOCK
 67
     1
  8
0
  2
$PAPER_SPACE
 70
     0
 10
0.0
 20
0.0
 30
0.0
  3
$PAPER_SPACE
  1

  0
ENDBLK
  5
D2
 67
     1
  8
0
  0
ENDSEC
  0
SECTION
  2
ENTITIES
  0
LINE
  5
3C
  8
0
 10
421.99999999999949
 20
323.3679867174788
 30
0.0
 11
422.0
 21
333.30000000000018
 31
0.0
  0
LINE
  5
3D
  8
0
 10
422.0
 20
296.83734908284811
 30
0.0
 11
421.99999999999949
 21
305.29339302591239
 31
0.0
  0
LINE
  5
3E
  8
0
 10
422.0000000000004
 20
228.33822435701231
 30
0.0
 11
422.0
 21
236.72409365921251
 31
0.0
  0
LINE
  5
3F
  8
0
 10
406.69999999999982
 20
215.50000000000099
 30
0.0
 11
422.0000000000004
 21
197.26617003330921
 31
0.0
  0
LINE
  5
40
  8
0
 10
406.69999999999982
 20
215.50000000000099
 30
0.0
 11
422.0000000000004
 21
228.33822435701319
 31
0.0
  0
LINE
  5
41
  8
0
 10
392.40000000000009
 20
272.00000000000091
 30
0.0
 11
422.0000000000004
 21
236.7240936592116
 31
0.0
  0
LINE
  5
42
  8
0
 10
392.40000000000009
 20
272.00000000000091
 30
0.0
 11
422.0000000000004
 21
296.83734908284811
 31
0.0
  0
LINE
  5
43
  8
0
 10
413.09999999999991
 20
315.9000000000006
 30
0.0
 11
422.0000000000004
 21
323.3679867174788
 31
0.0
  0
LINE
  5
44
  8
0
 10
413.09999999999991
 20
315.9000000000006
 30
0.0
 11
422.0000000000004
 21
305.29339302591148
 31
0.0
  0
LINE
  5
45
  8
0
 10
472.0
 20
87.300000000000182
 30
0.0
 11
476.0
 21
87.300000000000182
 31
0.0
  0
LINE
  5
46
  8
0
 10
372.0
 20
234.4000000000006
 30
0.0
 11
372.0
 21
187.30000000000021
 31
0.0
  0
LINE
  5
47
  8
0
 10
372.0
 20
333.30000000000018
 30
0.0
 11
372.0
 21
286.20000000000169
 31
0.0
  0
LINE
  5
48
  8
0
 10
372.0
 20
187.30000000000021
 30
0.0
 11
422.0
 21
187.30000000000021
 31
0.0
  0
LINE
  5
49
  8
0
 10
422.0
 20
187.30000000000021
 30
0.0
 11
422.0000000000004
 21
197.26617003330921
 31
0.0
  0
LINE
  5
4A
  8
0
 10
422.0
 20
333.30000000000018
 30
0.0
 11
372.0
 21
333.30000000000018
 31
0.0
  0
LINE
  5
4B
  8
1
 10
354.69999999999982
 20
260.30000000000018
 30
0.0
 11
432.00000000000023
 21
260.30000000000018
 31
0.0
  0
LINE
  5
4E
  8
0
 10
372.0
 20
286.20000000000078
 30
0.0
 11
364.69999999999982
 21
286.20000000000078
 31
0.0
  0
LINE
  5
4F
  8
0
 10
364.69999999999982
 20
286.20000000000078
 30
0.0
 11
364.69999999999982
 21
234.4000000000006
 31
0.0
  0
LINE
  5
50
  8
0
 10
364.69999999999982
 20
234.4000000000006
 30
0.0
 11
372.0
 21
234.4000000000006
 31
0.0
  0
LINE
  5
51
  8
2
 10
372.0
 20
295.30000000000018
 30
0.0
 11
379.69999999999982
 21
295.30000000000018
 31
0.0
  0
LINE
  5
54
  8
2
 10
379.69999999999982
 20
295.30000000000018
 30
0.0
 11
379.69999999999982
 21
225.30000000000021
 31
0.0
  0
LINE
  5
55
  8
2
 10
379.69999999999982
 20
225.30000000000021
 30
0.0
 11
372.0
 21
225.30000000000121
 31
0.0
  0
LINE
  5
56
  8
0
 10
476.0
 20
333.30000000000018
 30
0.0
 11
472.0
 21
333.30000000000018
 31
0.0
  0
LINE
  5
57
  8
0
 10
476.0
 20
187.3000000000001
 30
0.0
 11
476.0
 21
333.30000000000018
 31
0.0
  0
LINE
  5
58
  8
0
 10
472.0
 20
333.30000000000018
 30
0.0
 11
472.0
 21
187.3000000000001
 31
0.0
  0
LINE
  5
59
  8
0
 10
472.0
 20
187.3000000000001
 30
0.0
 11
476.0
 21
187.3000000000001
 31
0.0
  0
LINE
  5
5A
  8
0
 10
482.0
 20
225.30000000000021
 30
0.0
 11
476.0
 21
225.30000000000021
 31
0.0
  0
LINE
  5
5B
  8
0
 10
482.0
 20
295.30000000000018
 30
0.0
 11
482.0
 21
225.30000000000021
 31
0.0
  0
LINE
  5
5C
  8
0
 10
476.0
 20
295.30000000000018
 30
0.0
 11
482.0
 21
295.30000000000018
 31
0.0
  0
LINE
  5
5D
  8
1
 10
462.0
 20
260.30000000000018
 30
0.0
 11
492.0
 21
260.30000000000018
 31
0.0
  0
LINE
  5
5E
  8
2
 10
476.0
 20
286.19999999999987
 30
0.0
 11
482.0
 21
286.20000000000078
 31
0.0
  0
LINE
  5
5F
  8
2
 10
476.0
 20
234.4000000000006
 30
0.0
 11
482.0
 21
234.4000000000006
 31
0.0
  0
LINE
  5
60
  8
0
 10
472.0
 20
80.000000000000185
 30
0.0
 11
472.0
 21
137.3000000000001
 31
0.0
  0
LINE
  5
61
  8
0
 10
476.0
 20
80.0
 30
0.0
 11
476.0
 21
137.3000000000001
 31
0.0
  0
LINE
  5
63
  8
0
 10
476.0
 20
137.3000000000001
 30
0.0
 11
472.0
 21
137.3000000000001
 31
0.0
  0
LINE
  5
64
  8
0
 10
476.0
 20
95.0
 30
0.0
 11
482.0
 21
95.0
 31
0.0
  0
LINE
  5
65
  8
0
 10
482.0
 20
95.0
 30
0.0
 11
482.0
 21
80.0
 31
0.0
  0
LINE
  5
66
  8
0
 10
476.0
 20
80.0
 30
0.0
 11
482.0
 21
80.0
 31
0.0
  0
LINE
  5
67
  8
0
 10
476.0
 20
87.300000000000182
 30
0.0
 11
482.0
 21
87.300000000000182
 31
0.0
  0
LINE
  5
1B0
  8
0
 10
476.0
 20
323.367986717478
 30
0.0
 11
472.0
 21
323.367986717478
 31
0.0
  0
LINE
  5
1B1
  8
0
 10
476.0
 20
315.9000000000006
 30
0.0
 11
472.0
 21
315.9000000000006
 31
0.0
  0
LINE
  5
1B2
  8
0
 10
476.0
 20
305.29339302591239
 30
0.0
 11
472.0
 21
305.29339302591239
 31
0.0
  0
LINE
  5
1B3
  8
0
 10
476.0
 20
296.83734908284782
 30
0.0
 11
472.0
 21
296.83734908284782
 31
0.0
  0
LINE
  5
1B4
  8
0
 10
476.0
 20
272.00000000000091
 30
0.0
 11
472.0
 21
272.00000000000091
 31
0.0
  0
LINE
  5
1B5
  8
0
 10
476.0
 20
236.7240936592116
 30
0.0
 11
472.0
 21
236.7240936592116
 31
0.0
  0
LINE
  5
1B6
  8
0
 10
476.0
 20
228.33822435701319
 30
0.0
 11
472.0
 21
228.33822435701319
 31
0.0
  0
LINE
  5
1B7
  8
0
 10
476.0
 20
215.50000000000031
 30
0.0
 11
472.0
 21
215.50000000000031
 31
0.0
  0
LINE
  5
1B8
  8
0
 10
476.0
 20
197.26617003330921
 30
0.0
 11
472.0
 21
197.26617003330921
 31
0.0
  0
LINE
  5
1CB
  8
0
 10
130.0000000000004
 20
323.3679867174788
 30
0.0
 11
130.0
 21
333.30000000000018
 31
0.0
  0
LINE
  5
1CC
  8
0
 10
130.0
 20
296.83734908284811
 30
0.0
 11
130.0000000000004
 21
305.29339302591239
 31
0.0
  0
LINE
  5
1CD
  8
0
 10
129.99999999999949
 20
228.33822435701231
 30
0.0
 11
130.0
 21
236.72409365921251
 31
0.0
  0
LINE
  5
1CE
  8
0
 10
145.30000000000021
 20
215.50000000000099
 30
0.0
 11
129.99999999999949
 21
197.26617003330921
 31
0.0
  0
LINE
  5
1CF
  8
0
 10
145.30000000000021
 20
215.50000000000099
 30
0.0
 11
129.99999999999949
 21
228.33822435701319
 31
0.0
  0
LINE
  5
1D0
  8
0
 10
159.59999999999991
 20
272.00000000000091
 30
0.0
 11
129.99999999999949
 21
236.7240936592116
 31
0.0
  0
LINE
  5
1D1
  8
0
 10
159.59999999999991
 20
272.00000000000091
 30
0.0
 11
129.99999999999949
 21
296.83734908284811
 31
0.0
  0
LINE
  5
1D2
  8
0
 10
138.90000000000009
 20
315.9000000000006
 30
0.0
 11
129.99999999999949
 21
323.3679867174788
 31
0.0
  0
LINE
  5
1D3
  8
0
 10
138.90000000000009
 20
315.9000000000006
 30
0.0
 11
129.99999999999949
 21
305.29339302591148
 31
0.0
  0
LINE
  5
1D4
  8
0
 10
80.0
 20
87.300000000000182
 30
0.0
 11
76.0
 21
87.300000000000182
 31
0.0
  0
LINE
  5
1D5
  8
0
 10
180.0
 20
234.4000000000006
 30
0.0
 11
180.0
 21
187.30000000000021
 31
0.0
  0
LINE
  5
1D6
  8
0
 10
180.0
 20
333.30000000000018
 30
0.0
 11
180.0
 21
286.20000000000169
 31
0.0
  0
LINE
  5
1D7
  8
0
 10
180.0
 20
187.30000000000021
 30
0.0
 11
130.0
 21
187.30000000000021
 31
0.0
  0
LINE
  5
1D8
  8
0
 10
130.0
 20
187.30000000000021
 30
0.0
 11
129.99999999999949
 21
197.26617003330921
 31
0.0
  0
LINE
  5
1D9
  8
0
 10
130.0
 20
333.30000000000018
 30
0.0
 11
180.0
 21
333.30000000000018
 31
0.0
  0
LINE
  5
1DA
  8
1
 10
197.30000000000021
 20
260.30000000000018
 30
0.0
 11
119.9999999999998
 21
260.30000000000018
 31
0.0
  0
LINE
  5
1DB
  8
0
 10
180.0
 20
286.20000000000078
 30
0.0
 11
187.3000000000001
 21
286.20000000000078
 31
0.0
  0
LINE
  5
1DC
  8
0
 10
187.3000000000001
 20
286.20000000000078
 30
0.0
 11
187.3000000000001
 21
234.4000000000006
 31
0.0
  0
LINE
  5
1DD
  8
0
 10
187.3000000000001
 20
234.4000000000006
 30
0.0
 11
180.0
 21
234.4000000000006
 31
0.0
  0
LINE
  5
1DE
  8
2
 10
180.0
 20
295.30000000000018
 30
0.0
 11
172.3000000000001
 21
295.30000000000018
 31
0.0
  0
LINE
  5
1DF
  8
2
 10
172.3000000000001
 20
295.30000000000018
 30
0.0
 11
172.30000000000021
 21
225.30000000000021
 31
0.0
  0
LINE
  5
1E0
  8
2
 10
172.30000000000021
 20
225.30000000000021
 30
0.0
 11
180.0
 21
225.30000000000121
 31
0.0
  0
LINE
  5
1E1
  8
0
 10
76.0
 20
333.30000000000018
 30
0.0
 11
80.0
 21
333.30000000000018
 31
0.0
  0
LINE
  5
1E2
  8
0
 10
76.0
 20
187.3000000000001
 30
0.0
 11
76.0
 21
333.30000000000018
 31
0.0
  0
LINE
  5
1E3
  8
0
 10
80.0
 20
333.30000000000018
 30
0.0
 11
80.0
 21
187.3000000000001
 31
0.0
  0
LINE
  5
1E4
  8
0
 10
80.0
 20
187.3000000000001
 30
0.0
 11
76.0
 21
187.3000000000001
 31
0.0
  0
LINE
  5
1E5
  8
0
 10
70.0
 20
225.30000000000021
 30
0.0
 11
76.0
 21
225.30000000000021
 31
0.0
  0
LINE
  5
1E6
  8
0
 10
70.0
 20
295.30000000000018
 30
0.0
 11
70.0
 21
225.30000000000021
 31
0.0
  0
LINE
  5
1E7
  8
0
 10
76.0
 20
295.30000000000018
 30
0.0
 11
70.0
 21
295.30000000000018
 31
0.0
  0
LINE
  5
1E8
  8
1
 10
90.0
 20
260.30000000000018
 30
0.0
 11
60.0
 21
260.30000000000018
 31
0.0
  0
LINE
  5
1E9
  8
2
 10
76.0
 20
286.19999999999987
 30
0.0
 11
70.0
 21
286.20000000000078
 31
0.0
  0
LINE
  5
1EA
  8
2
 10
76.0
 20
234.4000000000006
 30
0.0
 11
70.0
 21
234.4000000000006
 31
0.0
  0
LINE
  5
1EB
  8
0
 10
80.0
 20
80.000000000000185
 30
0.0
 11
80.0
 21
137.3000000000001
 31
0.0
  0
LINE
  5
1EC
  8
0
 10
76.0
 20
80.0
 30
0.0
 11
76.0
 21
137.3000000000001
 31
0.0
  0
LINE
  5
1ED
  8
0
 10
76.0
 20
137.3000000000001
 30
0.0
 11
80.0
 21
137.3000000000001
 31
0.0
  0
LINE
  5
1EE
  8
0
 10
76.0
 20
95.0
 30
0.0
 11
70.0
 21
95.0
 31
0.0
  0
LINE
  5
1EF
  8
0
 10
70.0
 20
95.0
 30
0.0
 11
70.0
 21
80.0
 31
0.0
  0
LINE
  5
1F0
  8
0
 10
76.0
 20
80.0
 30
0.0
 11
70.0
 21
80.0
 31
0.0
  0
LINE
  5
1F1
  8
0
 10
76.0
 20
87.300000000000182
 30
0.0
 11
70.0
 21
87.300000000000182
 31
0.0
  0
LINE
  5
1F2
  8
0
 10
76.0
 20
323.367986717478
 30
0.0
 11
80.0
 21
323.367986717478
 31
0.0
  0
LINE
  5
1F3
  8
0
 10
76.0
 20
315.9000000000006
 30
0.0
 11
80.0
 21
315.9000000000006
 31
0.0
  0
LINE
  5
1F4
  8
0
 10
76.0
 20
305.29339302591239
 30
0.0
 11
80.0
 21
305.29339302591239
 31
0.0
  0
LINE
  5
1F5
  8
0
 10
76.0
 20
296.83734908284782
 30
0.0
 11
80.0
 21
296.83734908284782
 31
0.0
  0
LINE
  5
1F6
  8
0
 10
76.0
 20
272.00000000000091
 30
0.0
 11
80.0
 21
272.00000000000091
 31
0.0
  0
LINE
  5
1F7
  8
0
 10
76.0
 20
236.7240936592116
 30
0.0
 11
80.0
 21
236.7240936592116
 31
0.0
  0
LINE
  5
1F8
  8
0
 10
76.0
 20
228.33822435701319
 30
0.0
 11
80.0
 21
228.33822435701319
 31
0.0
  0
LINE
  5
1F9
  8
0
 10
76.0
 20
215.50000000000031
 30
0.0
 11
80.0
 21
215.50000000000031
 31
0.0
  0
LINE
  5
1FA
  8
0
 10
76.0
 20
197.26617003330921
 30
0.0
 11
80.0
 21
197.26617003330921
 31
0.0
  0
LINE
  5
223
  8
0
 10
472.0
 20
80.000000000000185
 30
0.0
 11
476.0
 21
80.000000000000185
 31
0.0
  0
LINE
  5
224
  8
0
 10
80.0
 20
80.000000000000185
 30
0.0
 11
76.0
 21
80.000000000000185
 31
0.0
  0
TEXT
  5
28F
  8
0
 62
     3
 10
50.0
 20
50.0
 30
0.0
 40
10.0
  1
MVCL150A40
  7
STANDARD1
  0
ENDSEC
  0
EOF
