  0
SECTION
  2
HEADER
  9
$ACADVER
  1
AC1009
  9
$INSBASE
 10
82.638099999999994
 20
103.82319099999999
 30
0.0
  9
$EXTMIN
 10
0.0
 20
-1.4802182810368341
 30
0.0
  9
$EXTMAX
 10
191.88052867948639
 20
46.250822906729347
 30
0.0
  9
$LIMMIN
 10
0.0
 20
0.0
  9
$LIMMAX
 10
187.5
 20
135.0
  9
$ORTHOMODE
 70
     1
  9
$REGENMODE
 70
     1
  9
$FILLMODE
 70
     1
  9
$QTEXTMODE
 70
     0
  9
$MIRRTEXT
 70
     0
  9
$DRAGMODE
 70
     2
  9
$LTSCALE
 40
5.0
  9
$OSMODE
 70
  3071
  9
$ATTMODE
 70
     1
  9
$TEXTSIZE
 40
0.06
  9
$TRACEWID
 40
0.05
  9
$TEXTSTYLE
  7
STANDARD
  9
$CLAYER
  8
0
  9
$CELTYPE
  6
BYLAYER
  9
$CECOLOR
 62
   256
  9
$DIMSCALE
 40
0.5
  9
$DIMASZ
 40
3.0
  9
$DIMEXO
 40
2.0
  9
$DIMDLI
 40
10.0
  9
$DIMRND
 40
0.0
  9
$DIMDLE
 40
0.0
  9
$DIMEXE
 40
2.0
  9
$DIMTP
 40
0.0
  9
$DIMTM
 40
0.0
  9
$DIMTXT
 40
3.0
  9
$DIMCEN
 40
0.0
  9
$DIMTSZ
 40
0.0
  9
$DIMTOL
 70
     0
  9
$DIMLIM
 70
     0
  9
$DIMTIH
 70
     0
  9
$DIMTOH
 70
     0
  9
$DIMSE1
 70
     0
  9
$DIMSE2
 70
     0
  9
$DIMTAD
 70
     1
  9
$DIMZIN
 70
     0
  9
$DIMBLK
  1

  9
$DIMASO
 70
     0
  9
$DIMSHO
 70
     0
  9
$DIMPOST
  1

  9
$DIMAPOST
  1

  9
$DIMALT
 70
     0
  9
$DIMALTD
 70
     2
  9
$DIMALTF
 40
25.399999999999999
  9
$DIMLFAC
 40
1.0
  9
$DIMTOFL
 70
     1
  9
$DIMTVP
 40
1.6000000000000001
  9
$DIMTIX
 70
     1
  9
$DIMSOXD
 70
     0
  9
$DIMSAH
 70
     0
  9
$DIMBLK1
  1

  9
$DIMBLK2
  1

  9
$DIMSTYLE
  2
STANDARD
  9
$DIMCLRD
 70
     0
  9
$DIMCLRE
 70
     0
  9
$DIMCLRT
 70
     0
  9
$DIMTFAC
 40
1.0
  9
$DIMGAP
 40
0.09
  9
$LUNITS
 70
     2
  9
$LUPREC
 70
     4
  9
$SKETCHINC
 40
0.1
  9
$FILLETRAD
 40
0.4
  9
$AUNITS
 70
     0
  9
$AUPREC
 70
     4
  9
$MENU
  1
E:\r13\win\SUPPORT\ACAD
  9
$ELEVATION
 40
0.0
  9
$PELEVATION
 40
0.0
  9
$THICKNESS
 40
0.0
  9
$LIMCHECK
 70
     0
  9
$BLIPMODE
 70
     0
  9
$CHAMFERA
 40
0.0
  9
$CHAMFERB
 40
0.0
  9
$SKPOLY
 70
     0
  9
$TDCREATE
 40
2449840.5914120371
  9
$TDUPDATE
 40
2456597.6703135301
  9
$TDINDWG
 40
0.0469594097
  9
$TDUSRTIMER
 40
0.0469594097
  9
$USRTIMER
 70
     1
  9
$ANGBASE
 50
0.0
  9
$ANGDIR
 70
     0
  9
$PDMODE
 70
     0
  9
$PDSIZE
 40
0.0
  9
$PLINEWID
 40
0.0
  9
$COORDS
 70
     1
  9
$SPLFRAME
 70
     0
  9
$SPLINETYPE
 70
     6
  9
$SPLINESEGS
 70
     8
  9
$ATTDIA
 70
     0
  9
$ATTREQ
 70
     1
  9
$HANDLING
 70
     1
  9
$HANDSEED
  5
B86
  9
$SURFTAB1
 70
     6
  9
$SURFTAB2
 70
     6
  9
$SURFTYPE
 70
     6
  9
$SURFU
 70
     6
  9
$SURFV
 70
     6
  9
$UCSNAME
  2

  9
$UCSORG
 10
0.0
 20
0.0
 30
0.0
  9
$UCSXDIR
 10
1.0
 20
0.0
 30
0.0
  9
$UCSYDIR
 10
0.0
 20
1.0
 30
0.0
  9
$PUCSNAME
  2

  9
$PUCSORG
 10
0.0
 20
0.0
 30
0.0
  9
$PUCSXDIR
 10
1.0
 20
0.0
 30
0.0
  9
$PUCSYDIR
 10
0.0
 20
1.0
 30
0.0
  9
$USERI1
 70
     3
  9
$USERI2
 70
     1
  9
$USERI3
 70
     0
  9
$USERI4
 70
     0
  9
$USERI5
 70
     0
  9
$USERR1
 40
0.5
  9
$USERR2
 40
3.0
  9
$USERR3
 40
3.0
  9
$USERR4
 40
3.0
  9
$USERR5
 40
10.0
  9
$WORLDVIEW
 70
     1
  9
$SHADEDGE
 70
     3
  9
$SHADEDIF
 70
    70
  9
$TILEMODE
 70
     1
  9
$MAXACTVP
 70
    16
  9
$PLIMCHECK
 70
     0
  9
$PEXTMIN
 10
1.0000000000000000E+020
 20
1.0000000000000000E+020
 30
1.0000000000000000E+020
  9
$PEXTMAX
 10
-1.0000000000000000E+020
 20
-1.0000000000000000E+020
 30
-1.0000000000000000E+020
  9
$PLIMMIN
 10
0.0
 20
0.0
  9
$PLIMMAX
 10
12.0
 20
9.0
  9
$UNITMODE
 70
     0
  9
$VISRETAIN
 70
     0
  9
$PLINEGEN
 70
     0
  9
$PSLTSCALE
 70
     0
  0
ENDSEC
  0
SECTION
  2
TABLES
  0
TABLE
  2
VPORT
 70
     1
  0
VPORT
  2
*ACTIVE
 70
     0
 10
0.0
 20
0.0
 11
1.0
 21
1.0
 12
95.940264786499966
 22
67.05183146954721
 13
0.0
 23
0.0
 14
5.0
 24
5.0
 15
10.0
 25
10.0
 16
0.0
 26
0.0
 36
1.0
 17
0.0
 27
0.0
 37
0.0
 40
138.6470298934976
 41
2.304913294797688
 42
50.0
 43
0.0
 44
0.0
 50
0.0
 51
0.0
 71
     0
 72
   100
 73
     1
 74
     0
 75
     0
 76
     0
 77
     0
 78
     2
  0
ENDTAB
  0
TABLE
  2
LTYPE
 70
     3
  0
LTYPE
  2
CONTINUOUS
 70
     0
  3
Solid Line
 72
    65
 73
     0
 40
0.0
  0
LTYPE
  2
CENTER
 70
     0
  3
____ _ ____ _ ____ _ ____ _ ____ _ ____ _ ____
 72
    65
 73
     4
 40
2.0
 49
1.25
 49
-0.25
 49
0.25
 49
-0.25
  0
LTYPE
  2
PHANTOM2
 70
     0
  3
___ _ _ ___ _ _ ___ _ _ ___ _ _
 72
    65
 73
     6
 40
1.25
 49
0.625
 49
-0.125
 49
0.125
 49
-0.125
 49
0.125
 49
-0.125
  0
ENDTAB
  0
TABLE
  2
LAYER
 70
     3
  0
LAYER
  2
0
 70
     0
 62
     7
  6
CONTINUOUS
  0
LAYER
  2
1
 70
     0
 62
     1
  6
CENTER
  0
LAYER
  2
3
 70
     0
 62
     3
  6
CONTINUOUS
  0
ENDTAB
  0
TABLE
  2
STYLE
 70
     2
  0
STYLE
  2
STANDARD
 70
     0
 40
0.0
 41
1.0
 50
0.0
 71
     0
 42
0.06
  3
TXT
  4
BIGFONT
  0
STYLE
  2
STANDARD1
 70
     0
 40
0.0
 41
1.0
 50
0.0
 71
     0
 42
3.0
  3
txt
  4

  0
ENDTAB
  0
TABLE
  2
VIEW
 70
     0
  0
ENDTAB
  0
TABLE
  2
UCS
 70
     0
  0
ENDTAB
  0
TABLE
  2
APPID
 70
     3
  0
APPID
  2
ACAD
 70
     0
  0
APPID
  2
ACAD_MLEADERVER
 70
     0
  0
APPID
  2
ACAD_NAV_VCDISPLAY
 70
     0
  0
ENDTAB
  0
TABLE
  2
DIMSTYLE
 70
     1
  0
DIMSTYLE
  2
STANDARD
 70
     0
  3

  4

  5

  6

  7

 40
1.0
 41
0.18
 42
0.0625
 43
0.38
 44
0.18
 45
0.0
 46
0.0
 47
0.0
 48
0.0
140
0.18
141
0.09
142
0.0
143
25.399999999999999
144
1.0
145
0.0
146
1.0
147
0.09
 71
     0
 72
     0
 73
     1
 74
     1
 75
     0
 76
     0
 77
     0
 78
     0
170
     0
171
     2
172
     0
173
     0
174
     0
175
     0
176
     0
177
     0
178
     0
  0
ENDTAB
  0
ENDSEC
  0
SECTION
  2
BLOCKS
  0
BLOCK
  8
0
  2
$MODEL_SPACE
 70
     0
 10
0.0
 20
0.0
 30
0.0
  3
$MODEL_SPACE
  1

  0
ENDBLK
  5
E4
  8
0
  0
BLOCK
 67
     1
  8
0
  2
$PAPER_SPACE
 70
     0
 10
0.0
 20
0.0
 30
0.0
  3
$PAPER_SPACE
  1

  0
ENDBLK
  5
E2
 67
     1
  8
0
  0
ENDSEC
  0
SECTION
  2
ENTITIES
  0
CIRCLE
  5
37F
  8
0
 10
29.28131265738708
 20
31.274722906729352
 30
0.0
 40
12.0
  0
CIRCLE
  5
3A4
  8
0
 10
176.9044286794863
 20
31.274722906729352
 30
0.0
 40
9.4019239999999922
  0
CIRCLE
  5
3A5
  8
3
 10
176.9044286794863
 20
31.274722906729352
 30
0.0
 40
10.375999999999999
  0
LINE
  5
3A7
  8
0
 10
173.4075177105432
 20
35.029283109374127
 30
0.0
 11
171.9044286794863
 21
34.161474252677472
 31
0.0
  0
LINE
  5
3A8
  8
0
 10
171.9044286794863
 20
34.161474252677472
 30
0.0
 11
171.90442867948639
 21
32.425856539284652
 31
0.0
  0
LINE
  5
3AA
  8
0
 10
171.9044286794863
 20
30.123589274174019
 30
0.0
 11
171.9044286794863
 21
28.387971560781221
 31
0.0
  0
LINE
  5
3AB
  8
0
 10
171.9044286794863
 20
28.387971560781221
 30
0.0
 11
173.40751771054281
 21
27.5201627040848
 31
0.0
  0
LINE
  5
3AD
  8
0
 10
175.40133964842951
 20
26.369029071529749
 30
0.0
 11
176.9044286794863
 21
25.501220214833079
 31
0.0
  0
LINE
  5
3AE
  8
0
 10
176.9044286794863
 20
25.501220214833079
 30
0.0
 11
178.40751771054281
 21
26.369029071529511
 31
0.0
  0
LINE
  5
3B0
  8
0
 10
180.40133964842951
 20
27.520162704084559
 30
0.0
 11
181.9044286794863
 21
28.387971560781221
 31
0.0
  0
LINE
  5
3B1
  8
0
 10
181.9044286794863
 20
28.387971560781221
 30
0.0
 11
181.9044286794863
 21
30.123589274174041
 31
0.0
  0
LINE
  5
3B3
  8
0
 10
181.9044286794863
 20
32.425856539284652
 30
0.0
 11
181.9044286794863
 21
34.161474252677472
 31
0.0
  0
LINE
  5
3B4
  8
0
 10
181.9044286794863
 20
34.161474252677472
 30
0.0
 11
180.40133964842991
 21
35.029283109373893
 31
0.0
  0
LINE
  5
3B6
  8
0
 10
178.40751771054281
 20
36.180416741929207
 30
0.0
 11
176.9044286794863
 21
37.048225598625613
 31
0.0
  0
LINE
  5
3B7
  8
0
 10
176.9044286794863
 20
37.048225598625613
 30
0.0
 11
175.40133964842991
 21
36.180416741929193
 31
0.0
  0
CIRCLE
  5
3BA
  8
0
 10
176.90442867948639
 20
31.274722906729352
 30
0.0
 40
12.00000000000003
  0
CIRCLE
  5
3C1
  8
0
 10
176.9044286794865
 20
31.274722906729352
 30
0.0
 40
1.7272000000000101
  0
LINE
  5
3DF
  8
3
 10
123.32651348002651
 20
41.650722906729349
 30
0.0
 11
84.451279653148575
 21
41.650722906729349
 31
0.0
  0
LINE
  5
3E0
  8
0
 10
85.388896566587576
 20
43.274722906729359
 30
0.0
 11
122.3888965665876
 21
43.27472290672938
 31
0.0
  0
LINE
  5
3E1
  8
1
 10
126.8888965665876
 20
31.274722906729369
 30
0.0
 11
74.888896566587604
 21
31.274722906729369
 31
0.0
  0
LINE
  5
3E2
  8
0
 10
85.388896566587576
 20
19.274722906729352
 30
0.0
 11
122.3888965665876
 21
19.274722906729359
 31
0.0
  0
LINE
  5
3E3
  8
3
 10
123.32651348002661
 20
20.898722906729361
 30
0.0
 11
84.451279653148532
 21
20.898722906729351
 31
0.0
  0
LINE
  5
3E4
  8
0
 10
123.8888965665876
 20
40.676646906729339
 30
0.0
 11
122.3888965665876
 21
43.274722906729352
 31
0.0
  0
LINE
  5
3E5
  8
0
 10
122.3888965665876
 20
19.274722906729352
 30
0.0
 11
122.3888965665876
 21
43.274722906729352
 31
0.0
  0
LINE
  5
3E6
  8
0
 10
123.8888965665876
 20
21.872798906729361
 30
0.0
 11
122.3888965665876
 21
19.274722906729352
 31
0.0
  0
LINE
  5
3E7
  8
0
 10
123.8888965665876
 20
21.872798906729361
 30
0.0
 11
123.8888965665876
 21
40.676646906729339
 31
0.0
  0
LINE
  5
3E8
  8
0
 10
83.888896566587604
 20
21.872798906729361
 30
0.0
 11
83.888896566587604
 21
40.676646906729339
 31
0.0
  0
LINE
  5
3E9
  8
0
 10
85.388896566587576
 20
19.274722906729352
 30
0.0
 11
85.388896566587576
 21
43.274722906729352
 31
0.0
  0
LINE
  5
3EA
  8
0
 10
83.888896566587604
 20
40.676646906729339
 30
0.0
 11
85.388896566587576
 21
43.274722906729352
 31
0.0
  0
LINE
  5
3EB
  8
0
 10
83.888896566587604
 20
21.872798906729361
 30
0.0
 11
85.388896566587576
 21
19.274722906729352
 31
0.0
  0
LINE
  5
3F0
  8
1
 10
14.30521265738707
 20
31.274722906729352
 30
0.0
 11
44.25741265738705
 21
31.274722906729352
 31
0.0
  0
LINE
  5
3F1
  8
1
 10
29.28131265738708
 20
46.250822906729347
 30
0.0
 11
29.28131265738708
 21
16.298622906729349
 31
0.0
  0
CIRCLE
  5
400
  8
0
 10
176.9044286794865
 20
31.274722906729352
 30
0.0
 40
5.1309167162264604
  0
LINE
  5
401
  8
1
 10
176.9044286794865
 20
46.250822906729347
 30
0.0
 11
176.9044286794865
 21
16.298622906729349
 31
0.0
  0
LINE
  5
402
  8
1
 10
161.9283286794865
 20
31.274722906729352
 30
0.0
 11
191.88052867948639
 21
31.274722906729352
 31
0.0
  0
LINE
  5
7A9
  8
0
 10
23.298066692434531
 20
31.272265014816409
 30
0.0
 11
21.858146660004881
 21
31.271673501811001
 31
0.0
  0
ARC
  5
7AA
  8
0
 10
22.702979718711759
 20
32.773341608589533
 30
0.0
 40
1.723006094011279
 50
240.08052502000359
 51
240.63805123126889
  0
ARC
  5
7AB
  8
0
 10
16.188541950275859
 20
28.569897672184741
 30
0.0
 40
6.270874036013792
 50
25.605190209483411
 51
35.013471502143609
  0
ARC
  5
7AC
  8
0
 10
15.110867482202879
 20
34.502910709198893
 30
0.0
 40
6.6378688211148953
 50
339.40460068445083
 51
354.92818732212498
  0
ARC
  5
7AD
  8
0
 10
18.65204769239983
 20
39.383696370896843
 30
0.0
 40
6.2708740360160959
 50
299.31931650443272
 51
308.72759779708878
  0
ARC
  5
7AE
  8
0
 10
22.702979718711759
 20
32.773341608589533
 30
0.0
 40
1.7230060940112839
 50
93.694736775303383
 51
94.252262986568454
  0
LINE
  5
7AF
  8
0
 10
23.889527874628531
 20
33.868541553968747
 30
0.0
 11
22.591948105265828
 21
34.492766506866758
 31
0.0
  0
ARC
  5
7B0
  8
0
 10
18.743512760393031
 20
33.675352997865453
 30
0.0
 40
5.1496401208384741
 50
332.1828344870425
 51
2.1499535195315889
  0
LINE
  5
7B1
  8
0
 10
26.633731656376479
 20
38.831115978993807
 30
0.0
 11
25.992794255945491
 21
40.660398985075062
 31
0.0
  0
ARC
  5
7B2
  8
0
 10
27.351007108456031
 20
40.108199108029481
 30
0.0
 40
1.466174224617953
 50
109.49903783352519
 51
157.8751318016125
  0
LINE
  5
7B3
  8
0
 10
26.861611304703018
 20
41.490283983932841
 30
0.0
 11
27.02059875878032
 21
41.526640553048111
 31
0.0
  0
ARC
  5
7B4
  8
0
 10
27.184983487253021
 20
40.082982283428493
 30
0.0
 40
1.45298710881987
 50
47.652441912728428
 51
96.496107322881016
  0
LINE
  5
7B5
  8
0
 10
28.381567683520871
 20
39.230803625367201
 30
0.0
 11
28.163753684863028
 21
41.156844676227131
 31
0.0
  0
ARC
  5
7B6
  8
0
 10
23.730887472830059
 20
43.437350279512678
 30
0.0
 40
6.2708740360187258
 50
308.46233306663049
 51
317.87061435928388
  0
ARC
  5
7B7
  8
0
 10
27.29452557852116
 20
39.962952493546908
 30
0.0
 40
1.47478812037528
 50
282.55830940424721
 51
283.20305003089783
  0
ARC
  5
7B8
  8
0
 10
28.993925095246261
 20
44.640879150299213
 30
0.0
 40
6.270874036012887
 50
247.8907450758571
 51
257.29902636851909
  0
LINE
  5
7B9
  8
0
 10
25.018656395958232
 20
38.052519231227507
 30
0.0
 11
23.986734871333201
 21
39.693316304184521
 31
0.0
  0
ARC
  5
7BA
  8
0
 10
25.433770524300261
 20
39.457192023401717
 30
0.0
 40
1.4661742246176199
 50
122.3561806906484
 51
170.73227465876019
  0
LINE
  5
7BB
  8
0
 10
24.649102077724191
 20
40.695724334598651
 30
0.0
 11
24.796013286675901
 21
40.766547405388913
 31
0.0
  0
ARC
  5
7BC
  8
0
 10
25.27752073326991
 20
39.395663705992781
 30
0.0
 40
1.4529871088196269
 50
60.509584769868063
 51
109.3532501800281
  0
ARC
  5
7BD
  8
0
 10
22.970083458151439
 20
44.366365238600139
 30
0.0
 40
6.637868821114945
 50
287.97602925587847
 51
303.49961589355303
  0
LINE
  5
7BE
  8
0
 10
23.61732851979048
 20
36.934055474138091
 30
0.0
 11
22.246167725145082
 21
38.304090197360949
 31
0.0
  0
ARC
  5
7BF
  8
0
 10
23.709465768634999
 20
38.395881770248081
 30
0.0
 40
1.4661742246180951
 50
135.21332354780489
 51
183.58941751589651
  0
LINE
  5
7C0
  8
0
 10
22.66887123163653
 20
39.428756334995029
 30
0.0
 11
22.79633945399803
 21
39.530494542959502
 31
0.0
  0
ARC
  5
7C1
  8
0
 10
23.575083560261099
 20
38.269991486999679
 30
0.0
 40
1.481657969007502
 50
73.869173389807997
 51
121.70794727461499
  0
ARC
  5
7C2
  8
0
 10
19.003386120487558
 20
39.824632288735252
 30
0.0
 40
6.2708740360136721
 50
334.17661878091349
 51
343.58490007357261
  0
ARC
  5
7C3
  8
0
 10
23.721597812737912
 20
38.24051267503188
 30
0.0
 40
1.4747881203752731
 50
308.27259511853259
 51
308.91733574518452
  0
ARC
  5
7C4
  8
0
 10
23.223027562285719
 20
43.192520775671703
 30
0.0
 40
6.2708740360167718
 50
273.60503079014632
 51
283.01331208280089
  0
LINE
  5
7C5
  8
0
 10
22.500016459019889
 20
35.531809150804008
 30
0.0
 11
20.858372122066591
 21
36.56238226250349
 31
0.0
  0
ARC
  5
7C6
  8
0
 10
22.264556681976991
 20
36.977486876308149
 30
0.0
 40
1.466174224617371
 50
148.07046640490969
 51
196.44656037304969
  0
LINE
  5
7C7
  8
0
 10
21.020215809786801
 20
37.752911051019801
 30
0.0
 11
21.121849256627939
 21
37.880462817589319
 31
0.0
  0
ARC
  5
7C8
  8
0
 10
22.161556939541128
 20
36.824850070773643
 30
0.0
 40
1.4816579690159459
 50
86.726316247095639
 51
134.56509013161329
  0
ARC
  5
7C9
  8
0
 10
17.914840904536842
 20
40.3315453540664
 30
0.0
 40
6.6378688211154229
 50
313.69031497016448
 51
329.21390160783773
  0
LINE
  5
7CA
  8
0
 10
21.722746905862319
 20
33.916094747147952
 30
0.0
 11
19.892937928565679
 21
34.555529008204928
 31
0.0
  0
ARC
  5
7CB
  8
0
 10
21.067704901070581
 20
35.263839794584008
 30
0.0
 40
1.3717804524738171
 50
159.1439714938551
 51
211.0873409979653
  0
LINE
  5
7CC
  8
0
 10
19.785806279212071
 20
35.752222362931889
 30
0.0
 11
19.85650862512389
 21
35.899191709920899
 31
0.0
  0
ARC
  5
7CD
  8
0
 10
21.105044600021021
 20
35.101402103242471
 30
0.0
 40
1.4816579690119049
 50
99.583459104169563
 51
147.42223298882479
  0
ARC
  5
7CE
  8
0
 10
16.311554169270011
 20
34.518499887097818
 30
0.0
 40
6.2708740360151651
 50
359.89090449519961
 51
9.2991857878570237
  0
ARC
  5
7CF
  8
0
 10
21.249839757365301
 20
35.138412763099382
 30
0.0
 40
1.4747881203752651
 50
333.98688083281888
 51
334.63162145946927
  0
LINE
  5
7D0
  8
0
 10
21.32449540130818
 20
32.167930930005042
 30
0.0
 11
19.39827604640675
 21
32.384162436525123
 31
0.0
  0
ARC
  5
7D1
  8
0
 10
20.385975180493428
 20
33.336124636568002
 30
0.0
 40
1.3717804524726269
 50
172.0011143509758
 51
223.94448385513289
  0
LINE
  5
7D2
  8
0
 10
19.027541088220659
 20
33.527013155700502
 30
0.0
 11
19.0637670223519
 21
33.686030426360453
 31
0.0
  0
ARC
  5
7D3
  8
0
 10
20.458524482017509
 20
33.186068461976511
 30
0.0
 40
1.48165796900754
 50
112.4406019612363
 51
160.27937584604129
  0
LINE
  5
7D4
  8
0
 10
21.32523193874917
 20
30.374977932863182
 30
0.0
 11
19.39919088788929
 21
30.157163934205329
 31
0.0
  0
ARC
  5
7D5
  8
0
 10
20.239776753576031
 20
31.358447522430879
 30
0.0
 40
1.466174224617375
 50
186.6418949763285
 51
235.01798894447839
  0
LINE
  5
7D6
  8
0
 10
18.783442819728549
 20
31.188864710640679
 30
0.0
 11
18.783375822475499
 21
31.35195611502235
 31
0.0
  0
ARC
  5
7D7
  8
0
 10
20.254415803890971
 20
31.17489197347879
 30
0.0
 40
1.481657969014246
 50
125.29774481849471
 51
173.13651870307021
  0
ARC
  5
7D8
  8
0
 10
20.368813409393081
 20
31.27106169006635
 30
0.0
 40
1.4747881203752611
 50
359.70116654710461
 51
0.3459071737546935
  0
ARC
  5
7D9
  8
0
 10
16.186324108208449
 20
33.968790321511932
 30
0.0
 40
6.2708740360174673
 50
325.03360221871782
 51
334.4418835113741
  0
LINE
  5
7DA
  8
0
 10
21.724919585122571
 20
28.627141905718819
 30
0.0
 11
19.895636579041341
 21
27.986204505287791
 31
0.0
  0
ARC
  5
7DB
  8
0
 10
20.447836456087028
 20
29.344417357798559
 30
0.0
 40
1.4661742246181999
 50
199.49903783356299
 51
247.8751318016125
  0
LINE
  5
7DC
  8
0
 10
19.065751580183559
 20
28.855021554045319
 30
0.0
 11
19.029395011068289
 21
29.014009008122631
 31
0.0
  0
ARC
  5
7DD
  8
0
 10
20.473053280687768
 20
29.178393736595361
 30
0.0
 40
1.452987108819745
 50
137.65244191272549
 51
186.49610732288261
  0
ARC
  5
7DE
  8
0
 10
15.11352451591924
 20
28.034893878927559
 30
0.0
 40
6.6378688211145258
 50
5.1188863987342001
 51
20.642473036410049
  0
LINE
  5
7DF
  8
0
 10
22.503516332888921
 20
27.012066645300571
 30
0.0
 11
20.862719259931911
 21
25.980145120675498
 31
0.0
  0
ARC
  5
7E0
  8
0
 10
21.098843540714569
 20
27.427180773642391
 30
0.0
 40
1.4661742246174181
 50
212.3561806906294
 51
260.73227465876511
  0
LINE
  5
7E1
  8
0
 10
19.86031122951778
 20
26.64251232706647
 30
0.0
 11
19.789488158727458
 21
26.78942353601823
 31
0.0
  0
ARC
  5
7E2
  8
0
 10
21.16037185812382
 20
27.270930982612189
 30
0.0
 40
1.452987108819833
 50
150.50958476987171
 51
199.35325018002439
  0
ARC
  5
7E3
  8
0
 10
18.658713542118331
 20
23.157019267476699
 30
0.0
 40
6.2708740360148116
 50
51.319475923769581
 51
60.727757216428238
  0
ARC
  5
7E4
  8
0
 10
21.253016842116239
 20
27.4044357658953
 30
0.0
 40
1.474788120375264
 50
25.41545226139036
 51
26.06019288803931
  0
ARC
  5
7E5
  8
0
 10
16.314223605677881
 20
28.020291180059608
 30
0.0
 40
6.2708740360174211
 50
350.74788793300331
 51
0.1561692256573061
  0
LINE
  5
7E6
  8
0
 10
25.548898158948699
 20
35.951080498937237
 30
0.0
 11
24.65066023974677
 21
37.076486510200603
 31
0.0
  0
ARC
  5
7E7
  8
0
 10
26.351456438221309
 20
37.352244177826719
 30
0.0
 40
1.7230060940112879
 50
188.6519535914328
 51
189.2094798026973
  0
ARC
  5
7E8
  8
0
 10
26.351456438221309
 20
37.352244177826719
 30
0.0
 40
1.7230060940112779
 50
42.26616534673137
 51
42.823691557996639
  0
LINE
  5
7E9
  8
0
 10
27.947518909744389
 20
37.107409471006797
 30
0.0
 11
27.626529876766341
 21
38.51109607790579
 31
0.0
  0
ARC
  5
7EA
  8
0
 10
24.587990070593492
 20
41.010275002006352
 30
0.0
 40
5.1496401208386509
 50
280.754263058471
 51
310.72138209095908
  0
ARC
  5
7EB
  8
0
 10
24.00466576281821
 20
35.479163394554348
 30
0.0
 40
1.7230060940112799
 50
214.36623930571861
 51
214.92376551698379
  0
ARC
  5
7EC
  8
0
 10
24.00466576281821
 20
35.479163394554348
 30
0.0
 40
1.723006094011277
 50
67.980451061018485
 51
68.537977272282845
  0
ARC
  5
7ED
  8
0
 10
19.20475317192523
 20
35.871772621364393
 30
0.0
 40
6.3446406798037014
 50
347.07769053737212
 51
0.7162147137766651
  0
ARC
  5
7EE
  8
0
 10
24.00466576281821
 20
35.479163394554348
 30
0.0
 40
1.723006094011273
 50
319.46038195923933
 51
323.4438346187622
  0
ARC
  5
7EF
  8
0
 10
22.550046610262399
 20
40.070174830633668
 30
0.0
 40
6.3446406798041286
 50
282.1880018642247
 51
295.82652604062957
  0
LINE
  5
7F0
  8
0
 10
26.639940816968451
 20
23.716157155204659
 30
0.0
 11
26.0005065559115
 21
21.886348177908019
 31
0.0
  0
ARC
  5
7F1
  8
0
 10
25.292195769532469
 20
23.06111515041243
 30
0.0
 40
1.371780452473413
 50
249.14397149384851
 51
301.08734099797221
  0
LINE
  5
7F2
  8
0
 10
24.803813201184511
 20
21.7792165285544
 30
0.0
 11
24.6568438541955
 21
21.849918874466201
 31
0.0
  0
ARC
  5
7F3
  8
0
 10
25.45463346087374
 20
23.098454849363179
 30
0.0
 40
1.4816579690116529
 50
189.5834591041646
 51
237.42223298883081
  0
LINE
  5
7F4
  8
0
 10
25.024226413312391
 20
24.4934267083622
 30
0.0
 11
23.993653301612941
 21
22.851782371408891
 31
0.0
  0
ARC
  5
7F5
  8
0
 10
22.980841568035519
 20
18.17789974219119
 30
0.0
 40
6.6378688211157311
 50
56.547457827307412
 51
72.071044464980503
  0
ARC
  5
7F6
  8
0
 10
27.30166442315582
 20
22.58486392520928
 30
0.0
 40
1.4747881203752631
 50
76.844023689964942
 51
77.488764316610343
  0
ARC
  5
7F7
  8
0
 10
23.740882055307392
 20
19.107539457714271
 30
0.0
 40
6.2708740360148614
 50
42.176459361574501
 51
51.584740654232711
  0
LINE
  5
7F8
  8
0
 10
28.17187312759123
 20
21.391686295749
 30
0.0
 11
28.388104634111329
 21
23.31790565065052
 31
0.0
  0
ARC
  5
7F9
  8
0
 10
27.219910927548341
 20
22.37938542983613
 30
0.0
 40
1.3717804524729791
 50
262.0011143509841
 51
313.9444838551214
  0
LINE
  5
7FA
  8
0
 10
27.029022408415901
 20
21.020951337562959
 30
0.0
 11
26.87000513775596
 21
21.057177271694201
 31
0.0
  0
ARC
  5
7FB
  8
0
 10
27.369967102140041
 20
22.45193473135998
 30
0.0
 40
1.481657969007717
 50
202.4406019612417
 51
250.27937584603981
  0
ARC
  5
7FC
  8
0
 10
29.00490671029641
 20
17.908335059189739
 30
0.0
 40
6.2708740360147361
 50
102.74804735234009
 51
112.1563286450003
  0
LINE
  5
7FD
  8
0
 10
30.615106405029621
 20
25.4420363424519
 30
0.0
 11
30.936095438007669
 21
24.038349735552909
 31
0.0
  0
ARC
  5
7FE
  8
0
 10
29.284084244615372
 20
24.527848476007421
 30
0.0
 40
1.723006094011283
 50
342.93766787714719
 51
343.49519408841178
  0
ARC
  5
7FF
  8
0
 10
34.831737841941589
 20
19.11209553394821
 30
0.0
 40
6.2708740360155293
 50
128.4623330666264
 51
137.8706143592822
  0
ARC
  5
800
  8
0
 10
29.287282957953149
 20
16.741221012606609
 30
0.0
 40
6.6378688211164594
 50
82.261743541592736
 51
97.785330179264335
  0
ARC
  5
801
  8
0
 10
29.284084244615372
 20
24.527848476007421
 30
0.0
 40
1.7230060940112719
 50
196.5518796324495
 51
197.10940584371201
  0
LINE
  5
802
  8
0
 10
27.632475776707231
 20
24.03699262269194
 30
0.0
 11
27.95231144460649
 21
25.44094247764389
 31
0.0
  0
ARC
  5
803
  8
0
 10
29.285752449638611
 20
20.46693720419961
 30
0.0
 40
5.149640120838777
 50
75.039977344184805
 51
105.0070963766731
  0
LINE
  5
804
  8
0
 10
33.013727155825343
 20
26.598365314521459
 30
0.0
 11
33.911965075027268
 21
25.472959303258111
 31
0.0
  0
ARC
  5
805
  8
0
 10
32.21116887655274
 20
25.197201635631981
 30
0.0
 40
1.7230060940112859
 50
8.6519535914312211
 51
9.2094798026973361
  0
ARC
  5
806
  8
0
 10
39.559239194285652
 20
22.724813524723629
 30
0.0
 40
6.2708740360128781
 50
154.17661878090979
 51
163.58490007357261
  0
ARC
  5
807
  8
0
 10
35.592541856623001
 20
18.18308057485757
 30
0.0
 40
6.6378688211160508
 50
107.9760292558784
 51
123.49961589355109
  0
ARC
  5
808
  8
0
 10
29.56870021952696
 20
17.90856666315716
 30
0.0
 40
6.2708740360153348
 50
67.890745075858888
 51
77.299026368515797
  0
ARC
  5
809
  8
0
 10
32.21116887655274
 20
25.197201635631981
 30
0.0
 40
1.7230060940112779
 50
222.266165346733
 51
222.8236915579983
  0
ARC
  5
80A
  8
0
 10
36.365393930258023
 20
22.76086892265187
 30
0.0
 40
6.3446406798017101
 50
141.3634048230833
 51
155.00192899949241
  0
ARC
  5
80B
  8
0
 10
32.21116887655274
 20
25.197201635631981
 30
0.0
 40
1.7230060940112759
 50
113.74609624495319
 51
117.72954890447561
  0
ARC
  5
80C
  8
0
 10
31.529770239442708
 20
20.42970766263991
 30
0.0
 40
6.3446406798018398
 50
76.473716149936024
 51
90.112240326344107
  0
LINE
  5
80D
  8
0
 10
34.673097440145511
 20
28.680904259489921
 30
0.0
 11
35.97067720950821
 21
28.056679306591921
 31
0.0
  0
ARC
  5
80E
  8
0
 10
34.557959551955832
 20
27.070282418904359
 30
0.0
 40
1.723006094011293
 50
34.366239305716292
 51
34.923765516981483
  0
ARC
  5
80F
  8
0
 10
42.25107114550309
 20
28.03094592636069
 30
0.0
 40
6.270874036014197
 50
179.89090449519799
 51
189.299185787857
  0
ARC
  5
810
  8
0
 10
40.6477844102373
 20
22.217900459392101
 30
0.0
 40
6.637868821115652
 50
133.69031497016221
 51
149.21390160783699
  0
ARC
  5
811
  8
0
 10
35.339597752488459
 20
19.356925037785139
 30
0.0
 40
6.2708740360186113
 50
93.605030790146301
 51
103.0133120827976
  0
ARC
  5
812
  8
0
 10
34.557959551955832
 20
27.070282418904359
 30
0.0
 40
1.723006094011277
 50
247.9804510610185
 51
248.53797727228289
  0
ARC
  5
813
  8
0
 10
37.733947940583931
 20
24.539649909885298
 30
0.0
 40
5.1496401208388569
 50
126.4685487727554
 51
156.43566780524321
  0
LINE
  5
814
  8
0
 10
35.264558622339543
 20
31.277180798642291
 30
0.0
 11
36.70447865476919
 21
31.277772311647709
 31
0.0
  0
ARC
  5
815
  8
0
 10
35.859645596062279
 20
29.77610420486911
 30
0.0
 40
1.723006094011279
 50
60.080525020003577
 51
60.638051231268889
  0
ARC
  5
816
  8
0
 10
42.374083364497032
 20
33.979548141273291
 30
0.0
 40
6.270874036012474
 50
205.60519020948189
 51
215.01347150214499
  0
ARC
  5
817
  8
0
 10
43.451757832570472
 20
28.046535104259821
 30
0.0
 40
6.6378688211142061
 50
159.4046006844471
 51
174.92818732212339
  0
ARC
  5
818
  8
0
 10
39.910577622373843
 20
23.165749442562198
 30
0.0
 40
6.2708740360155808
 50
119.3193165044291
 51
128.72759779708829
  0
ARC
  5
819
  8
0
 10
35.859645596062279
 20
29.77610420486911
 30
0.0
 40
1.723006094011283
 50
273.6947367753034
 51
274.2522629865685
  0
ARC
  5
81A
  8
0
 10
40.354564168450281
 20
31.504979536636199
 30
0.0
 40
6.3446406798039447
 50
192.7919762516577
 51
206.4305004280628
  0
ARC
  5
81B
  8
0
 10
35.859645596062279
 20
29.77610420486911
 30
0.0
 40
1.7230060940112839
 50
165.174667673524
 51
169.15812033304709
  0
ARC
  5
81C
  8
0
 10
39.162177375386477
 20
26.27088142568136
 30
0.0
 40
6.3446406798030823
 50
127.9022875785093
 51
141.54081175491569
  0
LINE
  5
81D
  8
0
 10
34.670964561478492
 20
33.872970522157203
 30
0.0
 11
35.96803103509211
 21
34.498261344660897
 31
0.0
  0
ARC
  5
81E
  8
0
 10
35.858412123705079
 20
32.778745804089567
 30
0.0
 40
1.723006094011281
 50
85.79481073428839
 51
86.352336945554654
  0
ARC
  5
81F
  8
0
 10
39.903911772655881
 20
39.392426545982062
 30
0.0
 40
6.2708740360149244
 50
231.31947592377011
 51
240.72775721642819
  0
ARC
  5
820
  8
0
 10
43.449100798854602
 20
34.514551934530907
 30
0.0
 40
6.6378688211142389
 50
185.11888639873419
 51
200.64247303641011
  0
ARC
  5
821
  8
0
 10
42.376301206565351
 20
28.580655491946771
 30
0.0
 40
6.270874036017223
 50
145.03360221871711
 51
154.44188351137191
  0
ARC
  5
822
  8
0
 10
35.858412123705079
 20
32.778745804089567
 30
0.0
 40
1.723006094011273
 50
299.40902248958918
 51
299.96654870085439
  0
ARC
  5
823
  8
0
 10
39.817136660944698
 20
33.68400995264642
 30
0.0
 40
5.1496401208389768
 50
177.89712020132691
 51
207.86423923381579
  0
LINE
  5
824
  8
0
 10
33.0098838412693
 20
35.954145440020802
 30
0.0
 11
33.907196833491362
 21
37.080289055937271
 31
0.0
  0
ARC
  5
825
  8
0
 10
34.554503439212141
 20
35.483497222857473
 30
0.0
 40
1.723006094011289
 50
111.50909644857489
 51
112.0666226598393
  0
ARC
  5
826
  8
0
 10
35.329804148404413
 20
43.19749418783092
 30
0.0
 40
6.2708740360119073
 50
257.03376163805342
 51
266.44204293071618
  0
ARC
  5
827
  8
0
 10
40.640339567202943
 20
40.340880891951002
 30
0.0
 40
6.6378688211151369
 50
210.8331721130198
 51
226.3567587506941
  0
ARC
  5
828
  8
0
 10
42.248401709096413
 20
34.52915463339901
 30
0.0
 40
6.2708740360176636
 50
170.74788793300331
 51
180.15616922565891
  0
ARC
  5
829
  8
0
 10
34.554503439212141
 20
35.483497222857473
 30
0.0
 40
1.7230060940112839
 50
325.12330820387518
 51
325.68083441513988
  0
ARC
  5
82A
  8
0
 10
36.005350165643343
 20
40.075702211922021
 30
0.0
 40
6.3446406798033088
 50
244.220547680229
 51
257.85907185663621
  0
ARC
  5
82B
  8
0
 10
34.554503439212141
 20
35.483497222857473
 30
0.0
 40
1.7230060940112799
 50
216.6032391020976
 51
220.5866917616203
  0
ARC
  5
82C
  8
0
 10
39.354091845767442
 20
35.880049883717682
 30
0.0
 40
6.3446406798022981
 50
179.33085900707849
 51
192.9693831834883
  0
LINE
  5
82D
  8
0
 10
30.61031387016758
 20
37.108503335814873
 30
0.0
 11
30.930149538066821
 21
38.512453190766678
 31
0.0
  0
ARC
  5
82E
  8
0
 10
32.206174648937832
 20
37.3546492710866
 30
0.0
 40
1.7230060940112719
 50
137.2233821628613
 51
137.78090837412549
  0
ARC
  5
82F
  8
0
 10
29.557718604477941
 20
44.641110754268141
 30
0.0
 40
6.2708740360138657
 50
282.74804735234181
 51
292.15632864500031
  0
ARC
  5
830
  8
0
 10
35.581783746738147
 20
44.37154607126643
 30
0.0
 40
6.6378688211145978
 50
236.54745782730561
 51
252.07104446498229
  0
ARC
  5
831
  8
0
 10
39.55221119402276
 20
39.833073658397673
 30
0.0
 40
6.2708740360149857
 50
196.46217364728761
 51
205.8704549399454
  0
ARC
  5
832
  8
0
 10
32.206174648937832
 20
37.3546492710866
 30
0.0
 40
1.723006094011275
 50
350.83759391816119
 51
351.39512012942652
  0
ARC
  5
833
  8
0
 10
33.966635014983147
 20
41.014127709332371
 30
0.0
 40
5.1496401208385638
 50
229.3256916298989
 51
259.29281066238832
  0
ARC
  5
834
  8
0
 10
29.278541070158639
 20
38.021597337451283
 30
0.0
 40
1.723006094011275
 50
162.9376678771452
 51
163.49519408841019
  0
ARC
  5
835
  8
0
 10
29.275342356820829
 20
45.808224800850383
 30
0.0
 40
6.6378688211147088
 50
262.26174354159281
 51
277.78533017926759
  0
ARC
  5
836
  8
0
 10
34.821743259465912
 20
43.441906355743377
 30
0.0
 40
6.2708740360135966
 50
222.1764593615722
 51
231.58474065423269
  0
ARC
  5
837
  8
0
 10
29.278541070158639
 20
38.021597337451283
 30
0.0
 40
1.723006094011289
 50
16.55187963244596
 51
17.109405843711979
  0
ARC
  5
838
  8
0
 10
26.59279877375138
 20
42.019107963137088
 30
0.0
 40
6.3446406798029438
 50
295.6491191088009
 51
309.28764328520822
  0
ARC
  5
839
  8
0
 10
29.278541070158639
 20
38.021597337451283
 30
0.0
 40
1.7230060940112759
 50
268.03181053066919
 51
272.01526319019109
  0
ARC
  5
83A
  8
0
 10
31.960998140049409
 20
42.02131319653278
 30
0.0
 40
6.3446406798043506
 50
230.75943043565411
 51
244.3979546120564
  0
LINE
  5
83B
  8
0
 10
23.621980089978312
 20
25.610738769132809
 30
0.0
 11
22.251945366755479
 21
24.239577974487421
 31
0.0
  0
ARC
  5
83C
  8
0
 10
22.160153793868151
 20
25.702876017976958
 30
0.0
 40
1.4661742246177349
 50
225.2133235478164
 51
273.58941751590459
  0
LINE
  5
83D
  8
0
 10
21.12727922913157
 20
24.662281480966271
 30
0.0
 11
21.025541021156929
 21
24.789749703340309
 31
0.0
  0
ARC
  5
83E
  8
0
 10
22.286044077116799
 20
25.56849380960341
 30
0.0
 40
1.481657969007574
 50
163.8691733898082
 51
211.70794727461279
  0
ARC
  5
83F
  8
0
 10
17.922285747570779
 20
22.208564921507278
 30
0.0
 40
6.6378688211156751
 50
30.833172113021341
 51
46.35675875069419
  0
ARC
  5
840
  8
0
 10
23.578548687808311
 20
24.2579669313198
 30
0.0
 40
1.4661742246178671
 50
238.07046640494781
 51
286.4465603730431
  0
LINE
  5
841
  8
0
 10
22.803124513109029
 20
23.01362605911936
 30
0.0
 11
22.675572746527081
 21
23.11525950597024
 31
0.0
  0
ARC
  5
842
  8
0
 10
23.731185493342711
 20
24.154967188883401
 30
0.0
 40
1.4816579690158671
 50
176.7263162470957
 51
224.56509013161781
  0
ARC
  5
843
  8
0
 10
23.232821166369291
 20
19.351951625624249
 30
0.0
 40
6.2708740360154218
 50
77.033761638056745
 51
86.442042930714578
  0
ARC
  5
844
  8
0
 10
23.727322721640459
 20
24.30436767592326
 30
0.0
 40
1.4747881203752651
 50
51.129737975675447
 51
51.774478602325338
  0
ARC
  5
845
  8
0
 10
19.01041412075239
 20
22.716372155061439
 30
0.0
 40
6.2708740360138426
 50
16.4621736472861
 51
25.870454939945471
  0
ARC
  5
846
  8
0
 10
29.365037273088689
 20
40.316258810540141
 30
0.0
 40
1.466174224617605
 50
96.641894976336673
 51
145.01798894447251
  0
LINE
  5
847
  8
0
 10
29.195454461298372
 20
41.772592744387843
 30
0.0
 11
29.358545865680039
 21
41.772659741640858
 31
0.0
  0
ARC
  5
848
  8
0
 10
29.18148172413655
 20
40.301619760225492
 30
0.0
 40
1.4816579690141229
 50
35.297744818491772
 51
83.136518703071744
  0
LINE
  5
849
  8
0
 10
30.174520680662742
 20
39.231540162808223
 30
0.0
 11
30.390752187182809
 21
41.15775951770965
 31
0.0
  0
LINE
  5
84A
  8
0
 10
23.891660753295579
 20
28.676475291301472
 30
0.0
 11
22.594594279681989
 21
28.051184468797771
 31
0.0
  0
ARC
  5
84B
  8
0
 10
22.704213191068991
 20
29.770700009369111
 30
0.0
 40
1.7230060940112879
 50
265.79481073429002
 51
266.35233694555632
  0
ARC
  5
84C
  8
0
 10
22.704213191068991
 20
29.770700009369111
 30
0.0
 40
1.7230060940112799
 50
119.4090224895892
 51
119.9665487008544
  0
ARC
  5
84D
  8
0
 10
19.404562387007189
 20
26.262765081746689
 30
0.0
 40
6.3446406798026489
 50
38.506261965942798
 51
52.144786142351087
  0
ARC
  5
84E
  8
0
 10
22.704213191068991
 20
29.770700009369111
 30
0.0
 40
1.723006094011287
 50
10.88895338781078
 51
14.87240604733242
  0
ARC
  5
84F
  8
0
 10
18.20787570676563
 20
31.495881771511929
 30
0.0
 40
6.3446406798029358
 50
333.61657329279478
 51
347.25509746920221
  0
LINE
  5
850
  8
0
 10
25.552741473504799
 20
26.59530037343788
 30
0.0
 11
24.65542848128274
 21
25.469156757521429
 31
0.0
  0
ARC
  5
851
  8
0
 10
24.008121875561962
 20
27.065948590601181
 30
0.0
 40
1.723006094011281
 50
291.50909644857671
 51
292.06662265984107
  0
ARC
  5
852
  8
0
 10
24.008121875561962
 20
27.065948590601181
 30
0.0
 40
1.723006094011269
 50
145.1233082038745
 51
145.68083441513991
  0
ARC
  5
853
  8
0
 10
20.834213704572711
 20
24.5327075711694
 30
0.0
 40
5.1496401208388223
 50
23.61140591561448
 51
53.578524948101197
  0
ARC
  5
854
  8
0
 10
26.35645066583626
 20
25.19479654237211
 30
0.0
 40
1.723006094011277
 50
62.317524816385827
 51
66.300977475905356
  0
ARC
  5
855
  8
0
 10
22.20422868403708
 20
22.755051576392528
 30
0.0
 40
6.3446406798005439
 50
25.045144721363211
 51
38.68366889777581
  0
ARC
  5
856
  8
0
 10
26.35645066583626
 20
25.19479654237211
 30
0.0
 40
1.723006094011279
 50
317.22338216286192
 51
317.78090837412321
  0
ARC
  5
857
  8
0
 10
26.35645066583626
 20
25.19479654237211
 30
0.0
 40
1.723006094011273
 50
170.83759391816119
 51
171.39512012942649
  0
ARC
  5
858
  8
0
 10
27.041766004673178
 20
20.427864009648829
 30
0.0
 40
6.344640679802847
 50
89.934833394514925
 51
103.5733575709221
  0
ARC
  5
859
  8
0
 10
29.283106037358319
 20
26.909098275085739
 30
0.0
 40
2.13453742061367
 50
53.190356126758218
 51
63.512370366077633
  0
LINE
  5
85A
  8
0
 10
30.562031992603298
 20
28.618074109028608
 30
0.0
 11
31.416687633921871
 21
26.845226757135009
 31
0.0
  0
ARC
  5
85B
  8
0
 10
29.283106037358319
 20
26.909098275085739
 30
0.0
 40
2.1345374206136571
 50
354.9802197226835
 51
358.28528902267141
  0
ARC
  5
85C
  8
0
 10
29.283106037358319
 20
26.909098275085739
 30
0.0
 40
2.1345374206136669
 50
181.76178469818859
 51
185.06685399817559
  0
LINE
  5
85D
  8
0
 10
27.149577637177028
 20
26.843473846555302
 30
0.0
 11
28.002776434034448
 21
28.617022777765101
 31
0.0
  0
ARC
  5
85E
  8
0
 10
29.283106037358319
 20
26.909098275085739
 30
0.0
 40
2.1345374206136638
 50
116.5347033547793
 51
126.85671759409669
  0
ARC
  5
85F
  8
0
 10
29.28590276163564
 20
20.101032729340261
 30
0.0
 40
8.7700619918996612
 50
83.786490673734349
 51
96.260583047122566
  0
ARC
  5
860
  8
0
 10
32.69561358916684
 20
28.554202591077878
 30
0.0
 40
2.1345374206136452
 50
104.61892755532899
 51
114.9409417946474
  0
LINE
  5
861
  8
0
 10
32.156879769840941
 20
30.619636170720302
 30
0.0
 11
34.075816719624612
 21
30.182480613614128
 31
0.0
  0
ARC
  5
862
  8
0
 10
32.69561358916684
 20
28.554202591077878
 30
0.0
 40
2.1345374206136469
 50
46.408791151252942
 51
49.71386045124261
  0
ARC
  5
863
  8
0
 10
32.69561358916684
 20
28.554202591077878
 30
0.0
 40
2.1345374206136678
 50
233.19035612675819
 51
236.49542542674729
  0
ARC
  5
864
  8
0
 10
32.69561358916684
 20
28.554202591077878
 30
0.0
 40
2.134537420613658
 50
167.96327478335149
 51
178.28528902267141
  0
ARC
  5
865
  8
0
 10
38.020117296600432
 20
24.311629720008771
 30
0.0
 40
8.7700619918975953
 50
135.21506210230299
 51
147.6891544756956
  0
ARC
  5
866
  8
0
 10
33.537082900298707
 20
32.247914193256577
 30
0.0
 40
2.1345374206136492
 50
156.04749898390131
 51
166.36951322322
  0
LINE
  5
867
  8
0
 10
31.586366860521512
 20
33.114491905960961
 30
0.0
 11
33.124586456403001
 21
34.342215194491423
 31
0.0
  0
ARC
  5
868
  8
0
 10
33.537082900298707
 20
32.247914193256577
 30
0.0
 40
2.1345374206136518
 50
97.837362579824543
 51
101.142431879813
  0
ARC
  5
869
  8
0
 10
33.537082900298707
 20
32.247914193256577
 30
0.0
 40
2.1345374206136731
 50
284.61892755533057
 51
287.92399685531967
  0
ARC
  5
86A
  8
0
 10
33.537082900298707
 20
32.247914193256577
 30
0.0
 40
2.1345374206136598
 50
219.39184621192339
 51
229.7138604512426
  0
ARC
  5
86B
  8
0
 10
40.173833699110439
 20
33.765577901492122
 30
0.0
 40
8.7700619918988956
 50
186.64363353087651
 51
199.1177259042675
  0
ARC
  5
86C
  8
0
 10
31.173870416625789
 20
35.2087929071958
 30
0.0
 40
2.1345374206136518
 50
207.4760704124744
 51
217.79808465179289
  0
LINE
  5
86D
  8
0
 10
29.28010112170503
 20
34.223964060331902
 30
0.0
 11
29.279292634024081
 21
36.192065517244522
 31
0.0
  0
ARC
  5
86E
  8
0
 10
31.173870416625789
 20
35.2087929071958
 30
0.0
 40
2.1345374206136589
 50
149.2659340083963
 51
152.57100330838441
  0
ARC
  5
86F
  8
0
 10
31.173870416625789
 20
35.2087929071958
 30
0.0
 40
2.1345374206136731
 50
336.04749898390281
 51
339.35256828388958
  0
ARC
  5
870
  8
0
 10
31.173870416625789
 20
35.2087929071958
 30
0.0
 40
2.1345374206136549
 50
270.8204176404966
 51
281.14243187981458
  0
ARC
  5
871
  8
0
 10
34.125259590264932
 20
41.343861467737661
 30
0.0
 40
8.7700619918989098
 50
238.07220495944799
 51
250.54629733283929
  0
ARC
  5
872
  8
0
 10
27.385523339103319
 20
35.20723667038061
 30
0.0
 40
2.1345374206136549
 50
258.90464184104462
 51
269.22665608036289
  0
LINE
  5
873
  8
0
 10
26.97474769396791
 20
33.11259747248431
 30
0.0
 11
25.435519930438431
 21
34.339056558770501
 31
0.0
  0
ARC
  5
874
  8
0
 10
27.385523339103319
 20
35.20723667038061
 30
0.0
 40
2.1345374206136598
 50
200.694505436969
 51
203.9995747369573
  0
ARC
  5
875
  8
0
 10
27.385523339103319
 20
35.20723667038061
 30
0.0
 40
2.1345374206136549
 50
27.476070412472222
 51
30.78113971246086
  0
ARC
  5
876
  8
0
 10
27.385523339103319
 20
35.20723667038061
 30
0.0
 40
2.1345374206136611
 50
322.24898906906662
 51
332.57100330838591
  0
ARC
  5
877
  8
0
 10
24.42909464245227
 20
41.339878324548749
 30
0.0
 40
8.7700619918986362
 50
289.50077638802082
 51
301.9748687614109
  0
ARC
  5
878
  8
0
 10
25.024744285303029
 20
32.244417360874202
 30
0.0
 40
2.134537420613654
 50
310.33321326961709
 51
320.65522750893439
  0
LINE
  5
879
  8
0
 10
26.406284729036091
 20
30.61727385081435
 30
0.0
 11
24.48770759012012
 21
30.178541859294508
 31
0.0
  0
ARC
  5
87A
  8
0
 10
25.024744285303029
 20
32.244417360874202
 30
0.0
 40
2.1345374206136509
 50
252.12307686554021
 51
255.42814616552911
  0
ARC
  5
87B
  8
0
 10
25.024744285303029
 20
32.244417360874202
 30
0.0
 40
2.134537420613666
 50
78.904641841044622
 51
82.209711141033083
  0
ARC
  5
87C
  8
0
 10
25.024744285303029
 20
32.244417360874202
 30
0.0
 40
2.134537420613658
 50
13.67756049763825
 51
23.999574736957278
  0
ARC
  5
87D
  8
0
 10
18.386748827093921
 20
33.75662785998864
 30
0.0
 40
8.7700619918998637
 50
340.92934781659278
 51
353.40344018998138
  0
LINE
  5
87E
  8
0
 10
30.181057631253111
 20
23.31864218809153
 30
0.0
 11
30.39887162991096
 21
21.392601137231591
 31
0.0
  0
ARC
  5
87F
  8
0
 10
29.197588041685471
 20
22.233187002918299
 30
0.0
 40
1.4661742246173139
 50
276.64189497632361
 51
325.01798894447842
  0
LINE
  5
880
  8
0
 10
29.367170853489942
 20
20.776853069070992
 30
0.0
 11
29.204079449093939
 21
20.776786071817838
 31
0.0
  0
ARC
  5
881
  8
0
 10
29.38114359063988
 20
22.247826053235741
 30
0.0
 40
1.4816579690169269
 50
215.2977448184071
 51
263.1365187029914
  0
LINE
  5
882
  8
0
 10
31.928893658397499
 20
23.718329834464889
 30
0.0
 11
32.569831058828498
 21
21.889046828383641
 31
0.0
  0
ARC
  5
883
  8
0
 10
31.211618206318459
 20
22.441246705428799
 30
0.0
 40
1.4661742246173211
 50
289.49903783346463
 51
337.87513180161972
  0
LINE
  5
884
  8
0
 10
31.701014010070971
 20
21.059161829525859
 30
0.0
 11
31.542026555993662
 21
21.022805260410589
 31
0.0
  0
ARC
  5
885
  8
0
 10
31.377641827520851
 20
22.466463530029952
 30
0.0
 40
1.452987108819598
 50
227.65244191272441
 51
276.4961073228875
  0
ARC
  5
886
  8
0
 10
31.268099736252822
 20
22.586493319911831
 30
0.0
 40
1.474788120375248
 50
102.55830940424561
 51
103.20305003089609
  0
LINE
  5
887
  8
0
 10
33.543968918815779
 20
24.4969265822312
 30
0.0
 11
34.575890443440812
 21
22.85612950927419
 31
0.0
  0
ARC
  5
888
  8
0
 10
33.128854790473362
 20
23.092253790057161
 30
0.0
 40
1.466174224618032
 50
302.35618069067192
 51
350.73227465875522
  0
LINE
  5
889
  8
0
 10
33.913523237049823
 20
21.853721478860049
 30
0.0
 11
33.766612028098109
 21
21.782898408069801
 31
0.0
  0
ARC
  5
88A
  8
0
 10
33.285104581504129
 20
23.15378210746621
 30
0.0
 40
1.452987108819936
 50
240.50958476987171
 51
289.35325018002482
  0
LINE
  5
88B
  8
0
 10
34.945296794983541
 20
25.615390339320591
 30
0.0
 11
36.316457589628897
 21
24.245355616097761
 31
0.0
  0
ARC
  5
88C
  8
0
 10
34.853159546143822
 20
24.153564043209769
 30
0.0
 40
1.4661742246133489
 50
315.21332354723381
 51
3.589417515938949
  0
LINE
  5
88D
  8
0
 10
35.89375408313731
 20
23.1206894784635
 30
0.0
 11
35.76628586077593
 21
23.018951270499151
 31
0.0
  0
ARC
  5
88E
  8
0
 10
34.987541754512883
 20
24.279454326459192
 30
0.0
 40
1.481657969007675
 50
253.86917338981141
 51
301.707947274611
  0
ARC
  5
88F
  8
0
 10
34.841027502036098
 20
24.308933138426799
 30
0.0
 40
1.4747881203752731
 50
128.27259511853251
 51
128.91733574518261
  0
LINE
  5
890
  8
0
 10
36.062608855754149
 20
27.017636662654638
 30
0.0
 11
37.704253192707462
 21
25.98706355095516
 31
0.0
  0
ARC
  5
891
  8
0
 10
36.298068632796628
 20
25.571958937150558
 30
0.0
 40
1.466174224617754
 50
328.07046640492882
 51
16.446560373043109
  0
LINE
  5
892
  8
0
 10
37.542409504996613
 20
24.79653476245085
 30
0.0
 11
37.440776058146071
 21
24.668982995869332
 31
0.0
  0
ARC
  5
893
  8
0
 10
36.401068375236122
 20
25.72459574267651
 30
0.0
 40
1.4816579690076239
 50
266.72631624695208
 51
314.56509013175491
  0
LINE
  5
894
  8
0
 10
36.839878408911723
 20
28.633351066310691
 30
0.0
 11
38.669687386208352
 21
27.99391680525375
 31
0.0
  0
ARC
  5
895
  8
0
 10
37.494920413704421
 20
27.28560601887472
 30
0.0
 40
1.3717804524729651
 50
339.14397149384331
 51
31.087340997983549
  0
LINE
  5
896
  8
0
 10
38.776819035561999
 20
26.797223450526811
 30
0.0
 11
38.706116689650088
 21
26.650254103537659
 31
0.0
  0
ARC
  5
897
  8
0
 10
37.457580714752879
 20
27.448043710216378
 30
0.0
 40
1.4816579690121039
 50
279.5834591041729
 51
327.42223298881902
  0
ARC
  5
898
  8
0
 10
37.312785557408752
 20
27.411033050359269
 30
0.0
 40
1.4747881203752711
 50
153.98688083281749
 51
154.63162145946711
  0
LINE
  5
899
  8
0
 10
37.238129913465883
 20
30.381514883453629
 30
0.0
 11
39.164349268367317
 21
30.16528337693353
 31
0.0
  0
ARC
  5
89A
  8
0
 10
38.17665013428018
 20
29.21332117689056
 30
0.0
 40
1.371780452473065
 50
352.0011143509841
 51
43.944483855121398
  0
LINE
  5
89B
  8
0
 10
39.53508422655338
 20
29.02243265775812
 30
0.0
 11
39.49885829242217
 21
28.8634153870982
 31
0.0
  0
ARC
  5
89C
  8
0
 10
38.104100832756473
 20
29.3633773514822
 30
0.0
 40
1.481657969007617
 50
292.44060196123962
 51
340.27937584604291
  0
LINE
  5
89D
  8
0
 10
37.237393376024869
 20
32.174467880595472
 30
0.0
 11
39.163434426884812
 21
32.392281879253318
 31
0.0
  0
ARC
  5
89E
  8
0
 10
38.322848561197759
 20
31.190998291027629
 30
0.0
 40
1.4661742246176841
 50
6.6418949763383699
 51
55.017988944470261
  0
LINE
  5
89F
  8
0
 10
39.779182495045518
 20
31.360581102817982
 30
0.0
 11
39.779249492298533
 21
31.1974896984363
 31
0.0
  0
ARC
  5
8A0
  8
0
 10
38.308209510873951
 20
31.37455383998525
 30
0.0
 40
1.4816579690239149
 50
305.29774481866281
 51
353.13651870290778
  0
ARC
  5
8A1
  8
0
 10
38.193811905380947
 20
31.2783841233923
 30
0.0
 40
1.4747881203752611
 50
179.7011665471029
 51
180.34590717375471
  0
LINE
  5
8A2
  8
0
 10
36.837705729651503
 20
33.92230390773986
 30
0.0
 11
38.66698873573273
 21
34.563241308170888
 31
0.0
  0
ARC
  5
8A3
  8
0
 10
38.11478885868749
 20
33.205028455660802
 30
0.0
 40
1.4661742246174001
 50
19.499037833452839
 51
67.875131801617925
  0
LINE
  5
8A4
  8
0
 10
39.496873734590508
 20
33.694424259413331
 30
0.0
 11
39.533230303705778
 21
33.535436805336019
 31
0.0
  0
ARC
  5
8A5
  8
0
 10
38.089572034086054
 20
33.37105207686335
 30
0.0
 40
1.452987108819995
 50
317.65244191273302
 51
6.4961073228793973
  0
LINE
  5
8A6
  8
0
 10
36.059108981885167
 20
35.537379168158111
 30
0.0
 11
37.699906054842188
 21
36.569300692783173
 31
0.0
  0
ARC
  5
8A7
  8
0
 10
37.463781774059299
 20
35.122265039815922
 30
0.0
 40
1.4661742246178071
 50
32.356180690657922
 51
80.732274658758513
  0
LINE
  5
8A8
  8
0
 10
38.702314085256319
 20
35.906933486392177
 30
0.0
 11
38.773137156046602
 21
35.760022277440441
 31
0.0
  0
ARC
  5
8A9
  8
0
 10
37.402253456650378
 20
35.278514830846461
 30
0.0
 40
1.452987108819717
 50
330.50958476986949
 51
19.353250180026521
  0
ARC
  5
8AA
  8
0
 10
37.309608472657828
 20
35.145010047563382
 30
0.0
 40
1.47478812037526
 50
205.41545226139041
 51
206.0601928880408
  0
LINE
  5
8AB
  8
0
 10
34.940645224795787
 20
36.938707044325902
 30
0.0
 11
36.310679948018652
 21
38.309867838971257
 31
0.0
  0
ARC
  5
8AC
  8
0
 10
36.402471520905891
 20
36.846569795481862
 30
0.0
 40
1.4661742246175891
 50
45.213323547770358
 51
93.589417515901417
  0
LINE
  5
8AD
  8
0
 10
37.435346085652732
 20
37.887164332479813
 30
0.0
 11
37.53708429361717
 21
37.759696110118341
 31
0.0
  0
ARC
  5
8AE
  8
0
 10
36.276581237657297
 20
36.980952003855244
 30
0.0
 40
1.4816579690075971
 50
343.86917338980982
 51
31.707947274614341
  0
LINE
  5
8AF
  8
0
 10
33.538398901461711
 20
38.056019105096482
 30
0.0
 11
34.568972013161194
 21
39.697663442049823
 31
0.0
  0
ARC
  5
8B0
  8
0
 10
34.984076626965788
 20
38.291478882138911
 30
0.0
 40
1.4661742246178231
 50
58.07046640494233
 51
106.446560373043
  0
LINE
  5
8B1
  8
0
 10
35.75950080167749
 20
39.535819754329573
 30
0.0
 11
35.887052568247007
 21
39.434186307488432
 31
0.0
  0
ARC
  5
8B2
  8
0
 10
34.831439821439659
 20
38.394478624578369
 30
0.0
 40
1.4816579690078391
 50
356.72631624695703
 51
44.565090131752619
  0
ARC
  5
8B3
  8
0
 10
34.83530259313364
 20
38.245078137535408
 30
0.0
 40
1.4747881203752651
 50
231.12973797567551
 51
231.77447860232709
  0
LINE
  5
8B4
  8
0
 10
31.922684497805651
 20
38.833288658254048
 30
0.0
 11
32.562118758862631
 21
40.663097635550677
 31
0.0
  0
ARC
  5
8B5
  8
0
 10
33.270429545241569
 20
39.488330663047101
 30
0.0
 40
1.371780452472636
 50
69.143971493832737
 51
121.0873409979871
  0
LINE
  5
8B6
  8
0
 10
33.75881211358962
 20
40.770229284904303
 30
0.0
 11
33.905781460578623
 21
40.699526938992477
 31
0.0
  0
ARC
  5
8B7
  8
0
 10
33.107991853900188
 20
39.450990964095382
 30
0.0
 40
1.4816579690118581
 50
9.5834591041678472
 51
57.422232988824852
  0
ARC
  5
8B8
  8
0
 10
31.342714387225591
 20
40.170060383623102
 30
0.0
 40
1.3717804524724839
 50
82.001114350972557
 51
133.94448385513289
  0
LINE
  5
8B9
  8
0
 10
31.533602906358201
 20
41.528494475895741
 30
0.0
 11
31.692620177018171
 21
41.492268541764503
 31
0.0
  0
ARC
  5
8BA
  8
0
 10
31.19265821263415
 20
40.097511082098798
 30
0.0
 40
1.481657969007631
 50
22.440601961238119
 51
70.279375846039855
  0
ARC
  5
8BB
  8
0
 10
31.260960891618311
 20
39.964581888249427
 30
0.0
 40
1.4747881203752631
 50
256.84402368996177
 51
257.48876431661211
  0
ARC
  5
8BC
  8
0
 10
25.86924803385315
 20
28.55139834923466
 30
0.0
 40
2.134537420613662
 50
1.7617846981886269
 51
12.08379893750481
  0
ARC
  5
8BD
  8
0
 10
25.86924803385315
 20
28.55139834923466
 30
0.0
 40
2.134537420613662
 50
303.55164829411132
 51
306.8567175940986
  0
ARC
  5
8BE
  8
0
 10
25.86924803385315
 20
28.55139834923466
 30
0.0
 40
2.134537420613654
 50
130.3332132696153
 51
133.63828256960511
  0
ARC
  5
8BF
  8
0
 10
25.86924803385315
 20
28.55139834923466
 30
0.0
 40
2.1345374206136518
 50
65.106131926209756
 51
75.428146165527579
  0
ARC
  5
8C0
  8
0
 10
20.548231784549731
 20
24.304452343989279
 30
0.0
 40
8.7700619918987091
 50
32.357919245162222
 51
44.832011618553182
  0
ARC
  5
8C1
  8
0
 10
29.281312657387019
 20
31.274722906729352
 30
0.0
 40
2.633913438213193
 50
342.65935059482689
 51
351.67343741174739
  0
ARC
  5
8C2
  8
0
 10
29.281312657387019
 20
31.274722906729352
 30
0.0
 40
2.633913438213173
 50
291.23077916625408
 51
300.24486598317583
  0
ARC
  5
8C3
  8
0
 10
29.281312657387019
 20
31.274722906729352
 30
0.0
 40
2.633913438213181
 50
239.8022077376846
 51
248.8162945546045
  0
ARC
  5
8C4
  8
0
 10
29.281312657387019
 20
31.274722906729352
 30
0.0
 40
2.6339134382131881
 50
188.37363630911219
 51
197.38772312603331
  0
ARC
  5
8C5
  8
0
 10
29.281312657387019
 20
31.274722906729352
 30
0.0
 40
2.6339134382131948
 50
136.94506488053949
 51
145.9591516974599
  0
ARC
  5
8C6
  8
0
 10
29.281312657387019
 20
31.274722906729352
 30
0.0
 40
2.6339134382131881
 50
85.516493451968984
 51
94.530580268888912
  0
ARC
  5
8C7
  8
0
 10
29.281312657387019
 20
31.274722906729352
 30
0.0
 40
2.6339134382131899
 50
34.087922023395919
 51
43.10200884031881
  0
ARC
  5
8D4
  8
0
 10
79.498496703987854
 20
21.409722906701599
 30
0.0
 40
0.6350000000000052
 50
265.7334368294367
 51
270.0
  0
ARC
  5
8D5
  8
0
 10
79.498496703987854
 20
41.139722906701607
 30
0.0
 40
0.6349999999999909
 50
90.0
 51
94.273330023550272
  0
ARC
  5
8D6
  8
0
 10
79.476392344690026
 20
31.27838412336455
 30
0.0
 40
1.5875000000000159
 50
140.75818203845111
 51
219.23748606218609
  0
LINE
  5
8D7
  8
0
 10
79.498496703987854
 20
20.77472290670158
 30
0.0
 11
80.625496703987807
 21
20.77472290670158
 31
0.0
  0
LINE
  5
8D8
  8
0
 10
80.625496703987807
 20
41.774722906701598
 30
0.0
 11
79.498496703987854
 21
41.774722906701598
 31
0.0
  0
ARC
  5
8D9
  8
0
 10
79.476392344690026
 20
29.29507467247031
 30
0.0
 40
1.5874999999999979
 50
140.76251393781379
 51
221.74862254413449
  0
ARC
  5
8DA
  8
0
 10
79.476392344690026
 20
33.261509985567443
 30
0.0
 40
1.587500000000007
 50
138.2366727186232
 51
219.24181796154889
  0
ARC
  5
8DB
  8
0
 10
79.476392344690026
 20
27.411033050331518
 30
0.0
 40
1.5875000000000079
 50
143.76130759937169
 51
227.9178588003532
  0
ARC
  5
8DC
  8
0
 10
79.476392344690026
 20
35.1450100475356
 30
0.0
 40
1.587500000000003
 50
132.04936679857019
 51
216.54663105331011
  0
ARC
  5
8DD
  8
0
 10
79.476392344690026
 20
36.834437751350691
 30
0.0
 40
1.5875000000000119
 50
117.2116980478783
 51
212.28839257273879
  0
ARC
  5
8DE
  8
0
 10
79.476392344690026
 20
25.720732970954959
 30
0.0
 40
1.587499999999993
 50
147.97426686338801
 51
242.69693161628189
  0
ARC
  5
8DF
  8
0
 10
79.873267344690049
 20
29.776104204841371
 30
0.0
 40
1.984375
 50
156.5034132718738
 51
187.46325891231061
  0
ARC
  5
8E0
  8
0
 10
79.873267344690049
 20
32.77874580406182
 30
0.0
 40
1.984375000000006
 50
172.72964649620201
 51
203.71002418048661
  0
ARC
  5
8E1
  8
0
 10
79.476392344690083
 20
38.245078137507669
 30
0.0
 40
1.587500000000005
 50
109.3988032984454
 51
206.49369348867609
  0
ARC
  5
8E2
  8
0
 10
79.476392344690083
 20
24.30893313839902
 30
0.0
 40
1.587500000000009
 50
153.7136089702835
 51
250.498992648376
  0
ARC
  5
8E3
  8
0
 10
79.873267344690049
 20
27.07028241887658
 30
0.0
 40
1.9843750000000091
 50
174.89975154494769
 51
201.1778180633159
  0
ARC
  5
8E4
  8
0
 10
79.873267344690049
 20
35.483497222829719
 30
0.0
 40
1.9843750000000011
 50
158.9875696097121
 51
185.26759763045609
  0
ARC
  5
8E5
  8
0
 10
80.667017344690095
 20
32.247914193228802
 30
0.0
 40
2.7781250000000188
 50
174.11536073991769
 51
191.57099652030399
  0
ARC
  5
8E6
  8
0
 10
80.667017344690095
 20
28.55420259105011
 30
0.0
 40
2.7781250000000282
 50
171.3411751954599
 51
193.6649864434672
  0
ARC
  5
8E7
  8
0
 10
79.476392344690083
 20
39.306195806723331
 30
0.0
 40
1.587500000000011
 50
104.39579851879721
 51
199.61196131690161
  0
ARC
  5
8E8
  8
0
 10
79.476392344690083
 20
23.246427091430771
 30
0.0
 40
1.5875000000000059
 50
160.53629663353519
 51
255.56013874850021
  0
ARC
  5
8E9
  8
0
 10
79.873267344690049
 20
25.197201635604241
 30
0.0
 40
1.9843750000000071
 50
172.0805502647911
 51
193.75125259953541
  0
ARC
  5
8EA
  8
0
 10
79.873267344690049
 20
37.354649271058861
 30
0.0
 40
1.984375000000002
 50
166.358382837459
 51
188.0446822077979
  0
LINE
  5
8EB
  8
0
 10
77.892759835246096
 20
35.355332277027571
 30
0.0
 11
77.88918150224842
 21
35.168711139850473
 31
0.0
  0
ARC
  5
8EC
  8
0
 10
80.667017344690095
 20
35.208792907168061
 30
0.0
 40
2.7781250000000091
 50
185.3837362710338
 51
203.8010997082506
  0
ARC
  5
8ED
  8
0
 10
79.476392344690083
 20
22.586493319884021
 30
0.0
 40
1.5874999999999999
 50
168.06203583749971
 51
263.26345237621109
  0
ARC
  5
8EE
  8
0
 10
79.476392344690083
 20
39.96458188822168
 30
0.0
 40
1.5875000000000039
 50
96.698974042706325
 51
192.02663343487561
  0
ARC
  5
8EF
  8
0
 10
81.857642344690035
 20
31.27472290670158
 30
0.0
 40
3.9687499999999871
 50
172.35187354638251
 51
192.8606608241829
  0
ARC
  5
8F0
  8
0
 10
80.667017344690095
 20
26.909098275057989
 30
0.0
 40
2.778125000000006
 50
178.24652054947779
 51
194.20537313129381
  0
POLYLINE
  5
8F1
  8
0
 66
     1
 10
0.0
 20
0.0
 30
0.0
 70
   128
  0
VERTEX
  5
B12
  8
0
 10
77.917113156028535
 20
24.8613225091621
 30
0.0
  0
VERTEX
  5
B13
  8
0
 10
77.89099815601358
 20
24.619243247431879
 30
0.0
  0
VERTEX
  5
B14
  8
0
 10
77.89240229115714
 20
24.409874833512099
 30
0.0
  0
SEQEND
  5
B15
  8
0
  0
POLYLINE
  5
8F2
  8
0
 66
     1
 10
0.0
 20
0.0
 30
0.0
 70
   128
  0
VERTEX
  5
B16
  8
0
 10
77.892260212510479
 20
38.137160665856612
 30
0.0
  0
VERTEX
  5
B17
  8
0
 10
77.89486297567143
 20
37.867778309754492
 30
0.0
  0
VERTEX
  5
B18
  8
0
 10
77.917318539749061
 20
37.686920757611233
 30
0.0
  0
SEQEND
  5
B19
  8
0
  0
ARC
  5
8F3
  8
0
 10
79.476392344690083
 20
22.362223658707642
 30
0.0
 40
1.587500000000005
 50
175.9789527175198
 51
270.0
  0
ARC
  5
8F4
  8
0
 10
79.476392344690083
 20
40.18722215469554
 30
0.0
 40
1.5875000000000079
 50
90.003500696822002
 51
184.05052429533259
  0
LINE
  5
8F5
  8
0
 10
77.888892455136755
 20
35.208020040869251
 30
0.0
 11
77.889168855164456
 21
35.168041200392622
 31
0.0
  0
ARC
  5
8F6
  8
0
 10
80.667017344690095
 20
35.207236670352842
 30
0.0
 40
2.7781250000000139
 50
185.25265507137769
 51
203.78065039062719
  0
POLYLINE
  5
8F7
  8
0
 66
     1
 10
0.0
 20
0.0
 30
0.0
 70
   128
  0
VERTEX
  5
B1A
  8
0
 10
77.888892552968599
 20
22.585677119030599
 30
0.0
  0
VERTEX
  5
B1B
  8
0
 10
77.891536158299999
 20
22.493282712801541
 30
0.0
  0
VERTEX
  5
B1C
  8
0
 10
77.892800200880259
 20
22.473543791945129
 30
0.0
  0
SEQEND
  5
B1D
  8
0
  0
POLYLINE
  5
8F8
  8
0
 66
     1
 10
0.0
 20
0.0
 30
0.0
 70
   128
  0
VERTEX
  5
B1E
  8
0
 10
77.888892553511511
 20
39.963766746469162
 30
0.0
  0
VERTEX
  5
B1F
  8
0
 10
77.896401966966749
 20
39.808723260552021
 30
0.0
  0
VERTEX
  5
B20
  8
0
 10
77.923563279952774
 20
39.632985607745752
 30
0.0
  0
SEQEND
  5
B21
  8
0
  0
ARC
  5
8F9
  8
0
 10
80.667017344690095
 20
28.55139834920692
 30
0.0
 40
2.7781250000000242
 50
179.97106186651251
 51
193.63085034734141
  0
POLYLINE
  5
8FA
  8
0
 66
     1
 10
0.0
 20
0.0
 30
0.0
 70
   128
  0
VERTEX
  5
B22
  8
0
 10
77.888892708115833
 20
25.195997519363061
 30
0.0
  0
VERTEX
  5
B23
  8
0
 10
77.891043017276985
 20
25.10243390684354
 30
0.0
  0
VERTEX
  5
B24
  8
0
 10
77.917113156028535
 20
24.8613225091621
 30
0.0
  0
SEQEND
  5
B25
  8
0
  0
POLYLINE
  5
8FB
  8
0
 66
     1
 10
0.0
 20
0.0
 30
0.0
 70
   128
  0
VERTEX
  5
B26
  8
0
 10
77.888892710201191
 20
37.353448595477452
 30
0.0
  0
VERTEX
  5
B27
  8
0
 10
77.897928464901241
 20
37.163086966412713
 30
0.0
  0
VERTEX
  5
B28
  8
0
 10
77.908240942552737
 20
37.075810859387211
 30
0.0
  0
SEQEND
  5
B29
  8
0
  0
POLYLINE
  5
8FC
  8
0
 66
     1
 10
0.0
 20
0.0
 30
0.0
 70
   128
  0
VERTEX
  5
B2A
  8
0
 10
77.888892893806513
 20
32.246164079987743
 30
0.0
  0
VERTEX
  5
B2B
  8
0
 10
77.903360200646915
 20
31.961260680183148
 30
0.0
  0
VERTEX
  5
B2C
  8
0
 10
77.924197948432692
 20
31.802919597387469
 30
0.0
  0
SEQEND
  5
B2D
  8
0
  0
POLYLINE
  5
8FD
  8
0
 66
     1
 10
0.0
 20
0.0
 30
0.0
 70
   128
  0
VERTEX
  5
B2E
  8
0
 10
77.888893139710675
 20
23.244838776578199
 30
0.0
  0
VERTEX
  5
B2F
  8
0
 10
77.900904931584961
 20
23.04832524902357
 30
0.0
  0
VERTEX
  5
B30
  8
0
 10
77.923399044021224
 20
22.91405696593068
 30
0.0
  0
SEQEND
  5
B31
  8
0
  0
ARC
  5
8FE
  8
0
 10
79.476392344690083
 20
39.303018721972421
 30
0.0
 40
1.5875000000000259
 50
179.94265840384321
 51
199.55110852329381
  0
LINE
  5
8FF
  8
0
 10
77.888893527643091
 20
27.068115349271149
 30
0.0
 11
77.890193244907749
 21
26.99410671283248
 31
0.0
  0
LINE
  5
900
  8
0
 10
77.888893528191289
 20
35.48133065521062
 30
0.0
 11
77.892804522741841
 21
35.354619621073702
 31
0.0
  0
ARC
  5
901
  8
0
 10
79.476392344690083
 20
24.304367675895492
 30
0.0
 40
1.587500000000005
 50
179.91761345256009
 51
199.52452322046091
  0
POLYLINE
  5
902
  8
0
 66
     1
 10
0.0
 20
0.0
 30
0.0
 70
   128
  0
VERTEX
  5
B32
  8
0
 10
77.888893986064673
 20
38.242795515709012
 30
0.0
  0
VERTEX
  5
B33
  8
0
 10
77.889209876005481
 20
38.208762697048478
 30
0.0
  0
VERTEX
  5
B34
  8
0
 10
77.892260212510138
 20
38.13716066585598
 30
0.0
  0
SEQEND
  5
B35
  8
0
  0
LINE
  5
903
  8
0
 10
77.888894184386885
 20
29.773402099862661
 30
0.0
 11
77.905331383956963
 21
29.515803569432361
 31
0.0
  0
POLYLINE
  5
904
  8
0
 66
     1
 10
0.0
 20
0.0
 30
0.0
 70
   128
  0
VERTEX
  5
B36
  8
0
 10
77.888894184387226
 20
32.776043699354481
 30
0.0
  0
VERTEX
  5
B37
  8
0
 10
77.888896780510578
 20
32.769145819857492
 30
0.0
  0
VERTEX
  5
B38
  8
0
 10
77.903728251769707
 20
32.531143544813538
 30
0.0
  0
SEQEND
  5
B39
  8
0
  0
POLYLINE
  5
905
  8
0
 66
     1
 10
0.0
 20
0.0
 30
0.0
 70
   128
  0
VERTEX
  5
B3A
  8
0
 10
77.888894925442941
 20
25.717870558108071
 30
0.0
  0
VERTEX
  5
B3B
  8
0
 10
77.891305608888018
 20
25.627507833571372
 30
0.0
  0
VERTEX
  5
B3C
  8
0
 10
77.907995003214609
 20
25.469475927185179
 30
0.0
  0
SEQEND
  5
B3D
  8
0
  0
ARC
  5
906
  8
0
 10
79.476392344690083
 20
36.828712842448169
 30
0.0
 40
1.587500000000003
 50
179.89668722412861
 51
203.60608890539129
  0
POLYLINE
  5
907
  8
0
 66
     1
 10
0.0
 20
0.0
 30
0.0
 70
   128
  0
VERTEX
  5
B3E
  8
0
 10
77.888895771707055
 20
27.40773436665156
 30
0.0
  0
VERTEX
  5
B3F
  8
0
 10
77.891205880077138
 20
27.318761251525409
 30
0.0
  0
VERTEX
  5
B40
  8
0
 10
77.896954708187906
 20
27.244645270529329
 30
0.0
  0
SEQEND
  5
B41
  8
0
  0
POLYLINE
  5
908
  8
0
 66
     1
 10
0.0
 20
0.0
 30
0.0
 70
   128
  0
VERTEX
  5
B42
  8
0
 10
77.888895771890731
 20
35.141711452231128
 30
0.0
  0
VERTEX
  5
B43
  8
0
 10
77.89725052014424
 20
34.975724877936209
 30
0.0
  0
VERTEX
  5
B44
  8
0
 10
77.903154560140166
 20
34.926094315299622
 30
0.0
  0
SEQEND
  5
B45
  8
0
  0
POLYLINE
  5
909
  8
0
 66
     1
 10
0.0
 20
0.0
 30
0.0
 70
   128
  0
VERTEX
  5
B46
  8
0
 10
77.888896357624247
 20
29.29150528853727
 30
0.0
  0
VERTEX
  5
B47
  8
0
 10
77.896910498863434
 20
29.12858292166862
 30
0.0
  0
VERTEX
  5
B48
  8
0
 10
77.920800852307167
 20
28.971247718134862
 30
0.0
  0
SEQEND
  5
B49
  8
0
  0
POLYLINE
  5
90A
  8
0
 66
     1
 10
0.0
 20
0.0
 30
0.0
 70
   128
  0
VERTEX
  5
B4A
  8
0
 10
77.888896357591449
 20
33.257940587047457
 30
0.0
  0
VERTEX
  5
B4B
  8
0
 10
77.891435618580402
 20
33.164546721315439
 30
0.0
  0
VERTEX
  5
B4C
  8
0
 10
77.905212912748624
 20
33.027321713177393
 30
0.0
  0
SEQEND
  5
B4D
  8
0
  0
LINE
  5
90B
  8
0
 10
80.625496703987807
 20
21.774722906701609
 30
0.0
 11
82.077532630999741
 21
24.28972290670162
 31
0.0
  0
LINE
  5
90C
  8
0
 10
82.077532630999741
 20
38.25972290670159
 30
0.0
 11
80.625496703987807
 21
40.77472290670157
 31
0.0
  0
LINE
  5
90D
  8
0
 10
83.650962743879774
 20
24.395692728728928
 30
0.0
 11
83.888896566587803
 21
24.29715886921004
 31
0.0
  0
LINE
  5
90E
  8
0
 10
83.888896566587803
 20
38.252286944193138
 30
0.0
 11
83.650962743879774
 21
38.153753084674257
 31
0.0
  0
ARC
  5
90F
  8
0
 10
82.297503083560997
 20
24.16272290670161
 30
0.0
 40
0.2539999999999765
 50
90.0
 51
150.00000000000171
  0
ARC
  5
910
  8
0
 10
82.297503083560997
 20
38.3867229067016
 30
0.0
 40
0.2540000000000049
 50
210.0000000000019
 51
270.0
  0
ARC
  5
911
  8
0
 10
83.549764611364623
 20
38.3867229067016
 30
0.0
 40
0.2540000000000049
 50
270.0
 51
293.47930749588733
  0
ARC
  5
912
  8
0
 10
83.549764611364623
 20
24.16272290670161
 30
0.0
 40
0.2539999999999872
 50
66.520692504112645
 51
90.0
  0
LINE
  5
913
  8
0
 10
82.297503083560997
 20
24.416722906701569
 30
0.0
 11
83.549764611364623
 21
24.416722906701569
 31
0.0
  0
LINE
  5
914
  8
0
 10
83.549764611364623
 20
38.132722906701581
 30
0.0
 11
82.297503083560997
 21
38.132722906701581
 31
0.0
  0
LINE
  5
919
  8
0
 10
79.476392344690083
 20
20.77685306904322
 30
0.0
 11
79.476392344690083
 21
20.77681780046137
 31
0.0
  0
ARC
  5
91A
  8
0
 10
79.484158175181761
 20
21.32604675517015
 30
0.0
 40
0.5501939549407763
 50
206.82347244545539
 51
266.54455562578022
  0
ARC
  5
91B
  8
0
 10
79.360254568951376
 20
21.40364986864147
 30
0.0
 40
0.3981590116945792
 50
259.86539026940011
 51
286.95897647561389
  0
LINE
  5
91C
  8
0
 10
79.476392344690083
 20
21.05916182949812
 30
0.0
 11
79.476392344690083
 21
21.022805260382821
 31
0.0
  0
ARC
  5
91D
  8
0
 10
79.846444949783375
 20
21.92641326273943
 30
0.0
 40
0.9429018925609842
 50
190.01237118031659
 51
246.8922576036309
  0
ARC
  5
91E
  8
0
 10
79.192584652166687
 20
22.21957094172642
 30
0.0
 40
0.5207971851024704
 50
257.64472241172069
 51
303.02115063096409
  0
LINE
  5
91F
  8
0
 10
79.476392344690083
 20
21.853721478832309
 30
0.0
 11
79.476392344690083
 21
21.782898408041991
 31
0.0
  0
ARC
  5
920
  8
0
 10
80.298228295579705
 20
23.001637033902529
 30
0.0
 40
1.411780596178223
 50
185.91579053875651
 51
234.39969867452859
  0
ARC
  5
921
  8
0
 10
79.02633482570505
 20
23.398977187688669
 30
0.0
 40
0.589042840676053
 50
262.27330784828621
 51
319.82244967495399
  0
LINE
  5
922
  8
0
 10
79.476392344690026
 20
23.120689478435729
 30
0.0
 11
79.476392344690026
 21
23.018951270471401
 31
0.0
  0
ARC
  5
923
  8
0
 10
80.744856268746815
 20
24.49072593201242
 30
0.0
 40
1.867083450401315
 50
187.55160094219519
 51
227.20458750144451
  0
ARC
  5
924
  8
0
 10
78.393285596690333
 20
25.545908133478399
 30
0.0
 40
1.393598910943088
 50
291.05547364978139
 51
321.00502954165381
  0
LINE
  5
925
  8
0
 10
79.476392344690026
 20
24.7965347624231
 30
0.0
 11
79.476392344690026
 21
24.668982995841581
 31
0.0
  0
ARC
  5
926
  8
0
 10
81.171738739524216
 20
26.363656507573861
 30
0.0
 40
2.3086944281634318
 50
189.38800666474481
 51
222.74926480301519
  0
ARC
  5
927
  8
0
 10
80.897648116394024
 20
24.81473720495444
 30
0.0
 40
2.3214414171986091
 50
127.7509121456312
 51
149.66869252305531
  0
LINE
  5
928
  8
0
 10
79.476392344690026
 20
26.797223450499072
 30
0.0
 11
79.476392344690026
 21
26.650254103509891
 31
0.0
  0
ARC
  5
929
  8
0
 10
82.426205200996975
 20
28.972965207826711
 30
0.0
 40
3.665412402691528
 50
195.49204426029451
 51
216.41197971143271
  0
ARC
  5
92A
  8
0
 10
83.749050083919116
 20
25.37159653820796
 30
0.0
 40
5.5180071610923811
 50
140.74267437034831
 51
151.62570050140491
  0
LINE
  5
92B
  8
0
 10
79.476392344690026
 20
29.022432657730342
 30
0.0
 11
79.476392344690026
 21
28.863415387070429
 31
0.0
  0
ARC
  5
92C
  8
0
 10
83.542854246583687
 20
31.814641324888999
 30
0.0
 40
4.9328026151972493
 50
199.5339458304941
 51
214.47517706719239
  0
ARC
  5
92D
  8
0
 10
82.193191321990554
 20
28.984104899275621
 30
0.0
 40
3.5042929318329841
 50
140.83018587249009
 51
160.3017723207916
  0
LINE
  5
92E
  8
0
 10
79.476392344690026
 20
31.360581102790199
 30
0.0
 11
79.476392344690026
 21
31.19748969840856
 31
0.0
  0
ARC
  5
92F
  8
0
 10
82.190516235249476
 20
33.573034649652627
 30
0.0
 40
3.5016309329106101
 50
199.7064234741992
 51
219.1856475918984
  0
ARC
  5
930
  8
0
 10
82.150947810119845
 20
31.452829584480579
 30
0.0
 40
3.3897639702339371
 50
142.09302981844209
 51
163.91018453242839
  0
LINE
  5
931
  8
0
 10
79.476392344690026
 20
33.694424259385578
 30
0.0
 11
79.476392344690026
 21
33.535436805308272
 31
0.0
  0
ARC
  5
932
  8
0
 10
83.397457848285654
 20
36.952604648139491
 30
0.0
 40
5.0980873010503931
 50
207.94854201433731
 51
219.72463617167659
  0
ARC
  5
933
  8
0
 10
81.709869294145648
 20
33.93296464935559
 30
0.0
 40
2.8855777341780899
 50
140.7157044617247
 51
167.38357262361441
  0
LINE
  5
934
  8
0
 10
79.476392344690026
 20
35.90693348636443
 30
0.0
 11
79.476392344690026
 21
35.760022277412673
 31
0.0
  0
ARC
  5
935
  8
0
 10
-64.799158190707914
 20
-90.368756979078114
 30
0.0
 40
191.7315427487533
 50
41.193702878063462
 51
41.457278619380467
  0
ARC
  5
936
  8
0
 10
81.16163285768809
 20
36.197476680659847
 30
0.0
 40
2.2979480264664711
 50
137.1694555675937
 51
170.68820507586301
  0
LINE
  5
937
  8
0
 10
79.476392344690026
 20
37.887164332452073
 30
0.0
 11
79.476392344690026
 21
37.759696110090601
 31
0.0
  0
ARC
  5
938
  8
0
 10
78.374362993752897
 20
36.981324985925362
 30
0.0
 40
1.426539032779474
 50
39.41931173568652
 51
68.639154058581042
  0
ARC
  5
939
  8
0
 10
80.741267595151925
 20
38.065932951144347
 30
0.0
 40
1.863337501984605
 50
132.75169026363679
 51
172.47765238898239
  0
LINE
  5
93A
  8
0
 10
79.476392344690026
 20
39.535819754301819
 30
0.0
 11
79.476392344690026
 21
39.434186307460692
 31
0.0
  0
ARC
  5
93B
  8
0
 10
79.014861137641589
 20
39.113288860065829
 30
0.0
 40
0.6257342979755003
 50
42.474040073572553
 51
95.831525286619225
  0
ARC
  5
93C
  8
0
 10
80.298956345292908
 20
39.551108903108343
 30
0.0
 40
1.412613011467811
 50
125.6124477802898
 51
174.04501211290321
  0
LINE
  5
93D
  8
0
 10
79.476392344690083
 20
40.770229284876557
 30
0.0
 11
79.476392344690083
 21
40.699526938964702
 31
0.0
  0
ARC
  5
93E
  8
0
 10
79.192721783088786
 20
40.330536896053658
 30
0.0
 40
0.5232574742025093
 50
57.171637383150319
 51
102.20253307190779
  0
ARC
  5
93F
  8
0
 10
79.850554276424205
 20
40.621066705018549
 30
0.0
 40
0.9481507219109493
 50
113.2424537097899
 51
170.3317289990581
  0
LINE
  5
940
  8
0
 10
79.476392344690083
 20
41.528494475867959
 30
0.0
 11
79.476392344690083
 21
41.492268541736721
 31
0.0
  0
ARC
  5
941
  8
0
 10
79.360807810356874
 20
41.148916818558142
 30
0.0
 40
0.3967858143964132
 50
73.064074066538524
 51
100.10324384100061
  0
ARC
  5
942
  8
0
 10
79.511242935071976
 20
41.160074881783807
 30
0.0
 40
0.6155402658250179
 50
95.616837895579394
 51
150.63196338429171
  0
LINE
  5
943
  8
0
 10
79.476392344690083
 20
41.772628013793728
 30
0.0
 11
79.476392344690083
 21
41.772659741613111
 31
0.0
  0
ARC
  5
944
  8
0
 10
78.814847122743032
 20
30.89517051678245
 30
0.0
 40
1.499200540664682
 50
86.974856667792835
 51
112.26140993132221
  0
ARC
  5
945
  8
0
 10
78.814510829347427
 20
31.669761275273139
 30
0.0
 40
1.5065745596529561
 50
247.86402870545291
 51
273.02313006770368
  0
LINE
  5
946
  8
0
 10
80.625496703987807
 20
20.77472290670158
 30
0.0
 11
80.625496703987807
 21
41.774722906701598
 31
0.0
  0
ARC
  5
947
  8
0
 10
78.985371631686377
 20
29.083622377945481
 30
0.0
 40
1.093532435177994
 50
230.64931882690129
 51
265.20520596465968
  0
ARC
  5
948
  8
0
 10
78.985901912395519
 20
33.473932267949401
 30
0.0
 40
1.0931817593072539
 50
94.824227013962812
 51
129.38331092373281
  0
ARC
  5
949
  8
0
 10
79.193002518183974
 20
27.167570216327871
 30
0.0
 40
1.2177925530079321
 50
230.1372373591023
 51
255.78530396412521
  0
ARC
  5
94A
  8
0
 10
79.19357286715379
 20
35.3887254696591
 30
0.0
 40
1.2179991822234131
 50
104.2399123822979
 51
129.8482869141589
  0
LINE
  5
94B
  8
0
 10
78.750461123861285
 20
38.246238060398007
 30
0.0
 11
78.893966207501506
 21
38.309867838943482
 31
0.0
  0
LINE
  5
94C
  8
0
 10
78.748210631289652
 20
24.310092108697969
 30
0.0
 11
78.893966207501506
 21
24.245355616069979
 31
0.0
  0
LINE
  5
95F
  8
0
 10
79.498496703987854
 20
20.77472290670158
 30
0.0
 11
79.498496703987854
 21
41.774722906701598
 31
0.0
  0
LINE
  5
960
  8
0
 10
82.077532630999741
 20
24.28972290670162
 30
0.0
 11
82.077532630999741
 21
38.259722317331352
 31
0.0
  0
LINE
  5
961
  8
0
 10
82.297503083560997
 20
38.132722328047173
 30
0.0
 11
82.297503083560997
 21
24.416722906701569
 31
0.0
  0
LINE
  5
962
  8
0
 10
83.549764611364623
 20
24.416723485356041
 30
0.0
 11
83.549764611364623
 21
38.132722906701581
 31
0.0
  0
CIRCLE
  5
9E7
  8
0
 10
29.281312657387019
 20
31.274722906729352
 30
0.0
 40
10.500000000000011
  0
TEXT
  5
ABB
  8
0
 62
     3
 10
0.0
 20
0.0
 30
0.0
 40
5.0
  1
MTBU-24040-35UR
  7
STANDARD1
  0
ENDSEC
  0
EOF
