  0
SECTION
  2
HEADER
  9
$ACADVER
  1
AC1009
  9
$INSBASE
 10
82.638099999999994
 20
103.82319099999999
 30
0.0
  9
$EXTMIN
 10
0.0
 20
-1.4802182810368341
 30
0.0
  9
$EXTMAX
 10
103.4314812450971
 20
25.837471110358191
 30
0.0
  9
$LIMMIN
 10
0.0
 20
0.0
  9
$LIMMAX
 10
187.5
 20
135.0
  9
$ORTHOMODE
 70
     1
  9
$REGENMODE
 70
     1
  9
$FILLMODE
 70
     1
  9
$QTEXTMODE
 70
     0
  9
$MIRRTEXT
 70
     0
  9
$DRAGMODE
 70
     2
  9
$LTSCALE
 40
5.0
  9
$OSMODE
 70
  3071
  9
$ATTMODE
 70
     1
  9
$TEXTSIZE
 40
0.06
  9
$TRACEWID
 40
0.05
  9
$TEXTSTYLE
  7
STANDARD
  9
$CLAYER
  8
0
  9
$CELTYPE
  6
BYLAYER
  9
$CECOLOR
 62
   256
  9
$DIMSCALE
 40
0.5
  9
$DIMASZ
 40
3.0
  9
$DIMEXO
 40
2.0
  9
$DIMDLI
 40
10.0
  9
$DIMRND
 40
0.0
  9
$DIMDLE
 40
0.0
  9
$DIMEXE
 40
2.0
  9
$DIMTP
 40
0.0
  9
$DIMTM
 40
0.0
  9
$DIMTXT
 40
3.0
  9
$DIMCEN
 40
0.0
  9
$DIMTSZ
 40
0.0
  9
$DIMTOL
 70
     0
  9
$DIMLIM
 70
     0
  9
$DIMTIH
 70
     0
  9
$DIMTOH
 70
     0
  9
$DIMSE1
 70
     0
  9
$DIMSE2
 70
     0
  9
$DIMTAD
 70
     1
  9
$DIMZIN
 70
     0
  9
$DIMBLK
  1

  9
$DIMASO
 70
     0
  9
$DIMSHO
 70
     0
  9
$DIMPOST
  1

  9
$DIMAPOST
  1

  9
$DIMALT
 70
     0
  9
$DIMALTD
 70
     2
  9
$DIMALTF
 40
25.399999999999999
  9
$DIMLFAC
 40
1.0
  9
$DIMTOFL
 70
     1
  9
$DIMTVP
 40
1.6000000000000001
  9
$DIMTIX
 70
     1
  9
$DIMSOXD
 70
     0
  9
$DIMSAH
 70
     0
  9
$DIMBLK1
  1

  9
$DIMBLK2
  1

  9
$DIMSTYLE
  2
STANDARD
  9
$DIMCLRD
 70
     0
  9
$DIMCLRE
 70
     0
  9
$DIMCLRT
 70
     0
  9
$DIMTFAC
 40
1.0
  9
$DIMGAP
 40
0.09
  9
$LUNITS
 70
     2
  9
$LUPREC
 70
     4
  9
$SKETCHINC
 40
0.1
  9
$FILLETRAD
 40
0.4
  9
$AUNITS
 70
     0
  9
$AUPREC
 70
     4
  9
$MENU
  1
E:\r13\win\SUPPORT\ACAD
  9
$ELEVATION
 40
0.0
  9
$PELEVATION
 40
0.0
  9
$THICKNESS
 40
0.0
  9
$LIMCHECK
 70
     0
  9
$BLIPMODE
 70
     0
  9
$CHAMFERA
 40
0.0
  9
$CHAMFERB
 40
0.0
  9
$SKPOLY
 70
     0
  9
$TDCREATE
 40
2449840.591099537
  9
$TDUPDATE
 40
2456597.670084896
  9
$TDINDWG
 40
0.0298384491
  9
$TDUSRTIMER
 40
0.0298384491
  9
$USRTIMER
 70
     1
  9
$ANGBASE
 50
0.0
  9
$ANGDIR
 70
     0
  9
$PDMODE
 70
     0
  9
$PDSIZE
 40
0.0
  9
$PLINEWID
 40
0.0
  9
$COORDS
 70
     1
  9
$SPLFRAME
 70
     0
  9
$SPLINETYPE
 70
     6
  9
$SPLINESEGS
 70
     8
  9
$ATTDIA
 70
     0
  9
$ATTREQ
 70
     1
  9
$HANDLING
 70
     1
  9
$HANDSEED
  5
B68
  9
$SURFTAB1
 70
     6
  9
$SURFTAB2
 70
     6
  9
$SURFTYPE
 70
     6
  9
$SURFU
 70
     6
  9
$SURFV
 70
     6
  9
$UCSNAME
  2

  9
$UCSORG
 10
0.0
 20
0.0
 30
0.0
  9
$UCSXDIR
 10
1.0
 20
0.0
 30
0.0
  9
$UCSYDIR
 10
0.0
 20
1.0
 30
0.0
  9
$PUCSNAME
  2

  9
$PUCSORG
 10
0.0
 20
0.0
 30
0.0
  9
$PUCSXDIR
 10
1.0
 20
0.0
 30
0.0
  9
$PUCSYDIR
 10
0.0
 20
1.0
 30
0.0
  9
$USERI1
 70
     3
  9
$USERI2
 70
     1
  9
$USERI3
 70
     0
  9
$USERI4
 70
     0
  9
$USERI5
 70
     0
  9
$USERR1
 40
0.5
  9
$USERR2
 40
3.0
  9
$USERR3
 40
3.0
  9
$USERR4
 40
3.0
  9
$USERR5
 40
10.0
  9
$WORLDVIEW
 70
     1
  9
$SHADEDGE
 70
     3
  9
$SHADEDIF
 70
    70
  9
$TILEMODE
 70
     1
  9
$MAXACTVP
 70
    16
  9
$PLIMCHECK
 70
     0
  9
$PEXTMIN
 10
1.0000000000000000E+020
 20
1.0000000000000000E+020
 30
1.0000000000000000E+020
  9
$PEXTMAX
 10
-1.0000000000000000E+020
 20
-1.0000000000000000E+020
 30
-1.0000000000000000E+020
  9
$PLIMMIN
 10
0.0
 20
0.0
  9
$PLIMMAX
 10
12.0
 20
9.0
  9
$UNITMODE
 70
     0
  9
$VISRETAIN
 70
     0
  9
$PLINEGEN
 70
     0
  9
$PSLTSCALE
 70
     0
  0
ENDSEC
  0
SECTION
  2
TABLES
  0
TABLE
  2
VPORT
 70
     1
  0
VPORT
  2
*ACTIVE
 70
     0
 10
0.0
 20
0.0
 11
1.0
 21
1.0
 12
93.747139195326156
 22
67.05183146954721
 13
0.0
 23
0.0
 14
5.0
 24
5.0
 15
10.0
 25
10.0
 16
0.0
 26
0.0
 36
1.0
 17
0.0
 27
0.0
 37
0.0
 40
138.6470298934976
 41
2.304913294797688
 42
50.0
 43
0.0
 44
0.0
 50
0.0
 51
0.0
 71
     0
 72
   100
 73
     1
 74
     0
 75
     0
 76
     0
 77
     0
 78
     0
  0
ENDTAB
  0
TABLE
  2
LTYPE
 70
     3
  0
LTYPE
  2
CONTINUOUS
 70
     0
  3
Solid Line
 72
    65
 73
     0
 40
0.0
  0
LTYPE
  2
CENTER
 70
     0
  3
____ _ ____ _ ____ _ ____ _ ____ _ ____ _ ____
 72
    65
 73
     4
 40
2.0
 49
1.25
 49
-0.25
 49
0.25
 49
-0.25
  0
LTYPE
  2
PHANTOM2
 70
     0
  3
___ _ _ ___ _ _ ___ _ _ ___ _ _
 72
    65
 73
     6
 40
1.25
 49
0.625
 49
-0.125
 49
0.125
 49
-0.125
 49
0.125
 49
-0.125
  0
ENDTAB
  0
TABLE
  2
LAYER
 70
     3
  0
LAYER
  2
0
 70
     0
 62
     7
  6
CONTINUOUS
  0
LAYER
  2
1
 70
     0
 62
     1
  6
CENTER
  0
LAYER
  2
3
 70
     0
 62
     3
  6
CONTINUOUS
  0
ENDTAB
  0
TABLE
  2
STYLE
 70
     2
  0
STYLE
  2
STANDARD
 70
     0
 40
0.0
 41
1.0
 50
0.0
 71
     0
 42
0.06
  3
TXT
  4
BIGFONT
  0
STYLE
  2
STANDARD1
 70
     0
 40
0.0
 41
1.0
 50
0.0
 71
     0
 42
3.0
  3
txt
  4

  0
ENDTAB
  0
TABLE
  2
VIEW
 70
     0
  0
ENDTAB
  0
TABLE
  2
UCS
 70
     0
  0
ENDTAB
  0
TABLE
  2
APPID
 70
     3
  0
APPID
  2
ACAD
 70
     0
  0
APPID
  2
ACAD_MLEADERVER
 70
     0
  0
APPID
  2
ACAD_NAV_VCDISPLAY
 70
     0
  0
ENDTAB
  0
TABLE
  2
DIMSTYLE
 70
     1
  0
DIMSTYLE
  2
STANDARD
 70
     0
  3

  4

  5

  6

  7

 40
1.0
 41
0.18
 42
0.0625
 43
0.38
 44
0.18
 45
0.0
 46
0.0
 47
0.0
 48
0.0
140
0.18
141
0.09
142
0.0
143
25.399999999999999
144
1.0
145
0.0
146
1.0
147
0.09
 71
     0
 72
     0
 73
     1
 74
     1
 75
     0
 76
     0
 77
     0
 78
     0
170
     0
171
     2
172
     0
173
     0
174
     0
175
     0
176
     0
177
     0
178
     0
  0
ENDTAB
  0
ENDSEC
  0
SECTION
  2
BLOCKS
  0
BLOCK
  8
0
  2
$MODEL_SPACE
 70
     0
 10
0.0
 20
0.0
 30
0.0
  3
$MODEL_SPACE
  1

  0
ENDBLK
  5
C5
  8
0
  0
BLOCK
 67
     1
  8
0
  2
$PAPER_SPACE
 70
     0
 10
0.0
 20
0.0
 30
0.0
  3
$PAPER_SPACE
  1

  0
ENDBLK
  5
C3
 67
     1
  8
0
  0
ENDSEC
  0
SECTION
  2
ENTITIES
  0
CIRCLE
  5
395
  8
0
 10
94.431481245097132
 20
16.83747111035818
 30
0.0
 40
4.2679490000000007
  0
CIRCLE
  5
396
  8
3
 10
94.431481245097132
 20
16.83747111035818
 30
0.0
 40
5.0529999999999973
  0
ARC
  5
397
  8
0
 10
94.431481245097132
 20
16.83747111035818
 30
0.0
 40
3.0734000000003121
 50
107.4528740610746
 51
132.54712593896139
  0
LINE
  5
398
  8
0
 10
92.353259254853356
 20
19.101710699992921
 30
0.0
 11
91.431481245097117
 21
18.569521917927069
 31
0.0
  0
LINE
  5
399
  8
0
 10
91.431481245097117
 20
18.569521917927069
 30
0.0
 11
91.431481245097117
 21
17.50514435379392
 31
0.0
  0
ARC
  5
39A
  8
0
 10
94.431481245097132
 20
16.83747111035818
 30
0.0
 40
3.073399999999999
 50
167.4528740610655
 51
192.54712593893521
  0
LINE
  5
39B
  8
0
 10
91.431481245097117
 20
16.169797866922451
 30
0.0
 11
91.431481245097117
 21
15.105420302789311
 31
0.0
  0
LINE
  5
39C
  8
0
 10
91.431481245097117
 20
15.105420302789311
 30
0.0
 11
92.353259254854606
 21
14.573231520722731
 31
0.0
  0
ARC
  5
39D
  8
0
 10
94.431481245097132
 20
16.83747111035818
 30
0.0
 40
3.0734000000003121
 50
227.45287406106559
 51
252.54712593896281
  0
LINE
  5
39E
  8
0
 10
93.509703235340851
 20
13.905558277286289
 30
0.0
 11
94.431481245097132
 21
13.37336949522043
 31
0.0
  0
LINE
  5
39F
  8
0
 10
94.431481245097132
 20
13.37336949522043
 30
0.0
 11
95.353259254854606
 21
13.905558277287
 31
0.0
  0
ARC
  5
3A0
  8
0
 10
94.431481245097132
 20
16.83747111035818
 30
0.0
 40
3.0734000000003112
 50
287.45287406106451
 51
312.5471259389621
  0
LINE
  5
3A1
  8
0
 10
96.509703235340851
 20
14.57323152072347
 30
0.0
 11
97.431481245097146
 21
15.105420302789311
 31
0.0
  0
LINE
  5
3A2
  8
0
 10
97.431481245097146
 20
15.105420302789311
 30
0.0
 11
97.431481245097146
 21
16.169797866922451
 31
0.0
  0
ARC
  5
3A3
  8
0
 10
94.431481245097132
 20
16.83747111035818
 30
0.0
 40
3.0734000000000141
 50
347.45287406106632
 51
12.54712593893448
  0
LINE
  5
3A4
  8
0
 10
97.431481245097146
 20
17.505144353793931
 30
0.0
 11
97.431481245097146
 21
18.569521917927101
 31
0.0
  0
LINE
  5
3A5
  8
0
 10
97.431481245097146
 20
18.569521917927101
 30
0.0
 11
96.509703235339146
 21
19.101710699993909
 31
0.0
  0
ARC
  5
3A6
  8
0
 10
94.431481245097132
 20
16.83747111035818
 30
0.0
 40
3.073400000000003
 50
47.452874061074233
 51
72.547125938935466
  0
LINE
  5
3A7
  8
0
 10
95.353259254854606
 20
19.769383943429371
 30
0.0
 11
94.431481245097132
 21
20.301572725495941
 31
0.0
  0
LINE
  5
3A8
  8
0
 10
94.431481245097132
 20
20.301572725495941
 30
0.0
 11
93.509703235339146
 21
19.769383943429101
 31
0.0
  0
CIRCLE
  5
3AB
  8
0
 10
94.431481245097132
 20
16.83747111035818
 30
0.0
 40
6.0000000000000142
  0
ARC
  5
3AC
  8
0
 10
94.431481245097132
 20
16.83747111035818
 30
0.0
 40
3.0734000000000141
 50
12.54712593893448
 51
47.452874061065032
  0
ARC
  5
3AD
  8
0
 10
94.431481245097132
 20
16.83747111035818
 30
0.0
 40
3.0734000000000128
 50
312.54712593893549
 51
347.45287406106632
  0
ARC
  5
3AE
  8
0
 10
94.431481245097132
 20
16.83747111035818
 30
0.0
 40
3.073400000000003
 50
252.54712593893549
 51
287.45287406106769
  0
ARC
  5
3AF
  8
0
 10
94.431481245097132
 20
16.83747111035818
 30
0.0
 40
3.073400000000007
 50
72.547125938935466
 51
107.45287406106451
  0
ARC
  5
3B0
  8
0
 10
94.431481245097132
 20
16.83747111035818
 30
0.0
 40
3.0733999999999968
 50
192.54712593893521
 51
227.45287406106559
  0
ARC
  5
3B1
  8
0
 10
94.431481245097132
 20
16.83747111035818
 30
0.0
 40
3.0733999999999999
 50
132.5471259389349
 51
167.4528740610655
  0
LINE
  5
3C6
  8
1
 10
103.4314812450971
 20
16.83747111035818
 30
0.0
 11
85.431481245097132
 21
16.83747111035818
 31
0.0
  0
LINE
  5
3C7
  8
1
 10
15.95600610697565
 20
7.8374711103581802
 30
0.0
 11
15.95600610697565
 21
25.83747111035818
 31
0.0
  0
LINE
  5
3C8
  8
1
 10
94.431481245097132
 20
7.837471110358166
 30
0.0
 11
94.431481245097132
 21
25.837471110358191
 31
0.0
  0
LINE
  5
3CB
  8
0
 10
72.445095272146375
 20
21.105420110358182
 30
0.0
 11
72.445095272146375
 21
12.56952211035818
 31
0.0
  0
LINE
  5
3CC
  8
0
 10
71.445095272146375
 20
22.83747111035818
 30
0.0
 11
48.445095272146368
 21
22.83747111035818
 31
0.0
  0
LINE
  5
3CD
  8
0
 10
71.445095272146375
 20
22.83747111035818
 30
0.0
 11
71.445095272146375
 21
10.83747111035818
 31
0.0
  0
LINE
  5
3CE
  8
0
 10
47.445095272146382
 20
21.105420110358182
 30
0.0
 11
47.445095272146382
 21
12.56952211035818
 31
0.0
  0
LINE
  5
3CF
  8
0
 10
48.445095272146368
 20
22.83747111035818
 30
0.0
 11
48.445095272146368
 21
10.83747111035818
 31
0.0
  0
LINE
  5
3D0
  8
0
 10
48.445095272146368
 20
22.83747111035818
 30
0.0
 11
47.445095272146382
 21
21.105420110358182
 31
0.0
  0
LINE
  5
3D1
  8
0
 10
71.445095272146375
 20
22.83747111035818
 30
0.0
 11
72.445095272146375
 21
21.105420110358182
 31
0.0
  0
LINE
  5
3D2
  8
3
 10
71.991846272146347
 20
21.890471110358181
 30
0.0
 11
47.898344272146353
 21
21.890471110358181
 31
0.0
  0
LINE
  5
3D3
  8
3
 10
71.991846272146347
 20
11.784471110358179
 30
0.0
 11
47.898344272146353
 21
11.784471110358179
 31
0.0
  0
LINE
  5
3D4
  8
0
 10
71.445095272146375
 20
10.83747111035818
 30
0.0
 11
72.445095272146375
 21
12.56952211035818
 31
0.0
  0
LINE
  5
3D5
  8
0
 10
48.445095272146368
 20
10.83747111035818
 30
0.0
 11
47.445095272146382
 21
12.56952211035818
 31
0.0
  0
LINE
  5
3D6
  8
0
 10
71.445095272146375
 20
10.83747111035818
 30
0.0
 11
48.445095272146368
 21
10.83747111035818
 31
0.0
  0
LINE
  5
3E1
  8
1
 10
75.445095272146375
 20
16.83747111035818
 30
0.0
 11
40.445095272146361
 21
16.83747111035818
 31
0.0
  0
LINE
  5
3E2
  8
1
 10
24.95600610697565
 20
16.83747111035818
 30
0.0
 11
6.95600610697565
 21
16.83747111035818
 31
0.0
  0
LINE
  5
6FA
  8
0
 10
14.60529516786776
 20
15.27856580787572
 30
0.0
 11
12.94951283969243
 21
13.36756636571967
 31
0.0
  0
ARC
  5
6FB
  8
0
 10
13.2035074651786
 20
14.82031780014475
 30
0.0
 40
1.4747881203752591
 50
257.93757551597469
 51
260.0828193905034
  0
ARC
  5
6FC
  8
0
 10
13.078397628893329
 20
14.728631752948489
 30
0.0
 40
1.3628932034506771
 50
170.1915349451875
 51
262.27970044063591
  0
ARC
  5
6FD
  8
0
 10
13.2035074651786
 20
14.82031780014475
 30
0.0
 40
1.474788120384054
 50
172.38841599554229
 51
174.53365986946389
  0
LINE
  5
6FE
  8
0
 10
14.062673939732919
 20
16.018997477540609
 30
0.0
 11
11.74171402660974
 21
15.015663501292609
 31
0.0
  0
ARC
  5
6FF
  8
0
 10
13.2035074651786
 20
14.82031780014475
 30
0.0
 40
1.4747881203752551
 50
38.487442487456761
 51
54.368533676216948
  0
LINE
  5
700
  8
0
 10
14.42639545772569
 20
15.64466296916323
 30
0.0
 11
14.35788986501349
 21
15.738142007142701
 31
0.0
  0
ARC
  5
701
  8
0
 10
13.2035074651786
 20
14.82031780014475
 30
0.0
 40
1.474788120375248
 50
18.102701709827709
 51
33.983792898587772
  0
LINE
  5
702
  8
0
 10
15.41544126287547
 20
14.846894452086341
 30
0.0
 11
14.752784516580761
 21
12.406726420411371
 31
0.0
  0
ARC
  5
703
  8
0
 10
14.35130054238158
 20
13.825814373450649
 30
0.0
 40
1.4747881203752551
 50
283.6518612302612
 51
285.79710510478901
  0
ARC
  5
704
  8
0
 10
14.27836155980358
 20
13.688924975746909
 30
0.0
 40
1.362893203458899
 50
195.9058206595212
 51
287.99398615476707
  0
ARC
  5
705
  8
0
 10
14.35130054238158
 20
13.825814373450649
 30
0.0
 40
1.4747881203883111
 50
198.10270170982889
 51
200.24794558345641
  0
ARC
  5
706
  8
0
 10
14.35130054238158
 20
13.825814373450649
 30
0.0
 40
1.474788120375248
 50
64.2017282017421
 51
80.082819390502465
  0
LINE
  5
707
  8
0
 10
15.09541458834096
 20
15.09911492187036
 30
0.0
 11
14.993134147502429
 21
15.15361316217488
 31
0.0
  0
ARC
  5
708
  8
0
 10
14.35130054238158
 20
13.825814373450649
 30
0.0
 40
1.4747881203752411
 50
43.816987424113037
 51
59.698078612873353
  0
LINE
  5
709
  8
0
 10
16.332652854849979
 20
14.80948121628834
 30
0.0
 11
16.794368985991198
 21
12.32344980046466
 31
0.0
  0
ARC
  5
70A
  8
0
 10
15.816925237074649
 20
13.42780649904708
 30
0.0
 40
1.47478812037523
 50
309.36614694454749
 51
311.51139081907507
  0
ARC
  5
70B
  8
0
 10
15.81060356823637
 20
13.27282637488252
 30
0.0
 40
1.3628932034596519
 50
221.62010637381181
 51
313.70827186903841
  0
ARC
  5
70C
  8
0
 10
15.816925237074649
 20
13.42780649904708
 30
0.0
 40
1.474788120388685
 50
223.81698742411419
 51
225.96223129771531
  0
ARC
  5
70D
  8
0
 10
15.816925237074649
 20
13.42780649904708
 30
0.0
 40
1.474788120375246
 50
89.916013916028405
 51
105.7971051047883
  0
LINE
  5
70E
  8
0
 10
15.934884423684171
 20
14.897869637247069
 30
0.0
 11
15.819087030414661
 21
14.90259303500728
 31
0.0
  0
ARC
  5
70F
  8
0
 10
15.816925237074649
 20
13.42780649904708
 30
0.0
 40
1.474788120375254
 50
69.531273138399371
 51
85.412364327159395
  0
LINE
  5
710
  8
0
 10
17.175264939138749
 20
15.17373625067472
 30
0.0
 11
18.669905405366649
 21
13.134230461780639
 31
0.0
  0
ARC
  5
711
  8
0
 10
17.310096603766549
 20
13.705124517705899
 30
0.0
 40
1.4747881203752209
 50
335.08043265883271
 51
337.22567653336131
  0
ARC
  5
712
  8
0
 10
17.371644332718368
 20
13.562749381370191
 30
0.0
 40
1.362893203450841
 50
247.33439208804899
 51
339.42255758348858
  0
ARC
  5
713
  8
0
 10
17.310096603766549
 20
13.705124517705899
 30
0.0
 40
1.474788120384082
 50
249.531273138399
 51
251.67651701231819
  0
ARC
  5
714
  8
0
 10
17.310096603766549
 20
13.705124517705899
 30
0.0
 40
1.4747881203752611
 50
115.630299630314
 51
131.51139081907431
  0
LINE
  5
715
  8
0
 10
16.7785376674437
 20
15.080786212024419
 30
0.0
 11
16.672158415642091
 21
15.03479924038527
 31
0.0
  0
ARC
  5
716
  8
0
 10
17.310096603766549
 20
13.705124517705899
 30
0.0
 40
1.47478812037527
 50
95.245558852685505
 51
111.1266500414453
  0
LINE
  5
717
  8
0
 10
17.776387858489372
 20
15.867514378390419
 30
0.0
 11
20.00792078490511
 21
14.67848335081346
 31
0.0
  0
ARC
  5
718
  8
0
 10
18.535073740738881
 20
14.60284219474944
 30
0.0
 40
1.474788120375262
 50
0.7947183731185632
 51
2.93996224764618
  0
ARC
  5
719
  8
0
 10
18.652300584919541
 20
14.50127118812143
 30
0.0
 40
1.362893203456409
 50
273.04867780236782
 51
5.1368432976683556
  0
ARC
  5
71A
  8
0
 10
18.535073740738881
 20
14.60284219474944
 30
0.0
 40
1.4747881203869451
 50
275.24555885268558
 51
277.39080272640751
  0
ARC
  5
71B
  8
0
 10
18.535073740738881
 20
14.60284219474944
 30
0.0
 40
1.4747881203752511
 50
141.34458534459981
 51
157.22567653336
  0
LINE
  5
71C
  8
0
 10
17.459278447964991
 20
15.61163577524321
 30
0.0
 11
17.383387053106439
 21
15.524046717931
 31
0.0
  0
ARC
  5
71D
  8
0
 10
18.535073740738881
 20
14.60284219474944
 30
0.0
 40
1.4747881203752471
 50
120.9598445669704
 51
136.84093575573061
  0
LINE
  5
71E
  8
0
 10
18.01696184643562
 20
16.753404332611002
 30
0.0
 11
20.543404769007271
 21
16.65035024387134
 31
0.0
  0
ARC
  5
71F
  8
0
 10
19.24923490265563
 20
15.94315553445443
 30
0.0
 40
1.4747881203752231
 50
26.509004087404449
 51
28.654247961931549
  0
ARC
  5
720
  8
0
 10
19.398922647883001
 20
15.902506041078681
 30
0.0
 40
1.362893203459657
 50
298.76296351666872
 51
30.851129011895232
  0
ARC
  5
721
  8
0
 10
19.24923490265563
 20
15.94315553445443
 30
0.0
 40
1.474788120388693
 50
300.95984456697067
 51
303.10508844057227
  0
ARC
  5
722
  8
0
 10
19.24923490265563
 20
15.94315553445443
 30
0.0
 40
1.4747881203752631
 50
167.05887105888601
 51
182.93996224764649
  0
LINE
  5
723
  8
0
 10
17.84227770492792
 20
16.38527706046531
 30
0.0
 11
17.811905388511089
 21
16.273434004490031
 31
0.0
  0
ARC
  5
724
  8
0
 10
19.24923490265563
 20
15.94315553445443
 30
0.0
 40
1.4747881203752551
 50
146.67413028125671
 51
162.5552214700169
  0
LINE
  5
725
  8
0
 10
17.849338274218379
 20
17.655944743175759
 30
0.0
 11
20.170298187341569
 21
18.659278719423781
 31
0.0
  0
ARC
  5
726
  8
0
 10
19.311131712787269
 20
17.460599042027919
 30
0.0
 40
1.4747881203752411
 50
52.223289801689781
 51
54.368533676217929
  0
ARC
  5
727
  8
0
 10
19.463632865331419
 20
17.488922192605241
 30
0.0
 40
1.362893203450265
 50
324.47724923090391
 51
56.565414726355307
  0
ARC
  5
728
  8
0
 10
19.311131712787269
 20
17.460599042027919
 30
0.0
 40
1.474788120383755
 50
326.67413028125668
 51
328.81937415519792
  0
ARC
  5
729
  8
0
 10
19.311131712787269
 20
17.460599042027919
 30
0.0
 40
1.4747881203752491
 50
192.7731567731725
 51
208.6542479619323
  0
LINE
  5
72A
  8
0
 10
17.85167773831342
 20
17.24848092306479
 30
0.0
 11
17.872840110096689
 21
17.134535757327381
 31
0.0
  0
ARC
  5
72B
  8
0
 10
19.311131712787269
 20
17.460599042027919
 30
0.0
 40
1.4747881203752651
 50
172.3884159955424
 51
188.26950718430271
  0
LINE
  5
72C
  8
0
 10
17.306717046083548
 20
18.396376412840649
 30
0.0
 11
18.962499374258869
 21
20.30737585499671
 31
0.0
  0
ARC
  5
72D
  8
0
 10
18.7085047487727
 20
18.854624420571639
 30
0.0
 40
1.47478812037525
 50
77.937575515974132
 51
80.082819390502465
  0
ARC
  5
72E
  8
0
 10
18.833614585057859
 20
18.946310467767841
 30
0.0
 40
1.3628932034507779
 50
350.19153494519151
 51
82.279700440630876
  0
ARC
  5
72F
  8
0
 10
18.7085047487727
 20
18.854624420571639
 30
0.0
 40
1.4747881203840529
 50
352.3884159955436
 51
354.53365986946523
  0
ARC
  5
730
  8
0
 10
18.7085047487727
 20
18.854624420571639
 30
0.0
 40
1.474788120375238
 50
218.48744248745811
 51
234.36853367621779
  0
LINE
  5
731
  8
0
 10
17.48561675622561
 20
18.030279251553139
 30
0.0
 11
17.554122348937842
 21
17.936800213573669
 31
0.0
  0
ARC
  5
732
  8
0
 10
18.7085047487727
 20
18.854624420571639
 30
0.0
 40
1.474788120375248
 50
198.10270170982849
 51
213.98379289858849
  0
LINE
  5
733
  8
0
 10
16.496570951075821
 20
18.828047768630029
 30
0.0
 11
17.159227697370518
 21
21.268215800305001
 31
0.0
  0
ARC
  5
734
  8
0
 10
17.56071167156972
 20
19.84912784726572
 30
0.0
 40
1.4747881203752611
 50
103.65186123026091
 51
105.797105104789
  0
ARC
  5
735
  8
0
 10
17.633650654147662
 20
19.986017244969421
 30
0.0
 40
1.3628932034589669
 50
15.90582065952194
 51
107.9939861547636
  0
ARC
  5
736
  8
0
 10
17.56071167156972
 20
19.84912784726572
 30
0.0
 40
1.4747881203883151
 50
18.102701709827709
 51
20.24794558345604
  0
ARC
  5
737
  8
0
 10
17.56071167156972
 20
19.84912784726572
 30
0.0
 40
1.4747881203752511
 50
244.20172820174409
 51
260.08281939050329
  0
LINE
  5
738
  8
0
 10
16.816597625610349
 20
18.575827298846011
 30
0.0
 11
16.918878066448901
 21
18.521329058541479
 31
0.0
  0
ARC
  5
739
  8
0
 10
17.56071167156972
 20
19.84912784726572
 30
0.0
 40
1.4747881203752511
 50
223.81698742411419
 51
239.69807861287441
  0
LINE
  5
73A
  8
0
 10
15.57935935910132
 20
18.865461004428031
 30
0.0
 11
15.117643227960089
 21
21.35149242025172
 31
0.0
  0
ARC
  5
73B
  8
0
 10
16.09508697687664
 20
20.247135721669281
 30
0.0
 40
1.4747881203752531
 50
129.3661469445471
 51
131.51139081907459
  0
ARC
  5
73C
  8
0
 10
16.101408645714901
 20
20.402115845833851
 30
0.0
 40
1.362893203459671
 50
41.620106373810692
 51
133.7082718690375
  0
ARC
  5
73D
  8
0
 10
16.09508697687664
 20
20.247135721669281
 30
0.0
 40
1.4747881203887021
 50
43.816987424114579
 51
45.962231297715121
  0
ARC
  5
73E
  8
0
 10
16.09508697687664
 20
20.247135721669281
 30
0.0
 40
1.474788120375246
 50
269.91601391602921
 51
285.7971051047893
  0
LINE
  5
73F
  8
0
 10
15.977127790267129
 20
18.777072583469302
 30
0.0
 11
16.09292518353665
 21
18.772349185709071
 31
0.0
  0
ARC
  5
740
  8
0
 10
16.09508697687664
 20
20.247135721669281
 30
0.0
 40
1.474788120375248
 50
249.53127313840019
 51
265.41236432716011
  0
LINE
  5
741
  8
0
 10
14.73674727481254
 20
18.501205970041639
 30
0.0
 11
13.24210680858465
 21
20.540711758935721
 31
0.0
  0
ARC
  5
742
  8
0
 10
14.601915610184751
 20
19.969817703010449
 30
0.0
 40
1.4747881203752251
 50
155.0804326588318
 51
157.22567653336009
  0
ARC
  5
743
  8
0
 10
14.540367881232839
 20
20.112192839346271
 30
0.0
 40
1.3628932034507379
 50
67.334392088046599
 51
159.42255758349049
  0
ARC
  5
744
  8
0
 10
14.601915610184751
 20
19.969817703010449
 30
0.0
 40
1.4747881203840529
 50
69.531273138399371
 51
71.676517012320787
  0
ARC
  5
745
  8
0
 10
14.601915610184751
 20
19.969817703010449
 30
0.0
 40
1.474788120375252
 50
295.6302996303159
 51
311.51139081907581
  0
LINE
  5
746
  8
0
 10
15.1334745465076
 20
18.59415600869194
 30
0.0
 11
15.23985379830923
 21
18.640142980331088
 31
0.0
  0
ARC
  5
747
  8
0
 10
14.601915610184751
 20
19.969817703010449
 30
0.0
 40
1.4747881203752491
 50
275.24555885268637
 51
291.1266500414464
  0
ARC
  5
748
  8
0
 10
15.95600610697565
 20
16.83747111035818
 30
0.0
 40
1.9397164741270601
 50
269.37609065975079
 51
291.66657329772431
  0
ARC
  5
749
  8
0
 10
15.95600610697565
 20
16.83747111035818
 30
0.0
 40
1.9397164741270629
 50
243.66180494546521
 51
265.95228758343887
  0
ARC
  5
74A
  8
0
 10
15.95600610697565
 20
16.83747111035818
 30
0.0
 40
1.9397164741270629
 50
217.9475192311792
 51
240.23800186915281
  0
ARC
  5
74B
  8
0
 10
15.95600610697565
 20
16.83747111035818
 30
0.0
 40
1.9397164741270341
 50
192.23323351689331
 51
214.5237161548672
  0
LINE
  5
74C
  8
0
 10
14.0603344756379
 20
16.426461297651599
 30
0.0
 11
14.039172103854639
 21
16.54040646338899
 31
0.0
  0
ARC
  5
74D
  8
0
 10
15.95600610697565
 20
16.83747111035818
 30
0.0
 40
1.939716474127066
 50
166.5189478026067
 51
188.8094304405812
  0
LINE
  5
74E
  8
0
 10
14.06973450902337
 20
17.289665160251062
 30
0.0
 11
14.100106825440211
 21
17.40150821622634
 31
0.0
  0
ARC
  5
74F
  8
0
 10
15.95600610697565
 20
16.83747111035818
 30
0.0
 40
1.939716474127047
 50
140.80466208832161
 51
163.09514472629451
  0
LINE
  5
750
  8
0
 10
14.45273376598634
 20
18.063306445473131
 30
0.0
 11
14.52862516084488
 21
18.150895502785339
 31
0.0
  0
ARC
  5
751
  8
0
 10
15.95600610697565
 20
16.83747111035818
 30
0.0
 40
1.9397164741270521
 50
115.0903763740358
 51
137.3808590120091
  0
ARC
  5
752
  8
0
 10
15.95600610697565
 20
16.83747111035818
 30
0.0
 40
1.9397164741270549
 50
89.376090659750005
 51
111.6665732977236
  0
ARC
  5
753
  8
0
 10
15.95600610697565
 20
16.83747111035818
 30
0.0
 40
1.9397164741270629
 50
63.661804945464489
 51
85.952287583438064
  0
ARC
  5
754
  8
0
 10
15.95600610697565
 20
16.83747111035818
 30
0.0
 40
1.9397164741270609
 50
37.947519231179193
 51
60.238001869151901
  0
ARC
  5
755
  8
0
 10
15.95600610697565
 20
16.83747111035818
 30
0.0
 40
1.9397164741270609
 50
12.23323351689311
 51
34.523716154866356
  0
ARC
  5
756
  8
0
 10
15.95600610697565
 20
16.83747111035818
 30
0.0
 40
1.939716474127072
 50
346.51894780260818
 51
8.8094304405806092
  0
ARC
  5
757
  8
0
 10
15.95600610697565
 20
16.83747111035818
 30
0.0
 40
1.9397164741270789
 50
320.80466208832252
 51
343.09514472629593
  0
ARC
  5
758
  8
0
 10
15.95600610697565
 20
16.83747111035818
 30
0.0
 40
1.9397164741270689
 50
295.09037637403719
 51
317.38085901201038
  0
LINE
  5
759
  8
0
 10
13.89505036751571
 20
16.921537888105391
 30
0.0
 11
11.368607444944031
 21
17.024591976845041
 31
0.0
  0
ARC
  5
75A
  8
0
 10
12.66277731129572
 20
17.731786686261952
 30
0.0
 40
1.4747881203752631
 50
206.50900408740409
 51
208.6542479619315
  0
ARC
  5
75B
  8
0
 10
12.513089566063719
 20
17.772436179637172
 30
0.0
 40
1.362893203455428
 50
118.76296351664431
 51
210.85112901197439
  0
ARC
  5
75C
  8
0
 10
12.66277731129572
 20
17.731786686261952
 30
0.0
 40
1.4747881203864941
 50
120.95984456697229
 51
123.1050884407244
  0
LINE
  5
75D
  8
0
 10
11.90409142904617
 20
18.996458869902909
 30
0.0
 11
14.135624355461969
 21
17.80742784232595
 31
0.0
  0
ARC
  5
75E
  8
0
 10
12.66277731129572
 20
17.731786686261952
 30
0.0
 40
1.474788120375244
 50
347.05887105888598
 51
2.9399622476448228
  0
ARC
  5
75F
  8
0
 10
12.66277731129572
 20
17.731786686261952
 30
0.0
 40
1.474788120375232
 50
326.67413028125668
 51
342.55522147001682
  0
ARC
  5
760
  8
0
 10
12.60088050116404
 20
16.21434317868848
 30
0.0
 40
1.4747881203752471
 50
232.22328980169061
 51
234.36853367621811
  0
ARC
  5
761
  8
0
 10
12.44837934862462
 20
16.1860200281142
 30
0.0
 40
1.362893203455428
 50
144.47724923092829
 51
236.5654147262612
  0
ARC
  5
762
  8
0
 10
12.60088050116404
 20
16.21434317868848
 30
0.0
 40
1.474788120386499
 50
146.6741302812564
 51
148.81937415500909
  0
ARC
  5
763
  8
0
 10
12.60088050116404
 20
16.21434317868848
 30
0.0
 40
1.474788120375244
 50
12.77315677317085
 51
28.654247961931141
  0
ARC
  5
764
  8
0
 10
12.60088050116404
 20
16.21434317868848
 30
0.0
 40
1.4747881203752591
 50
352.38841599554269
 51
8.2695071843019257
  0
ARC
  5
765
  8
0
 10
13.376938473212419
 20
19.07210002596689
 30
0.0
 40
1.474788120375244
 50
180.79471837311931
 51
182.93996224764521
  0
ARC
  5
766
  8
0
 10
13.2597116290319
 20
19.173671032594889
 30
0.0
 40
1.3628932034565251
 50
93.048677802365745
 51
185.13684329766869
  0
ARC
  5
767
  8
0
 10
13.376938473212419
 20
19.07210002596689
 30
0.0
 40
1.474788120387059
 50
95.245558852684653
 51
97.390802726399954
  0
ARC
  5
768
  8
0
 10
13.376938473212419
 20
19.07210002596689
 30
0.0
 40
1.474788120375246
 50
321.3445853446018
 51
337.22567653336171
  0
ARC
  5
769
  8
0
 10
13.376938473212419
 20
19.07210002596689
 30
0.0
 40
1.474788120375242
 50
300.9598445669734
 51
316.84093575573229
  0
ARC
  5
76A
  8
0
 10
15.95600610697565
 20
16.83747111035818
 30
0.0
 40
4.6189999999999394
 50
202.7848226267767
 51
203.97212704476169
  0
ARC
  5
76B
  8
0
 10
15.95600610697565
 20
16.83747111035818
 30
0.0
 40
4.6189999999999323
 50
228.499108341062
 51
229.68641275893989
  0
ARC
  5
76C
  8
0
 10
15.95600610697565
 20
16.83747111035818
 30
0.0
 40
4.6189999999999323
 50
254.213394055348
 51
255.40069847321601
  0
ARC
  5
76D
  8
0
 10
15.95600610697565
 20
16.83747111035818
 30
0.0
 40
4.6189999999999456
 50
279.92767976963393
 51
281.11498418761812
  0
ARC
  5
76E
  8
0
 10
15.95600610697565
 20
16.83747111035818
 30
0.0
 40
4.61899999999995
 50
305.64196548391942
 51
306.82926990183159
  0
ARC
  5
76F
  8
0
 10
15.95600610697565
 20
16.83747111035818
 30
0.0
 40
4.6189999999999634
 50
331.3562511982056
 51
332.54355561607309
  0
ARC
  5
770
  8
0
 10
15.95600610697565
 20
16.83747111035818
 30
0.0
 40
4.6189999999999447
 50
357.07053691249121
 51
358.25784133048342
  0
ARC
  5
771
  8
0
 10
15.95600610697565
 20
16.83747111035818
 30
0.0
 40
4.6189999999999536
 50
22.784822626776069
 51
23.972127044761201
  0
ARC
  5
772
  8
0
 10
15.95600610697565
 20
16.83747111035818
 30
0.0
 40
4.6189999999999563
 50
48.499108341061493
 51
49.68641275893922
  0
ARC
  5
773
  8
0
 10
15.95600610697565
 20
16.83747111035818
 30
0.0
 40
4.6189999999999571
 50
74.213394055347564
 51
75.400698473215144
  0
ARC
  5
774
  8
0
 10
15.95600610697565
 20
16.83747111035818
 30
0.0
 40
4.618999999999942
 50
99.927679769633343
 51
101.1149841876183
  0
ARC
  5
775
  8
0
 10
15.95600610697565
 20
16.83747111035818
 30
0.0
 40
4.6189999999999323
 50
125.6419654839188
 51
126.8292699018284
  0
ARC
  5
776
  8
0
 10
15.95600610697565
 20
16.83747111035818
 30
0.0
 40
4.618999999999934
 50
151.35625119820509
 51
152.54355561612769
  0
ARC
  5
777
  8
0
 10
15.95600610697565
 20
16.83747111035818
 30
0.0
 40
4.618999999999934
 50
177.07053691249001
 51
178.25784133041321
  0
CIRCLE
  5
778
  8
0
 10
15.95600610697565
 20
16.83747111035818
 30
0.0
 40
4.9999999999999298
  0
CIRCLE
  5
779
  8
3
 10
15.95600610697565
 20
16.83747111035818
 30
0.0
 40
5.0529999999999973
  0
CIRCLE
  5
77B
  8
0
 10
15.95600610697565
 20
16.83747111035818
 30
0.0
 40
5.9999999999999103
  0
LINE
  5
77C
  8
0
 10
44.826095272146347
 20
11.83747111035825
 30
0.0
 11
45.845095272146359
 21
11.83747111035825
 31
0.0
  0
LINE
  5
77D
  8
0
 10
45.845095272146359
 20
21.83747111035812
 30
0.0
 11
44.826095272146347
 21
21.83747111035812
 31
0.0
  0
ARC
  5
77E
  8
0
 10
44.826095272146347
 20
12.21847111035825
 30
0.0
 40
0.3809999999999981
 50
235.19231222703269
 51
270.0000000000008
  0
ARC
  5
77F
  8
0
 10
44.826095272146347
 20
21.45647111035812
 30
0.0
 40
0.3809999999999981
 50
90.0
 51
124.7928433805038
  0
ARC
  5
780
  8
0
 10
45.032595272146359
 20
17.460599042027919
 30
0.0
 40
1.5874999999999919
 50
148.5930012261739
 51
208.60250022471061
  0
ARC
  5
781
  8
0
 10
45.032595272146359
 20
15.94315553445443
 30
0.0
 40
1.587499999999987
 50
151.3974997752905
 51
212.8196961616832
  0
ARC
  5
782
  8
0
 10
45.032595272146359
 20
18.854624420571639
 30
0.0
 40
1.5874999999999799
 50
133.0749429847138
 51
206.04411922788131
  0
ARC
  5
783
  8
0
 10
45.032595272146359
 20
14.60284219474944
 30
0.0
 40
1.587499999999967
 50
155.02985642802901
 51
234.01923804193771
  0
ARC
  5
784
  8
0
 10
45.032595272146359
 20
19.84912784726572
 30
0.0
 40
1.587499999999971
 50
110.375923028852
 51
198.25395888405151
  0
ARC
  5
785
  8
0
 10
45.032595272146359
 20
13.705124517705899
 30
0.0
 40
1.587499999999967
 50
163.57585326582611
 51
250.6744339211381
  0
ARC
  5
786
  8
0
 10
45.826345272146348
 20
16.83747111035818
 30
0.0
 40
2.3812499999999761
 50
171.71233514604691
 51
191.9470564927943
  0
ARC
  5
787
  8
0
 10
45.032595272146359
 20
13.42780649904708
 30
0.0
 40
1.5874999999999759
 50
174.98915753217301
 51
255.1876408555529
  0
ARC
  5
788
  8
0
 10
45.032595272146359
 20
20.247135721669281
 30
0.0
 40
1.587499999999979
 50
104.81758485380421
 51
187.20136161694251
  0
POLYLINE
  5
789
  8
0
 66
     1
 10
0.0
 20
0.0
 30
0.0
 70
   128
  0
VERTEX
  5
AFF
  8
0
 10
43.451162399991631
 20
20.108476712340181
 30
0.0
  0
VERTEX
  5
B00
  8
0
 10
43.44517100716331
 20
19.954311157845591
 30
0.0
  0
VERTEX
  5
B01
  8
0
 10
43.446242619146439
 20
19.909472775137768
 30
0.0
  0
SEQEND
  5
B02
  8
0
  0
ARC
  5
78A
  8
0
 10
45.032595272146359
 20
13.825814373450649
 30
0.0
 40
1.5874999999999659
 50
165.83393441931599
 51
182.17848370439879
  0
ARC
  5
78B
  8
0
 10
45.032595272146359
 20
19.07210002596689
 30
0.0
 40
1.5874999999999759
 50
165.8339344193148
 51
183.92762156786259
  0
ARC
  5
78C
  8
0
 10
45.032595272146359
 20
14.82031780014475
 30
0.0
 40
1.587499999999985
 50
159.2892909285527
 51
183.92762156789161
  0
ARC
  5
78D
  8
0
 10
45.032595272146359
 20
17.731786686261952
 30
0.0
 40
1.5874999999999899
 50
159.2892909285531
 51
184.8997991960307
  0
ARC
  5
78E
  8
0
 10
45.032595272146359
 20
16.21434317868848
 30
0.0
 40
1.587499999999981
 50
169.8452860431488
 51
184.89979919603289
  0
LINE
  5
78F
  8
0
 10
45.845095272146359
 20
12.856471110358211
 30
0.0
 11
46.751700394567742
 21
13.763076232779611
 31
0.0
  0
LINE
  5
790
  8
0
 10
46.751700394567742
 20
19.91186598793675
 30
0.0
 11
45.845095272146359
 21
20.818471110358139
 31
0.0
  0
ARC
  5
791
  8
0
 10
46.93130551698912
 20
13.58347111035822
 30
0.0
 40
0.2540000000000025
 50
90.0
 51
134.99999999999821
  0
ARC
  5
792
  8
0
 10
46.93130551698912
 20
20.091471110358128
 30
0.0
 40
0.2539999999999898
 50
225.0000000000008
 51
270.0000000000008
  0
LINE
  5
793
  8
0
 10
46.93130551698912
 20
13.837471110358219
 30
0.0
 11
47.445095272146382
 21
13.837471110358219
 31
0.0
  0
LINE
  5
794
  8
0
 10
47.445095272146382
 20
19.837471110358148
 30
0.0
 11
46.93130551698912
 21
19.837471110358141
 31
0.0
  0
LINE
  5
80A
  8
0
 10
45.845095272146359
 20
11.83747111035825
 30
0.0
 11
45.845095272146359
 21
21.83747111035812
 31
0.0
  0
ARC
  5
80B
  8
0
 10
44.872113241043202
 20
12.24053539867492
 30
0.0
 40
0.4247331237195553
 50
179.86484238127551
 51
231.79779598606129
  0
POLYLINE
  5
80C
  8
0
 66
     1
 10
0.0
 20
0.0
 30
0.0
 70
   128
  0
VERTEX
  5
B03
  8
0
 10
44.511682339575941
 20
12.22093409371273
 30
0.0
  0
VERTEX
  5
B04
  8
0
 10
44.548166684790289
 20
12.203436017451461
 30
0.0
  0
VERTEX
  5
B05
  8
0
 10
44.59255099065286
 20
12.21805809926536
 30
0.0
  0
VERTEX
  5
B06
  8
0
 10
44.629018531145853
 20
12.25545351578984
 30
0.0
  0
VERTEX
  5
B07
  8
0
 10
44.627012778973381
 20
12.350156156527961
 30
0.0
  0
VERTEX
  5
B08
  8
0
 10
44.587292375487053
 20
12.451745491392581
 30
0.0
  0
VERTEX
  5
B09
  8
0
 10
44.539052463166492
 20
12.573938264734389
 30
0.0
  0
VERTEX
  5
B0A
  8
0
 10
44.481522505391808
 20
12.76846540700806
 30
0.0
  0
VERTEX
  5
B0B
  8
0
 10
44.448172489765369
 20
12.993496878527321
 30
0.0
  0
VERTEX
  5
B0C
  8
0
 10
44.445095272146382
 20
13.08372909490569
 30
0.0
  0
SEQEND
  5
B0D
  8
0
  0
LINE
  5
80D
  8
0
 10
44.445095272146382
 20
13.08372909490569
 30
0.0
 11
44.445095272146382
 21
13.140306873298631
 31
0.0
  0
POLYLINE
  5
80E
  8
0
 66
     1
 10
0.0
 20
0.0
 30
0.0
 70
   128
  0
VERTEX
  5
B0E
  8
0
 10
44.445095272146382
 20
13.140306873298631
 30
0.0
  0
VERTEX
  5
B0F
  8
0
 10
44.459361376960857
 20
13.179687840281691
 30
0.0
  0
VERTEX
  5
B10
  8
0
 10
44.548166684790289
 20
13.325538774265921
 30
0.0
  0
VERTEX
  5
B11
  8
0
 10
44.59255099065286
 20
13.41027518747695
 30
0.0
  0
VERTEX
  5
B12
  8
0
 10
44.629018531145853
 20
13.516150287544731
 30
0.0
  0
VERTEX
  5
B13
  8
0
 10
44.627012778973381
 20
13.694851599675671
 30
0.0
  0
VERTEX
  5
B14
  8
0
 10
44.587292375487053
 20
13.849567087805029
 30
0.0
  0
VERTEX
  5
B15
  8
0
 10
44.539052463166492
 20
14.016908720107731
 30
0.0
  0
VERTEX
  5
B16
  8
0
 10
44.481522505391808
 20
14.26103793174126
 30
0.0
  0
VERTEX
  5
B17
  8
0
 10
44.448172489765369
 20
14.52275712836167
 30
0.0
  0
VERTEX
  5
B18
  8
0
 10
44.445095272146382
 20
14.62329751702007
 30
0.0
  0
SEQEND
  5
B19
  8
0
  0
LINE
  5
80F
  8
0
 10
44.445095272146382
 20
14.62329751702007
 30
0.0
 11
44.445095272146382
 21
14.70776945407489
 31
0.0
  0
ARC
  5
810
  8
0
 10
40.247665016857702
 20
15.654589814213489
 30
0.0
 40
4.3028931595364801
 50
347.28845722268068
 51
12.71154277732057
  0
LINE
  5
811
  8
0
 10
44.445095272146382
 20
16.601410174352122
 30
0.0
 11
44.445095272146382
 21
16.697045566966992
 31
0.0
  0
ARC
  5
812
  8
0
 10
40.500083073521701
 20
17.661661581062269
 30
0.0
 40
4.0612319931206287
 50
346.25989856736697
 51
13.74010143263415
  0
LINE
  5
813
  8
0
 10
44.445095272146382
 20
18.626277595157571
 30
0.0
 11
44.445095272146382
 21
18.714134680924559
 31
0.0
  0
ARC
  5
814
  8
0
 10
42.347871724491512
 20
19.505492317150601
 30
0.0
 40
2.2415605093887772
 50
339.32671061113052
 51
20.6732893888706
  0
LINE
  5
815
  8
0
 10
44.445095272146382
 20
20.29684995337665
 30
0.0
 11
44.445095272146382
 21
20.359527558958121
 31
0.0
  0
POLYLINE
  5
816
  8
0
 66
     1
 10
0.0
 20
0.0
 30
0.0
 70
   128
  0
VERTEX
  5
B1A
  8
0
 10
44.445095272146382
 20
20.359527558958121
 30
0.0
  0
VERTEX
  5
B1B
  8
0
 10
44.459361376960857
 20
20.56325356940873
 30
0.0
  0
VERTEX
  5
B1C
  8
0
 10
44.548166684790289
 20
20.921770045032691
 30
0.0
  0
VERTEX
  5
B1D
  8
0
 10
44.59255099065286
 20
21.041604265994671
 30
0.0
  0
VERTEX
  5
B1E
  8
0
 10
44.629018531145853
 20
21.148357865885892
 30
0.0
  0
VERTEX
  5
B1F
  8
0
 10
44.627012778973381
 20
21.257571601495709
 30
0.0
  0
VERTEX
  5
B20
  8
0
 10
44.587292375487053
 20
21.308090114473458
 30
0.0
  0
VERTEX
  5
B21
  8
0
 10
44.539052463166492
 20
21.335064647070169
 30
0.0
  0
VERTEX
  5
B22
  8
0
 10
44.481522505391808
 20
21.337871764866541
 30
0.0
  0
VERTEX
  5
B23
  8
0
 10
44.480130306233271
 20
21.33645078604285
 30
0.0
  0
SEQEND
  5
B24
  8
0
  0
POLYLINE
  5
817
  8
0
 66
     1
 10
0.0
 20
0.0
 30
0.0
 70
   128
  0
VERTEX
  5
B25
  8
0
 10
44.445095272146382
 20
21.307333962166538
 30
0.0
  0
VERTEX
  5
B26
  8
0
 10
44.459361376960857
 20
21.45318335860496
 30
0.0
  0
VERTEX
  5
B27
  8
0
 10
44.548166684790289
 20
21.675781477218418
 30
0.0
  0
VERTEX
  5
B28
  8
0
 10
44.59255099065286
 20
21.734169809432942
 30
0.0
  0
VERTEX
  5
B29
  8
0
 10
44.629018531145853
 20
21.772660697319139
 30
0.0
  0
VERTEX
  5
B2A
  8
0
 10
44.627542434479778
 20
21.778587192413621
 30
0.0
  0
SEQEND
  5
B2B
  8
0
  0
ARC
  5
818
  8
0
 10
44.521368601293631
 20
17.523164109502972
 30
0.0
 40
1.138672045680726
 50
93.840802589840905
 51
137.8112894959269
  0
ARC
  5
819
  8
0
 10
44.349147572631807
 20
21.60284611931063
 30
0.0
 40
4.9534252146656277
 50
261.7554098046773
 51
271.10988696159109
  0
ARC
  5
81A
  8
0
 10
44.577246925259317
 20
15.81412043260705
 30
0.0
 40
1.1433003284199339
 50
219.7705044503308
 51
263.36246618810719
  0
ARC
  5
81B
  8
0
 10
44.895083242614909
 20
18.977581596491358
 30
0.0
 40
1.4038667826828051
 50
108.69526229977841
 51
132.40261635625239
  0
POLYLINE
  5
81C
  8
0
 66
     1
 10
0.0
 20
0.0
 30
0.0
 70
   128
  0
VERTEX
  5
B2C
  8
0
 10
44.099917467365401
 20
13.318214481180689
 30
0.0
  0
VERTEX
  5
B2D
  8
0
 10
44.248575419858128
 20
13.2241762491501
 30
0.0
  0
VERTEX
  5
B2E
  8
0
 10
44.445095272146382
 20
13.134230461780639
 30
0.0
  0
SEQEND
  5
B2F
  8
0
  0
LINE
  5
85C
  8
0
 10
44.826095272146347
 20
11.83747111035825
 30
0.0
 11
44.826095272146361
 21
21.83747111035812
 31
0.0
  0
LINE
  5
85E
  8
0
 10
46.751700394567742
 20
13.763076232779611
 30
0.0
 11
46.751700394567742
 21
19.911865987936739
 31
0.0
  0
LINE
  5
85F
  8
0
 10
46.93130551698912
 20
19.837471110358141
 30
0.0
 11
46.93130551698912
 21
13.837471110358219
 31
0.0
  0
TEXT
  5
AA8
  8
0
 62
     3
 10
0.0
 20
0.0
 30
0.0
 40
5.0
  1
MTBU-12025-80UR
  7
STANDARD1
  0
ENDSEC
  0
EOF
