  0
SECTION
  2
HEADER
  9
$ACADVER
  1
AC1009
  9
$INSBASE
 10
0.0
 20
0.0
 30
0.0
  9
$EXTMIN
 10
0.0
 20
-1.4802182810368341
 30
0.0
  9
$EXTMAX
 10
84.70000160322445
 20
22.931033398050602
 30
0.0
  9
$LIMMIN
 10
0.0
 20
0.0
  9
$LIMMAX
 10
187.5
 20
135.0
  9
$ORTHOMODE
 70
     1
  9
$REGENMODE
 70
     1
  9
$FILLMODE
 70
     1
  9
$QTEXTMODE
 70
     0
  9
$MIRRTEXT
 70
     0
  9
$DRAGMODE
 70
     2
  9
$LTSCALE
 40
5.0
  9
$OSMODE
 70
  3071
  9
$ATTMODE
 70
     1
  9
$TEXTSIZE
 40
2.0
  9
$TRACEWID
 40
0.05
  9
$TEXTSTYLE
  7
STANDARD
  9
$CLAYER
  8
0
  9
$CELTYPE
  6
BYLAYER
  9
$CECOLOR
 62
   256
  9
$DIMSCALE
 40
0.5
  9
$DIMASZ
 40
3.0
  9
$DIMEXO
 40
2.0
  9
$DIMDLI
 40
10.0
  9
$DIMRND
 40
0.0
  9
$DIMDLE
 40
0.0
  9
$DIMEXE
 40
2.0
  9
$DIMTP
 40
0.0
  9
$DIMTM
 40
0.0
  9
$DIMTXT
 40
3.2000000000000002
  9
$DIMCEN
 40
0.09
  9
$DIMTSZ
 40
0.0
  9
$DIMTOL
 70
     0
  9
$DIMLIM
 70
     0
  9
$DIMTIH
 70
     0
  9
$DIMTOH
 70
     0
  9
$DIMSE1
 70
     0
  9
$DIMSE2
 70
     0
  9
$DIMTAD
 70
     1
  9
$DIMZIN
 70
     0
  9
$DIMBLK
  1

  9
$DIMASO
 70
     0
  9
$DIMSHO
 70
     0
  9
$DIMPOST
  1

  9
$DIMAPOST
  1

  9
$DIMALT
 70
     0
  9
$DIMALTD
 70
     2
  9
$DIMALTF
 40
25.399999999999999
  9
$DIMLFAC
 40
1.0
  9
$DIMTOFL
 70
     1
  9
$DIMTVP
 40
1.6000000000000001
  9
$DIMTIX
 70
     1
  9
$DIMSOXD
 70
     0
  9
$DIMSAH
 70
     0
  9
$DIMBLK1
  1

  9
$DIMBLK2
  1

  9
$DIMSTYLE
  2
STANDARD
  9
$DIMCLRD
 70
     0
  9
$DIMCLRE
 70
     0
  9
$DIMCLRT
 70
     0
  9
$DIMTFAC
 40
1.0
  9
$DIMGAP
 40
0.09
  9
$LUNITS
 70
     2
  9
$LUPREC
 70
     4
  9
$SKETCHINC
 40
0.1
  9
$FILLETRAD
 40
0.0
  9
$AUNITS
 70
     0
  9
$AUPREC
 70
     0
  9
$MENU
  1
E:\r13\win\SUPPORT\ACAD
  9
$ELEVATION
 40
0.0
  9
$PELEVATION
 40
0.0
  9
$THICKNESS
 40
0.0
  9
$LIMCHECK
 70
     0
  9
$BLIPMODE
 70
     0
  9
$CHAMFERA
 40
0.0
  9
$CHAMFERB
 40
0.0
  9
$SKPOLY
 70
     0
  9
$TDCREATE
 40
2449840.5950925932
  9
$TDUPDATE
 40
2456597.6699915281
  9
$TDINDWG
 40
0.0540340856
  9
$TDUSRTIMER
 40
0.0540340856
  9
$USRTIMER
 70
     1
  9
$ANGBASE
 50
0.0
  9
$ANGDIR
 70
     0
  9
$PDMODE
 70
     0
  9
$PDSIZE
 40
0.0
  9
$PLINEWID
 40
0.0
  9
$COORDS
 70
     1
  9
$SPLFRAME
 70
     0
  9
$SPLINETYPE
 70
     6
  9
$SPLINESEGS
 70
     8
  9
$ATTDIA
 70
     0
  9
$ATTREQ
 70
     1
  9
$HANDLING
 70
     1
  9
$HANDSEED
  5
BB4
  9
$SURFTAB1
 70
     6
  9
$SURFTAB2
 70
     6
  9
$SURFTYPE
 70
     6
  9
$SURFU
 70
     6
  9
$SURFV
 70
     6
  9
$UCSNAME
  2

  9
$UCSORG
 10
0.0
 20
0.0
 30
0.0
  9
$UCSXDIR
 10
1.0
 20
0.0
 30
0.0
  9
$UCSYDIR
 10
0.0
 20
1.0
 30
0.0
  9
$PUCSNAME
  2

  9
$PUCSORG
 10
0.0
 20
0.0
 30
0.0
  9
$PUCSXDIR
 10
1.0
 20
0.0
 30
0.0
  9
$PUCSYDIR
 10
0.0
 20
1.0
 30
0.0
  9
$USERI1
 70
     0
  9
$USERI2
 70
     1
  9
$USERI3
 70
     0
  9
$USERI4
 70
     0
  9
$USERI5
 70
     0
  9
$USERR1
 40
0.0
  9
$USERR2
 40
0.0
  9
$USERR3
 40
0.0
  9
$USERR4
 40
0.0
  9
$USERR5
 40
0.0
  9
$WORLDVIEW
 70
     1
  9
$SHADEDGE
 70
     3
  9
$SHADEDIF
 70
    70
  9
$TILEMODE
 70
     1
  9
$MAXACTVP
 70
    16
  9
$PLIMCHECK
 70
     0
  9
$PEXTMIN
 10
1.0000000000000000E+020
 20
1.0000000000000000E+020
 30
1.0000000000000000E+020
  9
$PEXTMAX
 10
-1.0000000000000000E+020
 20
-1.0000000000000000E+020
 30
-1.0000000000000000E+020
  9
$PLIMMIN
 10
0.0
 20
0.0
  9
$PLIMMAX
 10
12.0
 20
9.0
  9
$UNITMODE
 70
     0
  9
$VISRETAIN
 70
     0
  9
$PLINEGEN
 70
     0
  9
$PSLTSCALE
 70
     0
  0
ENDSEC
  0
SECTION
  2
TABLES
  0
TABLE
  2
VPORT
 70
     1
  0
VPORT
  2
*ACTIVE
 70
     0
 10
0.0
 20
0.0
 11
1.0
 21
1.0
 12
93.747139195326156
 22
67.05183146954721
 13
0.0
 23
0.0
 14
5.0
 24
5.0
 15
5.0
 25
5.0
 16
0.0
 26
0.0
 36
1.0
 17
0.0
 27
0.0
 37
0.0
 40
138.6470298934976
 41
2.304913294797688
 42
50.0
 43
0.0
 44
0.0
 50
0.0
 51
0.0
 71
     0
 72
   100
 73
     1
 74
     0
 75
     0
 76
     0
 77
     0
 78
     0
  0
ENDTAB
  0
TABLE
  2
LTYPE
 70
     3
  0
LTYPE
  2
CONTINUOUS
 70
     0
  3
Solid Line
 72
    65
 73
     0
 40
0.0
  0
LTYPE
  2
CENTER
 70
     0
  3
____ _ ____ _ ____ _ ____ _ ____ _ ____ _ ____
 72
    65
 73
     4
 40
2.0
 49
1.25
 49
-0.25
 49
0.25
 49
-0.25
  0
LTYPE
  2
PHANTOM2
 70
     0
  3
___ _ _ ___ _ _ ___ _ _ ___ _ _
 72
    65
 73
     6
 40
1.25
 49
0.625
 49
-0.125
 49
0.125
 49
-0.125
 49
0.125
 49
-0.125
  0
ENDTAB
  0
TABLE
  2
LAYER
 70
     3
  0
LAYER
  2
0
 70
     0
 62
     7
  6
CONTINUOUS
  0
LAYER
  2
1
 70
     0
 62
     1
  6
CENTER
  0
LAYER
  2
3
 70
     0
 62
     3
  6
CONTINUOUS
  0
ENDTAB
  0
TABLE
  2
STYLE
 70
     2
  0
STYLE
  2
STANDARD
 70
     0
 40
0.0
 41
1.0
 50
0.0
 71
     0
 42
2.0
  3
TXT
  4
BIGFONT
  0
STYLE
  2
STANDARD1
 70
     0
 40
0.0
 41
1.0
 50
0.0
 71
     0
 42
3.0
  3
txt
  4

  0
ENDTAB
  0
TABLE
  2
VIEW
 70
     1
  0
VIEW
  2
ALL
 70
     0
 40
135.0
 10
110.49579799999999
 20
67.5
 41
0.0
 11
0.0
 21
0.0
 31
1.0
 12
0.0
 22
0.0
 32
0.0
 42
0.0
 43
0.0
 44
0.0
 50
0.0
 71
     0
  0
ENDTAB
  0
TABLE
  2
UCS
 70
     0
  0
ENDTAB
  0
TABLE
  2
APPID
 70
     3
  0
APPID
  2
ACAD
 70
     0
  0
APPID
  2
ACAD_MLEADERVER
 70
     0
  0
APPID
  2
ACAD_NAV_VCDISPLAY
 70
     0
  0
ENDTAB
  0
TABLE
  2
DIMSTYLE
 70
     1
  0
DIMSTYLE
  2
STANDARD
 70
     0
  3

  4

  5

  6

  7

 40
1.0
 41
0.18
 42
0.0625
 43
0.38
 44
0.18
 45
0.0
 46
0.0
 47
0.0
 48
0.0
140
0.18
141
0.09
142
0.0
143
25.399999999999999
144
1.0
145
0.0
146
1.0
147
0.09
 71
     0
 72
     0
 73
     1
 74
     1
 75
     0
 76
     0
 77
     0
 78
     0
170
     0
171
     2
172
     0
173
     0
174
     0
175
     0
176
     0
177
     0
178
     0
  0
ENDTAB
  0
ENDSEC
  0
SECTION
  2
BLOCKS
  0
BLOCK
  8
0
  2
$MODEL_SPACE
 70
     0
 10
0.0
 20
0.0
 30
0.0
  3
$MODEL_SPACE
  1

  0
ENDBLK
  5
116
  8
0
  0
BLOCK
 67
     1
  8
0
  2
$PAPER_SPACE
 70
     0
 10
0.0
 20
0.0
 30
0.0
  3
$PAPER_SPACE
  1

  0
ENDBLK
  5
114
 67
     1
  8
0
  0
ENDSEC
  0
SECTION
  2
ENTITIES
  0
CIRCLE
  5
40B
  8
0
 10
76.70000160322445
 20
14.9310333980506
 30
0.0
 40
3.6143595000000062
  0
CIRCLE
  5
40C
  8
3
 10
76.70000160322445
 20
14.9310333980506
 30
0.0
 40
4.1879994999999894
  0
ARC
  5
40D
  8
0
 10
76.70000160322445
 20
14.9310333980506
 30
0.0
 40
2.5781000000000072
 50
105.86109517616551
 51
134.13890482383289
  0
LINE
  5
40E
  8
0
 10
74.90461210250038
 20
16.78121613245548
 30
0.0
 11
74.20000160322445
 21
16.374409071024669
 31
0.0
  0
LINE
  5
40F
  8
0
 10
74.20000160322445
 20
16.374409071024669
 30
0.0
 11
74.20000160322445
 21
15.56079494816302
 31
0.0
  0
ARC
  5
410
  8
0
 10
76.70000160322445
 20
14.9310333980506
 30
0.0
 40
2.5781000000000551
 50
165.86109517616731
 51
194.13890482383979
  0
LINE
  5
411
  8
0
 10
74.20000160322445
 20
14.301271847937951
 30
0.0
 11
74.20000160322445
 21
13.487657725076531
 31
0.0
  0
LINE
  5
412
  8
0
 10
74.20000160322445
 20
13.487657725076531
 30
0.0
 11
74.90461210250038
 21
13.08085066364572
 31
0.0
  0
ARC
  5
413
  8
0
 10
76.70000160322445
 20
14.9310333980506
 30
0.0
 40
2.5781000000000041
 50
225.861095176167
 51
254.13890482383439
  0
LINE
  5
414
  8
0
 10
75.995391103948464
 20
12.4510891135333
 30
0.0
 11
76.700001603224393
 21
12.04428205210249
 31
0.0
  0
LINE
  5
415
  8
0
 10
76.700001603224393
 20
12.04428205210249
 30
0.0
 11
77.40461210250038
 21
12.4510891135333
 31
0.0
  0
ARC
  5
416
  8
0
 10
76.70000160322445
 20
14.9310333980506
 30
0.0
 40
2.5781000000000041
 50
285.86109517616859
 51
314.13890482383408
  0
LINE
  5
417
  8
0
 10
78.495391103948464
 20
13.08085066364572
 30
0.0
 11
79.20000160322445
 21
13.487657725076531
 31
0.0
  0
LINE
  5
418
  8
0
 10
79.20000160322445
 20
13.487657725076531
 30
0.0
 11
79.20000160322445
 21
14.30127184793815
 31
0.0
  0
ARC
  5
419
  8
0
 10
76.70000160322445
 20
14.9310333980506
 30
0.0
 40
2.5781000000000032
 50
345.8610951761674
 51
14.138904823832659
  0
LINE
  5
41A
  8
0
 10
79.20000160322445
 20
15.56079494816305
 30
0.0
 11
79.20000160322445
 21
16.374409071024669
 31
0.0
  0
LINE
  5
41B
  8
0
 10
79.20000160322445
 20
16.374409071024669
 30
0.0
 11
78.495391103948464
 21
16.78121613245548
 31
0.0
  0
ARC
  5
41C
  8
0
 10
76.70000160322445
 20
14.9310333980506
 30
0.0
 40
2.5781000000000112
 50
45.861095176167041
 51
74.138904823834466
  0
LINE
  5
41D
  8
0
 10
77.404612102500437
 20
17.410977682567928
 30
0.0
 11
76.70000160322445
 21
17.81778474399874
 31
0.0
  0
LINE
  5
41E
  8
0
 10
76.70000160322445
 20
17.81778474399874
 30
0.0
 11
75.995391103948464
 21
17.410977682567928
 31
0.0
  0
CIRCLE
  5
41F
  8
0
 10
76.70000160322445
 20
14.9310333980506
 30
0.0
 40
5.0000000000000142
  0
ARC
  5
420
  8
0
 10
76.70000160322445
 20
14.9310333980506
 30
0.0
 40
2.5781000000000098
 50
14.138904823832659
 51
45.861095176167041
  0
ARC
  5
421
  8
0
 10
76.70000160322445
 20
14.9310333980506
 30
0.0
 40
2.5781000000000041
 50
314.13890482383408
 51
345.8610951761674
  0
ARC
  5
422
  8
0
 10
76.70000160322445
 20
14.9310333980506
 30
0.0
 40
2.5781000000000001
 50
254.13890482383439
 51
285.86109517616859
  0
ARC
  5
423
  8
0
 10
76.70000160322445
 20
14.9310333980506
 30
0.0
 40
2.5781000000000112
 50
74.138904823834466
 51
105.86109517616551
  0
ARC
  5
424
  8
0
 10
76.70000160322445
 20
14.9310333980506
 30
0.0
 40
2.5781000000000041
 50
134.13890482383289
 51
165.86109517616731
  0
ARC
  5
425
  8
0
 10
76.70000160322445
 20
14.9310333980506
 30
0.0
 40
2.5781000000000041
 50
194.13890482383499
 51
225.861095176167
  0
LINE
  5
43D
  8
0
 10
59.127912795445461
 20
18.545392898050601
 30
0.0
 11
59.127912795445461
 21
11.31667389805059
 31
0.0
  0
LINE
  5
43E
  8
0
 10
34.927912795445479
 20
19.931032898050599
 30
0.0
 11
58.327912795445457
 21
19.931032898050599
 31
0.0
  0
LINE
  5
43F
  8
3
 10
58.796720795445481
 20
19.119032898050591
 30
0.0
 11
34.459104795445462
 21
19.119032898050591
 31
0.0
  0
LINE
  5
440
  8
0
 10
58.327912795445457
 20
19.931032898050599
 30
0.0
 11
58.327912795445457
 21
9.9310328980506029
 31
0.0
  0
LINE
  5
441
  8
0
 10
58.327912795445457
 20
19.931032898050599
 30
0.0
 11
59.127912795445461
 21
18.545392898050601
 31
0.0
  0
LINE
  5
442
  8
0
 10
34.927912795445479
 20
19.931032898050599
 30
0.0
 11
34.127912795445468
 21
18.545392898050601
 31
0.0
  0
LINE
  5
443
  8
0
 10
34.927912795445479
 20
19.931032898050599
 30
0.0
 11
34.927912795445479
 21
9.9310328980506029
 31
0.0
  0
LINE
  5
444
  8
0
 10
34.127912795445468
 20
18.545392898050601
 30
0.0
 11
34.127912795445468
 21
11.31667389805059
 31
0.0
  0
LINE
  5
445
  8
0
 10
58.327912795445457
 20
9.9310328980506029
 30
0.0
 11
34.927912795445479
 21
9.9310328980506029
 31
0.0
  0
LINE
  5
446
  8
3
 10
58.796720795445481
 20
10.743032898050579
 30
0.0
 11
34.459104795445462
 21
10.743032898050579
 31
0.0
  0
LINE
  5
447
  8
0
 10
34.927912795445479
 20
9.9310328980506029
 30
0.0
 11
34.127912795445468
 21
11.31667389805059
 31
0.0
  0
LINE
  5
448
  8
0
 10
58.327912795445457
 20
9.9310328980506029
 30
0.0
 11
59.127912795445461
 21
11.31667389805059
 31
0.0
  0
LINE
  5
449
  8
1
 10
84.70000160322445
 20
14.9310333980506
 30
0.0
 11
68.70000160322445
 21
14.9310333980506
 31
0.0
  0
LINE
  5
44A
  8
1
 10
15.05582398766648
 20
6.9310333980506007
 30
0.0
 11
15.05582398766648
 21
22.931033398050602
 31
0.0
  0
LINE
  5
44B
  8
1
 10
76.70000160322445
 20
6.9310333980506007
 30
0.0
 11
76.70000160322445
 21
22.931033398050602
 31
0.0
  0
LINE
  5
451
  8
1
 10
62.127912795445461
 20
14.9310333980506
 30
0.0
 11
27.627912795445472
 21
14.9310333980506
 31
0.0
  0
LINE
  5
452
  8
1
 10
23.055823987666489
 20
14.9310333980506
 30
0.0
 11
7.0558239876664848
 21
14.9310333980506
 31
0.0
  0
ARC
  5
747
  8
0
 10
17.575505909635918
 20
14.24678370604731
 30
0.0
 40
1.3334635353094419
 50
23.465980243340251
 51
30.256017391184251
  0
ARC
  5
748
  8
0
 10
17.678050042770732
 20
14.218936623076861
 30
0.0
 40
1.2522494409966709
 50
303.10962990424213
 51
26.504462624242411
  0
ARC
  5
749
  8
0
 10
17.575505909635918
 20
14.24678370604731
 30
0.0
 40
1.333463535321374
 50
299.35807513771988
 51
306.14811228450208
  0
LINE
  5
74A
  8
0
 10
16.431400155197419
 20
14.13065540768484
 30
0.0
 11
18.229257918832129
 21
13.084573178443989
 31
0.0
  0
ARC
  5
74B
  8
0
 10
19.627162396356251
 20
13.68963190569727
 30
0.0
 40
3.226049911474052
 50
157.47142970594851
 51
172.14266282295691
  0
LINE
  5
74C
  8
0
 10
16.64729688877156
 20
14.9256738095294
 30
0.0
 11
18.727328499090731
 21
14.918668906376681
 31
0.0
  0
ARC
  5
74D
  8
0
 10
17.580057387550081
 20
15.59829674322879
 30
0.0
 40
1.3334635353094819
 50
53.465980243330577
 51
60.256017391183619
  0
ARC
  5
74E
  8
0
 10
17.682786753345621
 20
15.625452528526051
 30
0.0
 40
1.2522494409899581
 50
333.10962990416948
 51
56.504462624390818
  0
ARC
  5
74F
  8
0
 10
17.580057387550081
 20
15.59829674322879
 30
0.0
 40
1.3334635353191151
 50
329.35807513771903
 51
336.14811228470342
  0
ARC
  5
750
  8
0
 10
19.635419925065321
 20
16.141617373721761
 30
0.0
 40
3.22604991147535
 50
187.47142970594919
 51
202.14266282295171
  0
LINE
  5
751
  8
0
 10
16.436759743718621
 20
15.72212830878995
 30
0.0
 11
18.241622410506011
 21
16.756077689868231
 31
0.0
  0
ARC
  5
752
  8
0
 10
12.53159058778289
 20
14.26377005287242
 30
0.0
 40
1.3334635353094719
 50
233.46598024334409
 51
240.2560173911842
  0
ARC
  5
753
  8
0
 10
12.428861221983819
 20
14.23661426757276
 30
0.0
 40
1.2522494409861931
 50
153.1096299041331
 51
236.50446262448091
  0
ARC
  5
754
  8
0
 10
12.53159058778289
 20
14.26377005287242
 30
0.0
 40
1.333463535317627
 50
149.3580751377178
 51
156.14811228483271
  0
LINE
  5
755
  8
0
 10
13.464351086561409
 20
14.9363929865718
 30
0.0
 11
11.38431947624224
 21
14.94339788972453
 31
0.0
  0
ARC
  5
756
  8
0
 10
10.476228050267689
 20
13.72044942237944
 30
0.0
 40
3.2260499114753278
 50
7.4714297059484442
 51
22.142662822951031
  0
LINE
  5
757
  8
0
 10
13.67488823161435
 20
14.139938487311239
 30
0.0
 11
11.870025564826941
 21
13.10598910623297
 31
0.0
  0
ARC
  5
758
  8
0
 10
13.215840279786191
 20
16.783451974841821
 30
0.0
 40
1.333463535309463
 50
173.46598024334429
 51
180.25601739118329
  0
ARC
  5
759
  8
0
 10
13.1409579969663
 20
16.858840322683619
 30
0.0
 40
1.252249440995332
 50
93.10962990422874
 51
176.50446262427451
  0
ARC
  5
75A
  8
0
 10
13.215840279786191
 20
16.783451974841821
 30
0.0
 40
1.3334635353208759
 50
89.358075137719155
 51
96.148112284546357
  0
LINE
  5
75B
  8
0
 10
14.26472907692712
 20
16.311969154102709
 30
0.0
 11
13.23077969584884
 21
18.116831820890109
 31
0.0
  0
ARC
  5
75C
  8
0
 10
11.717629542621991
 20
18.29178783106974
 30
0.0
 40
3.226049911474544
 50
307.47142970594962
 51
322.14266282295517
  0
LINE
  5
75D
  8
0
 10
11.88239005650088
 20
16.77749361765721
 30
0.0
 11
13.68024782013555
 21
15.73141138841633
 31
0.0
  0
ARC
  5
75E
  8
0
 10
13.203405410875231
 20
13.09104969017031
 30
0.0
 40
1.333463535309465
 50
263.46598024334457
 51
270.2560173911848
  0
ARC
  5
75F
  8
0
 10
13.12801706303347
 20
13.01616740735046
 30
0.0
 40
1.2522494409953731
 50
183.10962990423101
 51
266.5044626242734
  0
ARC
  5
760
  8
0
 10
13.203405410875231
 20
13.09104969017031
 30
0.0
 40
1.333463535320875
 50
179.35807513771809
 51
186.1481122845467
  0
ARC
  5
761
  8
0
 10
11.6950695546478
 20
11.59283895300659
 30
0.0
 40
3.226049911473865
 50
37.471429705946612
 51
52.142662822955963
  0
LINE
  5
762
  8
0
 10
14.25544599730074
 20
13.555457230519661
 30
0.0
 11
13.209363768059861
 21
11.757599466884979
 31
0.0
  0
ARC
  5
763
  8
0
 10
14.37157429566321
 20
12.411351476081141
 30
0.0
 40
1.3334635353094471
 50
293.46598024334082
 51
300.2560173911844
  0
ARC
  5
764
  8
0
 10
14.34372721269275
 20
12.308807342946359
 30
0.0
 40
1.252249440996666
 50
213.1096299042413
 51
296.50446262424271
  0
ARC
  5
765
  8
0
 10
14.37157429566321
 20
12.411351476081141
 30
0.0
 40
1.33346353532137
 50
209.35807513771849
 51
216.148112284501
  0
ARC
  5
766
  8
0
 10
13.814422495313041
 20
10.359694989360589
 30
0.0
 40
3.2260499114743371
 50
67.471429705947827
 51
82.142662822955018
  0
LINE
  5
767
  8
0
 10
15.05046439914531
 20
13.33956049694549
 30
0.0
 11
15.043459495992581
 21
11.25952888662634
 31
0.0
  0
ARC
  5
768
  8
0
 10
15.723087332844671
 20
12.40679999816699
 30
0.0
 40
1.3334635353094551
 50
323.46598024333252
 51
330.25601739118542
  0
ARC
  5
769
  8
0
 10
15.750243118142009
 20
12.304070632371451
 30
0.0
 40
1.2522494409899221
 50
243.10962990416721
 51
326.50446262439209
  0
ARC
  5
76A
  8
0
 10
15.723087332844671
 20
12.40679999816699
 30
0.0
 40
1.3334635353190789
 50
239.3580751377186
 51
246.14811228470319
  0
ARC
  5
76B
  8
0
 10
16.266407963337539
 20
10.351437460652569
 30
0.0
 40
3.226049911474548
 50
97.471429705948424
 51
112.14266282295419
  0
LINE
  5
76C
  8
0
 10
15.84691889840582
 20
13.550097641998461
 30
0.0
 11
16.880868279484101
 21
11.74523497521106
 31
0.0
  0
ARC
  5
76D
  8
0
 10
16.8958076955468
 20
13.07861482125935
 30
0.0
 40
1.3334635353094659
 50
353.46598024334412
 51
0.2560173911839443
  0
ARC
  5
76E
  8
0
 10
16.970689978366629
 20
13.0032264734176
 30
0.0
 40
1.252249440995397
 50
273.10962990423161
 51
356.504462624273
  0
ARC
  5
76F
  8
0
 10
16.8958076955468
 20
13.07861482125935
 30
0.0
 40
1.3334635353208739
 50
269.358075137718
 51
276.14811228454619
  0
ARC
  5
770
  8
0
 10
18.394018432711249
 20
11.57027896503101
 30
0.0
 40
3.2260499114750192
 50
127.4714297059473
 51
142.14266282295151
  0
ARC
  5
771
  8
0
 10
14.388560642488301
 20
17.455266797934179
 30
0.0
 40
1.333463535309461
 50
143.46598024333099
 51
150.2560173911842
  0
ARC
  5
772
  8
0
 10
14.36140485719099
 20
17.557996163729751
 30
0.0
 40
1.252249440989893
 50
63.109629904166788
 51
146.50446262439249
  0
ARC
  5
773
  8
0
 10
14.388560642488301
 20
17.455266797934179
 30
0.0
 40
1.33346353531909
 50
59.358075137718018
 51
66.14811228470262
  0
LINE
  5
774
  8
0
 10
15.061183576187689
 20
16.52250629915568
 30
0.0
 11
15.068188479340391
 21
18.60253790947483
 31
0.0
  0
ARC
  5
775
  8
0
 10
13.84524001199509
 20
19.510629335449831
 30
0.0
 40
3.226049911475823
 50
277.47142970595229
 51
292.14266282295279
  0
ARC
  5
776
  8
0
 10
12.536142065697049
 20
15.615283090053911
 30
0.0
 40
1.3334635353094619
 50
203.46598024333969
 51
210.2560173911846
  0
ARC
  5
777
  8
0
 10
12.43359793255047
 20
15.64313017302427
 30
0.0
 40
1.252249440986114
 50
123.1096299041304
 51
206.50446262447909
  0
ARC
  5
778
  8
0
 10
12.536142065697049
 20
15.615283090053911
 30
0.0
 40
1.333463535317609
 50
119.3580751377185
 51
126.1481122848319
  0
ARC
  5
779
  8
0
 10
10.48448557897602
 20
16.17243489040419
 30
0.0
 40
3.226049911474826
 50
337.47142970594979
 51
352.14266282295461
  0
ARC
  5
77A
  8
0
 10
16.908242564457741
 20
16.771017105930891
 30
0.0
 40
1.333463535309473
 50
83.465980243344831
 51
90.256017391183931
  0
ARC
  5
77B
  8
0
 10
16.98363091229956
 20
16.845899388750791
 30
0.0
 40
1.252249440995324
 50
3.1096299042277971
 51
86.504462624275604
  0
ARC
  5
77C
  8
0
 10
16.908242564457741
 20
16.771017105930891
 30
0.0
 40
1.333463535320853
 50
359.35807513771948
 51
6.1481122845459701
  0
ARC
  5
77D
  8
0
 10
18.41657842068523
 20
18.269227843094669
 30
0.0
 40
3.226049911473944
 50
217.47142970594791
 51
232.14266282295691
  0
LINE
  5
77E
  8
0
 10
15.85620197803223
 20
16.306609565581539
 30
0.0
 11
16.902284207273109
 21
18.10446732921622
 31
0.0
  0
ARC
  5
77F
  8
0
 10
15.740073679669759
 20
17.450715320020048
 30
0.0
 40
1.3334635353094579
 50
113.46598024334089
 51
120.2560173911844
  0
ARC
  5
780
  8
0
 10
15.767920762640211
 20
17.55325945315483
 30
0.0
 40
1.2522494409966549
 50
33.109629904240549
 51
116.50446262424209
  0
ARC
  5
781
  8
0
 10
15.740073679669759
 20
17.450715320020048
 30
0.0
 40
1.333463535321358
 50
29.358075137718082
 51
36.148112284501181
  0
ARC
  5
782
  8
0
 10
16.297225480019929
 20
19.502371806740609
 30
0.0
 40
3.2260499114743491
 50
247.47142970594919
 51
262.14266282295631
  0
ARC
  5
783
  8
0
 10
15.05582398766648
 20
14.9310333980506
 30
0.0
 40
3.7460000000000231
 50
207.65522735313871
 51
211.95886517536431
  0
ARC
  5
784
  8
0
 10
15.05582398766648
 20
14.9310333980506
 30
0.0
 40
3.7460000000000089
 50
237.6552273531388
 51
241.95886517534649
  0
ARC
  5
785
  8
0
 10
15.05582398766648
 20
14.9310333980506
 30
0.0
 40
3.7460000000000191
 50
267.65522735313749
 51
271.95886517542641
  0
ARC
  5
786
  8
0
 10
15.05582398766648
 20
14.9310333980506
 30
0.0
 40
3.7460000000000191
 50
297.65522735313391
 51
301.95886517536462
  0
ARC
  5
787
  8
0
 10
15.05582398766648
 20
14.9310333980506
 30
0.0
 40
3.7460000000000262
 50
327.65522735313903
 51
331.95886517534677
  0
ARC
  5
788
  8
0
 10
15.05582398766648
 20
14.9310333980506
 30
0.0
 40
3.7460000000000191
 50
357.65522735313772
 51
1.9588651754254029
  0
ARC
  5
789
  8
0
 10
15.05582398766648
 20
14.9310333980506
 30
0.0
 40
3.7460000000000071
 50
27.655227353132929
 51
31.95886517536367
  0
ARC
  5
78A
  8
0
 10
15.05582398766648
 20
14.9310333980506
 30
0.0
 40
3.746000000000004
 50
57.655227353138422
 51
61.958865175346062
  0
ARC
  5
78B
  8
0
 10
15.05582398766648
 20
14.9310333980506
 30
0.0
 40
3.7460000000000071
 50
87.655227353137036
 51
91.958865175425956
  0
ARC
  5
78C
  8
0
 10
15.05582398766648
 20
14.9310333980506
 30
0.0
 40
3.7459999999999991
 50
117.6552273531332
 51
121.9588651753639
  0
ARC
  5
78D
  8
0
 10
15.05582398766648
 20
14.9310333980506
 30
0.0
 40
3.7459999999999849
 50
147.6552273531386
 51
151.95886517547669
  0
ARC
  5
78E
  8
0
 10
15.05582398766648
 20
14.9310333980506
 30
0.0
 40
3.7460000000000431
 50
177.65522735313621
 51
181.9588651754778
  0
CIRCLE
  5
78F
  8
0
 10
15.05582398766648
 20
14.9310333980506
 30
0.0
 40
3.9999999999999951
  0
CIRCLE
  5
790
  8
3
 10
15.05582398766648
 20
14.9310333980506
 30
0.0
 40
4.1879994999999894
  0
CIRCLE
  5
792
  8
0
 10
15.05582398766648
 20
14.9310333980506
 30
0.0
 40
5.0
  0
LINE
  5
793
  8
0
 10
31.881272731445481
 20
10.9310333980506
 30
0.0
 11
33.027272731445457
 21
10.9310333980506
 31
0.0
  0
LINE
  5
794
  8
0
 10
33.027272731445457
 20
18.93103339805063
 30
0.0
 11
31.881272731445481
 21
18.93103339805063
 31
0.0
  0
ARC
  5
795
  8
0
 10
31.881272731445481
 20
11.18503339805059
 30
0.0
 40
0.2540000000000133
 50
208.22931284883421
 51
270.0000000000008
  0
ARC
  5
796
  8
0
 10
31.881272731445481
 20
18.677033398050611
 30
0.0
 40
0.2540000000000146
 50
90.0
 51
153.11749000734281
  0
ARC
  5
797
  8
0
 10
32.016975295445441
 20
15.598296743228801
 30
0.0
 40
1.389062499999983
 50
145.89858383106341
 51
209.1101000243126
  0
ARC
  5
798
  8
0
 10
32.016975295445441
 20
14.246783706047321
 30
0.0
 40
1.389062499999983
 50
150.8898999756878
 51
214.25270357577929
  0
ARC
  5
799
  8
0
 10
32.016975295445441
 20
16.771017105930909
 30
0.0
 40
1.389062499999997
 50
106.26557558971911
 51
204.58307850822459
  0
ARC
  5
79A
  8
0
 10
32.016975295445441
 20
13.078614821259359
 30
0.0
 40
1.3890625000000081
 50
154.74785765506959
 51
253.7344244102818
  0
ARC
  5
79B
  8
0
 10
32.016975295445441
 20
12.406799998166999
 30
0.0
 40
1.3890624999999861
 50
165.7413803997263
 51
257.4326180683471
  0
ARC
  5
79C
  8
0
 10
32.016975295445441
 20
17.450715320020059
 30
0.0
 40
1.389062499999995
 50
102.709769666168
 51
193.89744654912261
  0
ARC
  5
79D
  8
0
 10
33.009162795445469
 20
14.93103339805061
 30
0.0
 40
2.381250000000001
 50
170.61379963165291
 51
189.1506816541619
  0
ARC
  5
79E
  8
0
 10
32.016335231445417
 20
17.4552667979342
 30
0.0
 40
1.389062499999993
 50
104.97166044025209
 51
180.09386402979081
  0
ARC
  5
79F
  8
0
 10
32.016975295445441
 20
12.411351476081149
 30
0.0
 40
1.3890624999999719
 50
165.83821255245849
 51
180.0938690929766
  0
ARC
  5
7A0
  8
0
 10
32.016975295445441
 20
16.783451974841839
 30
0.0
 40
1.3890624999999981
 50
166.00583329001171
 51
180.2564564340457
  0
ARC
  5
7A1
  8
0
 10
32.016975295445441
 20
13.091049690170321
 30
0.0
 40
1.3890624999999921
 50
155.0310806123079
 51
180.25645643398749
  0
POLYLINE
  5
7A2
  8
0
 66
     1
 10
0.0
 20
0.0
 30
0.0
  0
VERTEX
  5
B4C
  8
0
 10
30.658217726197829
 20
14.55233979646732
 30
0.0
  0
VERTEX
  5
B4D
  8
0
 10
30.634090701614252
 20
14.394631922989319
 30
0.0
  0
VERTEX
  5
B4E
  8
0
 10
30.62793876068918
 20
14.25527687805647
 30
0.0
  0
SEQEND
  5
B4F
  8
0
  0
ARC
  5
7A3
  8
0
 10
32.016975295445441
 20
15.61528309005392
 30
0.0
 40
1.3890624999999781
 50
155.1345842024204
 51
180.3503268531197
  0
LINE
  5
7A4
  8
0
 10
33.027272731445457
 20
11.95816821017868
 30
0.0
 11
33.632639681245912
 21
12.822721812883771
 31
0.0
  0
LINE
  5
7A5
  8
0
 10
33.632639681245912
 20
17.03934498321745
 30
0.0
 11
33.027272731445457
 21
17.903898585922519
 31
0.0
  0
ARC
  5
7A6
  8
0
 10
33.840704300495311
 20
12.67703339805059
 30
0.0
 40
0.2540000000000063
 50
90.0
 51
144.99999999999801
  0
ARC
  5
7A7
  8
0
 10
33.840704300495311
 20
17.185033398050621
 30
0.0
 40
0.2540000000000063
 50
215.0000000000027
 51
270.0000000000008
  0
LINE
  5
7A8
  8
0
 10
33.840704300495311
 20
12.9310333980506
 30
0.0
 11
34.127912795445468
 21
12.9310333980506
 31
0.0
  0
LINE
  5
7A9
  8
0
 10
34.127912795445468
 20
16.931033398050609
 30
0.0
 11
33.840704300495311
 21
16.931033398050609
 31
0.0
  0
LINE
  5
82E
  8
0
 10
33.027272731445457
 20
10.9310333980506
 30
0.0
 11
33.027272731445457
 21
18.93103339805063
 31
0.0
  0
POLYLINE
  5
830
  8
0
 66
     1
 10
0.0
 20
0.0
 30
0.0
  0
VERTEX
  5
B50
  8
0
 10
31.715045530422639
 20
11.053596377828841
 30
0.0
  0
VERTEX
  5
B51
  8
0
 10
31.723924511263512
 20
11.049503440389429
 30
0.0
  0
VERTEX
  5
B52
  8
0
 10
31.761032810220691
 20
11.05394528394956
 30
0.0
  0
VERTEX
  5
B53
  8
0
 10
31.783584888387232
 20
11.079105609302021
 30
0.0
  0
VERTEX
  5
B54
  8
0
 10
31.77287051320878
 20
11.117603569058661
 30
0.0
  0
VERTEX
  5
B55
  8
0
 10
31.74336798637075
 20
11.171629935168649
 30
0.0
  0
VERTEX
  5
B56
  8
0
 10
31.687119573175821
 20
11.29196279779751
 30
0.0
  0
VERTEX
  5
B57
  8
0
 10
31.643499444289329
 20
11.44696675858374
 30
0.0
  0
VERTEX
  5
B58
  8
0
 10
31.627912795445479
 20
11.612989185839609
 30
0.0
  0
SEQEND
  5
B59
  8
0
  0
LINE
  5
831
  8
0
 10
31.627912795445479
 20
11.612989185839609
 30
0.0
 11
31.627912795445479
 21
11.75282088581679
 31
0.0
  0
POLYLINE
  5
832
  8
0
 66
     1
 10
0.0
 20
0.0
 30
0.0
  0
VERTEX
  5
B5A
  8
0
 10
31.627912795445479
 20
11.75282088581679
 30
0.0
  0
VERTEX
  5
B5B
  8
0
 10
31.63639732032085
 20
11.776495253271889
 30
0.0
  0
VERTEX
  5
B5C
  8
0
 10
31.670986144052119
 20
11.833217122642351
 30
0.0
  0
VERTEX
  5
B5D
  8
0
 10
31.723924511263512
 20
11.921613628978729
 30
0.0
  0
VERTEX
  5
B5E
  8
0
 10
31.761032810220691
 20
11.99889433559796
 30
0.0
  0
VERTEX
  5
B5F
  8
0
 10
31.783584888387232
 20
12.09631727073616
 30
0.0
  0
VERTEX
  5
B60
  8
0
 10
31.77287051320878
 20
12.190107287528569
 30
0.0
  0
VERTEX
  5
B61
  8
0
 10
31.74336798637075
 20
12.29571380128716
 30
0.0
  0
VERTEX
  5
B62
  8
0
 10
31.687119573175821
 20
12.49321242728675
 30
0.0
  0
VERTEX
  5
B63
  8
0
 10
31.643499444289329
 20
12.713403437799821
 30
0.0
  0
VERTEX
  5
B64
  8
0
 10
31.627912795445479
 20
12.926875826783499
 30
0.0
  0
SEQEND
  5
B65
  8
0
  0
LINE
  5
833
  8
0
 10
31.627912795445479
 20
12.926875826783499
 30
0.0
 11
31.627912795445479
 21
13.17001878136773
 31
0.0
  0
ARC
  5
834
  8
0
 10
28.23971170586746
 20
13.973896825910311
 30
0.0
 40
3.4822588263819929
 50
346.65290381355788
 51
13.34709618644329
  0
LINE
  5
835
  8
0
 10
31.627912795445479
 20
14.777774870452911
 30
0.0
 11
31.627912795445479
 21
15.059079121324061
 31
0.0
  0
ARC
  5
836
  8
0
 10
28.111034555756849
 20
15.86440926707459
 30
0.0
 40
3.6079064838836761
 50
347.10220582426427
 51
12.89779417573685
  0
LINE
  5
837
  8
0
 10
31.627912795445479
 20
16.66973941282513
 30
0.0
 11
31.627912795445479
 21
16.913829713126979
 31
0.0
  0
POLYLINE
  5
838
  8
0
 66
     1
 10
0.0
 20
0.0
 30
0.0
  0
VERTEX
  5
B66
  8
0
 10
31.627912795445479
 20
16.913829713126979
 30
0.0
  0
VERTEX
  5
B67
  8
0
 10
31.63639732032085
 20
17.06957977007518
 30
0.0
  0
VERTEX
  5
B68
  8
0
 10
31.670986144052119
 20
17.279712209410281
 30
0.0
  0
VERTEX
  5
B69
  8
0
 10
31.723924511263512
 20
17.481625372038259
 30
0.0
  0
VERTEX
  5
B6A
  8
0
 10
31.761032810220691
 20
17.606595795227349
 30
0.0
  0
VERTEX
  5
B6B
  8
0
 10
31.783584888387232
 20
17.72501661800429
 30
0.0
  0
VERTEX
  5
B6C
  8
0
 10
31.77287051320878
 20
17.810469772818209
 30
0.0
  0
VERTEX
  5
B6D
  8
0
 10
31.74336798637075
 20
17.88533288803832
 30
0.0
  0
VERTEX
  5
B6E
  8
0
 10
31.687119573175821
 20
17.986744817436911
 30
0.0
  0
VERTEX
  5
B6F
  8
0
 10
31.643499444289329
 20
18.058118913443071
 30
0.0
  0
VERTEX
  5
B70
  8
0
 10
31.627912795445479
 20
18.095819082663851
 30
0.0
  0
SEQEND
  5
B71
  8
0
  0
LINE
  5
839
  8
0
 10
31.627912795445479
 20
18.095819082663851
 30
0.0
 11
31.627912795445479
 21
18.23729163355328
 31
0.0
  0
POLYLINE
  5
83A
  8
0
 66
     1
 10
0.0
 20
0.0
 30
0.0
  0
VERTEX
  5
B72
  8
0
 10
31.627912795445479
 20
18.23729163355328
 30
0.0
  0
VERTEX
  5
B73
  8
0
 10
31.63639732032085
 20
18.360337955784289
 30
0.0
  0
VERTEX
  5
B74
  8
0
 10
31.670986144052119
 20
18.513957051722429
 30
0.0
  0
VERTEX
  5
B75
  8
0
 10
31.723924511263512
 20
18.644620726748549
 30
0.0
  0
VERTEX
  5
B76
  8
0
 10
31.761032810220691
 20
18.714207934642371
 30
0.0
  0
VERTEX
  5
B77
  8
0
 10
31.783584888387232
 20
18.76805190793516
 30
0.0
  0
VERTEX
  5
B78
  8
0
 10
31.77287051320878
 20
18.795161502441321
 30
0.0
  0
VERTEX
  5
B79
  8
0
 10
31.74336798637075
 20
18.8071916051491
 30
0.0
  0
VERTEX
  5
B7A
  8
0
 10
31.712722438337639
 20
18.801239932411729
 30
0.0
  0
SEQEND
  5
B7B
  8
0
  0
ARC
  5
83B
  8
0
 10
31.215641483146111
 20
38.376439970059721
 30
0.0
 40
23.457530569178939
 50
268.99296209497948
 51
271.00703790502041
  0
ARC
  5
83C
  8
0
 10
31.717697662625859
 20
15.62193794325283
 30
0.0
 40
1.1376881326741011
 50
94.526415229822518
 51
138.41287132888311
  0
ARC
  5
83D
  8
0
 10
31.72124092253382
 20
14.218412960277179
 30
0.0
 40
1.1376742900203509
 50
221.47370374956591
 51
265.29450246486198
  0
LINE
  5
883
  8
0
 10
31.88127273144547
 20
10.9310333980506
 30
0.0
 11
31.881272731445481
 21
18.93103339805063
 31
0.0
  0
LINE
  5
885
  8
0
 10
33.632639681245912
 20
12.822721812883771
 30
0.0
 11
33.632639681245912
 21
17.03934498321745
 31
0.0
  0
LINE
  5
888
  8
0
 10
33.840704300495311
 20
16.931033398050609
 30
0.0
 11
33.840704300495311
 21
12.9310333980506
 31
0.0
  0
TEXT
  5
AF3
  8
0
 62
     3
 10
0.0
 20
0.0
 30
0.0
 40
5.0
  1
MTBU-10025-35UR
  7
STANDARD1
  0
ENDSEC
  0
EOF
