  0
SECTION
  2
HEADER
  9
$ACADVER
  1
AC1009
  9
$INSBASE
 10
0.0
 20
0.0
 30
0.0
  9
$EXTMIN
 10
0.0
 20
-2.960436562073669
 30
0.0
  9
$EXTMAX
 10
114.0
 20
101.5928863834
 30
0.0
  9
$LIMMIN
 10
0.0
 20
0.0
  9
$LIMMAX
 10
375.0
 20
270.0
  9
$ORTHOMODE
 70
     1
  9
$REGENMODE
 70
     1
  9
$FILLMODE
 70
     1
  9
$QTEXTMODE
 70
     0
  9
$MIRRTEXT
 70
     0
  9
$DRAGMODE
 70
     2
  9
$LTSCALE
 40
10.0
  9
$OSMODE
 70
    37
  9
$ATTMODE
 70
     1
  9
$TEXTSIZE
 40
0.2
  9
$TRACEWID
 40
0.05
  9
$TEXTSTYLE
  7
STANDARD
  9
$CLAYER
  8
0
  9
$CELTYPE
  6
BYLAYER
  9
$CECOLOR
 62
   256
  9
$DIMSCALE
 40
1.0
  9
$DIMASZ
 40
3.0
  9
$DIMEXO
 40
1.0
  9
$DIMDLI
 40
6.0
  9
$DIMRND
 40
0.0
  9
$DIMDLE
 40
0.0
  9
$DIMEXE
 40
1.0
  9
$DIMTP
 40
495.0
  9
$DIMTM
 40
0.0
  9
$DIMTXT
 40
3.0
  9
$DIMCEN
 40
0.0
  9
$DIMTSZ
 40
0.0
  9
$DIMTOL
 70
     0
  9
$DIMLIM
 70
     0
  9
$DIMTIH
 70
     0
  9
$DIMTOH
 70
     0
  9
$DIMSE1
 70
     0
  9
$DIMSE2
 70
     0
  9
$DIMTAD
 70
     1
  9
$DIMZIN
 70
     0
  9
$DIMBLK
  1

  9
$DIMASO
 70
     0
  9
$DIMSHO
 70
     0
  9
$DIMPOST
  1

  9
$DIMAPOST
  1

  9
$DIMALT
 70
     0
  9
$DIMALTD
 70
     2
  9
$DIMALTF
 40
25.399999999999999
  9
$DIMLFAC
 40
1.0
  9
$DIMTOFL
 70
     1
  9
$DIMTVP
 40
0.0
  9
$DIMTIX
 70
     1
  9
$DIMSOXD
 70
     0
  9
$DIMSAH
 70
     0
  9
$DIMBLK1
  1

  9
$DIMBLK2
  1

  9
$DIMSTYLE
  2
STANDARD
  9
$DIMCLRD
 70
     0
  9
$DIMCLRE
 70
     0
  9
$DIMCLRT
 70
     0
  9
$DIMTFAC
 40
1.0
  9
$DIMGAP
 40
0.09
  9
$LUNITS
 70
     2
  9
$LUPREC
 70
     2
  9
$SKETCHINC
 40
0.1
  9
$FILLETRAD
 40
0.5
  9
$AUNITS
 70
     0
  9
$AUPREC
 70
     2
  9
$MENU
  1
E:\r13\win\SUPPORT\ACAD
  9
$ELEVATION
 40
0.0
  9
$PELEVATION
 40
0.0
  9
$THICKNESS
 40
0.0
  9
$LIMCHECK
 70
     0
  9
$BLIPMODE
 70
     0
  9
$CHAMFERA
 40
0.0
  9
$CHAMFERB
 40
0.0
  9
$SKPOLY
 70
     0
  9
$TDCREATE
 40
2449840.3442129628
  9
$TDUPDATE
 40
2457711.3985286122
  9
$TDINDWG
 40
0.0206285417
  9
$TDUSRTIMER
 40
0.0206285417
  9
$USRTIMER
 70
     1
  9
$ANGBASE
 50
0.0
  9
$ANGDIR
 70
     0
  9
$PDMODE
 70
     0
  9
$PDSIZE
 40
0.0
  9
$PLINEWID
 40
0.0
  9
$COORDS
 70
     1
  9
$SPLFRAME
 70
     0
  9
$SPLINETYPE
 70
     6
  9
$SPLINESEGS
 70
     8
  9
$ATTDIA
 70
     0
  9
$ATTREQ
 70
     1
  9
$HANDLING
 70
     1
  9
$HANDSEED
  5
E2A
  9
$SURFTAB1
 70
     6
  9
$SURFTAB2
 70
     6
  9
$SURFTYPE
 70
     6
  9
$SURFU
 70
     6
  9
$SURFV
 70
     6
  9
$UCSNAME
  2

  9
$UCSORG
 10
0.0
 20
0.0
 30
0.0
  9
$UCSXDIR
 10
1.0
 20
0.0
 30
0.0
  9
$UCSYDIR
 10
0.0
 20
1.0
 30
0.0
  9
$PUCSNAME
  2

  9
$PUCSORG
 10
0.0
 20
0.0
 30
0.0
  9
$PUCSXDIR
 10
1.0
 20
0.0
 30
0.0
  9
$PUCSYDIR
 10
0.0
 20
1.0
 30
0.0
  9
$USERI1
 70
     3
  9
$USERI2
 70
     1
  9
$USERI3
 70
     0
  9
$USERI4
 70
     1
  9
$USERI5
 70
     0
  9
$USERR1
 40
1.0
  9
$USERR2
 40
3.0
  9
$USERR3
 40
3.0
  9
$USERR4
 40
3.0
  9
$USERR5
 40
10.0
  9
$WORLDVIEW
 70
     1
  9
$SHADEDGE
 70
     3
  9
$SHADEDIF
 70
    70
  9
$TILEMODE
 70
     1
  9
$MAXACTVP
 70
    16
  9
$PLIMCHECK
 70
     0
  9
$PEXTMIN
 10
1.0000000000000000E+020
 20
1.0000000000000000E+020
 30
1.0000000000000000E+020
  9
$PEXTMAX
 10
-1.0000000000000000E+020
 20
-1.0000000000000000E+020
 30
-1.0000000000000000E+020
  9
$PLIMMIN
 10
0.0
 20
0.0
  9
$PLIMMAX
 10
12.0
 20
9.0
  9
$UNITMODE
 70
     0
  9
$VISRETAIN
 70
     0
  9
$PLINEGEN
 70
     0
  9
$PSLTSCALE
 70
     0
  0
ENDSEC
  0
SECTION
  2
TABLES
  0
TABLE
  2
VPORT
 70
     1
  0
VPORT
  2
*ACTIVE
 70
     0
 10
0.0
 20
0.0
 11
1.0
 21
1.0
 12
86.008170836150384
 22
49.31166816968453
 13
0.0
 23
0.0
 14
1.0
 24
1.0
 15
10.0
 25
10.0
 16
0.0
 26
0.0
 36
1.0
 17
0.0
 27
0.0
 37
0.0
 40
105.41420422962101
 41
1.816239316239316
 42
50.0
 43
0.0
 44
0.0
 50
0.0
 51
0.0
 71
     0
 72
   100
 73
     1
 74
     0
 75
     0
 76
     0
 77
     0
 78
     0
  0
ENDTAB
  0
TABLE
  2
LTYPE
 70
     5
  0
LTYPE
  2
CONTINUOUS
 70
     0
  3
Solid Line
 72
    65
 73
     0
 40
0.0
  0
LTYPE
  2
CENTER
 70
     0
  3
____ _ ____ _ ____ _ ____ _ ____ _ ____ _ ____
 72
    65
 73
     4
 40
2.0
 49
1.25
 49
-0.25
 49
0.25
 49
-0.25
  0
LTYPE
  2
PHANTOM
 70
     0
  3
_____ _ _ _____ _ _ _____ _ _ _____ _ _ ____
 72
    65
 73
     6
 40
2.5
 49
1.25
 49
-0.25
 49
0.25
 49
-0.25
 49
0.25
 49
-0.25
  0
LTYPE
  2
PHANTOM2
 70
     0
  3
Phantom (.5x) ___ _ _ ___ _ _ ___ _ _ ___ _ _
 72
    65
 73
     6
 40
1.25
 49
0.625
 49
-0.125
 49
0.125
 49
-0.125
 49
0.125
 49
-0.125
  0
LTYPE
  2
HIDDEN
 70
     0
  3
_ _ _ _ _ _ _ _ _ _ _ _ _ _ _ _ _ _ _ _ _ _ _
 72
    65
 73
     2
 40
0.375
 49
0.25
 49
-0.125
  0
ENDTAB
  0
TABLE
  2
LAYER
 70
     4
  0
LAYER
  2
0
 70
     0
 62
     7
  6
CONTINUOUS
  0
LAYER
  2
1
 70
     0
 62
     1
  6
CENTER
  0
LAYER
  2
3
 70
     0
 62
     3
  6
CONTINUOUS
  0
LAYER
  2
2
 70
     0
 62
     2
  6
HIDDEN
  0
ENDTAB
  0
TABLE
  2
STYLE
 70
     2
  0
STYLE
  2
STANDARD
 70
     0
 40
0.0
 41
1.0
 50
0.0
 71
     0
 42
0.2
  3
TXT
  4
BIGFONT
  0
STYLE
  2
STANDARD1
 70
     0
 40
0.0
 41
1.0
 50
0.0
 71
     0
 42
3.0
  3
txt
  4

  0
ENDTAB
  0
TABLE
  2
VIEW
 70
     0
  0
ENDTAB
  0
TABLE
  2
UCS
 70
     0
  0
ENDTAB
  0
TABLE
  2
APPID
 70
     4
  0
APPID
  2
ACAD
 70
     0
  0
APPID
  2
ACAD_MLEADERVER
 70
     0
  0
APPID
  2
ACAD_EXEMPT_FROM_CAD_STANDARDS
 70
     0
  0
APPID
  2
ACAD_NAV_VCDISPLAY
 70
     0
  0
ENDTAB
  0
TABLE
  2
DIMSTYLE
 70
     2
  0
DIMSTYLE
  2
STANDARD
 70
     0
  3

  4

  5

  6

  7

 40
1.0
 41
0.18
 42
0.0625
 43
0.38
 44
0.18
 45
0.0
 46
0.0
 47
0.0
 48
0.0
140
0.18
141
0.09
142
0.0
143
25.399999999999999
144
1.0
145
0.0
146
1.0
147
0.09
 71
     0
 72
     0
 73
     1
 74
     1
 75
     0
 76
     0
 77
     0
 78
     0
170
     0
171
     2
172
     0
173
     0
174
     0
175
     0
176
     0
177
     0
178
     0
  0
DIMSTYLE
  2
ISO-25
 70
     0
  3

  4

  5

  6

  7

 40
1.0
 41
2.5
 42
0.625
 43
3.75
 44
1.25
 45
0.0
 46
0.0
 47
0.0
 48
0.0
140
2.5
141
2.5
142
0.0
143
0.0393700787
144
1.0
145
0.0
146
1.0
147
0.625
 71
     0
 72
     0
 73
     0
 74
     0
 75
     0
 76
     0
 77
     1
 78
     8
170
     0
171
     3
172
     1
173
     0
174
     0
175
     0
176
     0
177
     0
178
     0
  0
ENDTAB
  0
ENDSEC
  0
SECTION
  2
BLOCKS
  0
BLOCK
  8
0
  2
$MODEL_SPACE
 70
     0
 10
0.0
 20
0.0
 30
0.0
  3
$MODEL_SPACE
  1

  0
ENDBLK
  5
614
  8
0
  0
BLOCK
 67
     1
  8
0
  2
$PAPER_SPACE
 70
     0
 10
0.0
 20
0.0
 30
0.0
  3
$PAPER_SPACE
  1

  0
ENDBLK
  5
612
 67
     1
  8
0
  0
BLOCK
  8
0
  2
BBB
 70
     0
 10
0.0
 20
0.0
 30
0.0
  3
BBB
  1

  0
LINE
  5
2B
  8
0
 10
-16.347819000000001
 20
4.5612009999999996
 30
0.0
 11
-15.632993000000001
 21
5.9000000000000004
 31
0.0
  0
LINE
  5
2C
  8
0
 10
-16.309011999999999
 20
3.7145320000000002
 30
0.0
 11
-15.596173
 21
5.0496089999999993
 31
0.0
  0
LINE
  5
2D
  8
0
 10
-15.163779
 20
4.6844320000000002
 30
0.0
 11
-14.514749
 21
5.9000000000000004
 31
0.0
  0
LINE
  5
2E
  8
0
 10
-15.190769
 20
3.7145320000000002
 30
0.0
 11
-14.242421999999999
 21
5.4906930000000003
 31
0.0
  0
LINE
  5
2F
  8
0
 10
-13.863538999999999
 20
4.8530749999999987
 30
0.0
 11
-13.304553
 21
5.9000000000000004
 31
0.0
  0
LINE
  5
30
  8
0
 10
-13.980573
 20
3.7145320000000002
 30
0.0
 11
-13.078431999999999
 21
5.404151999999999
 31
0.0
  0
LINE
  5
31
  8
0
 10
-15.594749999999999
 20
5.8893810000000002
 30
0.0
 11
-15.598262
 21
3.8168730000000002
 31
0.0
  0
LINE
  5
32
  8
0
 10
-15.161719
 20
5.9000000000000004
 30
0.0
 11
-15.16525
 21
3.8161389999999988
 31
0.0
  0
ARC
  5
33
  8
0
 10
-15.381755999999999
 20
3.816506
 30
0.0
 40
0.216506
 50
179.90290300000001
 51
359.90290299999998
  0
ARC
  5
34
  8
0
 10
-14.171561000000001
 20
3.816506
 30
0.0
 40
0.216506
 50
175.0
 51
355.0
  0
LINE
  5
35
  8
0
 10
-13.771945000000001
 20
5.9000000000000004
 30
0.0
 11
-13.955878
 21
3.7976369999999999
 31
0.0
  0
LINE
  5
36
  8
0
 10
-14.206612
 20
5.9000000000000004
 30
0.0
 11
-14.387243
 21
3.8353760000000001
 31
0.0
  0
ARC
  5
37
  8
0
 10
-13.0
 20
3.816506
 30
0.0
 40
0.216506
 50
175.0
 51
355.0
  0
LINE
  5
38
  8
0
 10
-12.600384999999999
 20
5.9000000000000004
 30
0.0
 11
-12.784318000000001
 21
3.7976369999999999
 31
0.0
  0
LINE
  5
39
  8
0
 10
-13.035050999999999
 20
5.9000000000000004
 30
0.0
 11
-13.215681999999999
 21
3.8353760000000001
 31
0.0
  0
LINE
  5
3A
  8
0
 10
-23.964949000000001
 20
5.9000000000000004
 30
0.0
 11
-23.784317999999999
 21
3.8353760000000001
 31
0.0
  0
LINE
  5
3B
  8
0
 10
-14.304107999999999
 20
-6.2999999999999989
 30
0.0
 11
-14.216506000000001
 21
-5.9674959999999988
 31
0.0
  0
LINE
  5
3C
  8
0
 10
-14.980409999999999
 20
-6.2999999999999989
 30
0.0
 11
-14.766506
 21
-5.4881029999999988
 31
0.0
  0
ARC
  5
3D
  8
0
 10
-14.550000000000001
 20
-3.816506
 30
0.0
 40
0.216506
 50
0.0
 51
180.0
  0
LINE
  5
3E
  8
0
 10
-14.766506
 20
-6.2999999999999989
 30
0.0
 11
-14.766506
 21
-3.816506
 31
0.0
  0
LINE
  5
3F
  8
0
 10
-14.333494
 20
-6.2999999999999989
 30
0.0
 11
-14.333494
 21
-3.816506
 31
0.0
  0
LINE
  5
40
  8
0
 10
-15.190988000000001
 20
-3.7145320000000002
 30
0.0
 11
-16.485931000000001
 21
-6.1398339999999987
 31
0.0
  0
LINE
  5
41
  8
0
 10
-15.308021
 20
-4.8530749999999987
 30
0.0
 11
-16.080579
 21
-6.2999999999999989
 31
0.0
  0
ARC
  5
42
  8
0
 10
-15.0
 20
-3.816506
 30
0.0
 40
0.216506
 50
355.0
 51
175.0
  0
LINE
  5
43
  8
0
 10
-15.434611
 20
-6.2999999999999989
 30
0.0
 11
-15.215681999999999
 21
-3.7976369999999999
 31
0.0
  0
LINE
  5
44
  8
0
 10
-14.999943999999999
 20
-6.2999999999999989
 30
0.0
 11
-14.784318000000001
 21
-3.8353760000000001
 31
0.0
  0
LINE
  5
45
  8
0
 10
-14.216506000000001
 20
-6.2999999999999989
 30
0.0
 11
-14.216506000000001
 21
-3.816506
 31
0.0
  0
LINE
  5
46
  8
0
 10
-16.499943999999999
 20
-6.2999999999999989
 30
0.0
 11
-16.284317999999999
 21
-3.8353760000000001
 31
0.0
  0
LINE
  5
47
  8
0
 10
-16.899615000000001
 20
5.9000000000000004
 30
0.0
 11
-16.715682000000001
 21
3.7976369999999999
 31
0.0
  0
ARC
  5
48
  8
0
 10
-16.5
 20
-3.816506
 30
0.0
 40
0.216506
 50
355.0
 51
175.0
  0
LINE
  5
49
  8
0
 10
-16.808021
 20
4.8530749999999987
 30
0.0
 11
-17.367007000000001
 21
5.9000000000000004
 31
0.0
  0
LINE
  5
4A
  8
0
 10
-16.690988000000001
 20
3.7145320000000002
 30
0.0
 11
-17.857876999999998
 21
5.9000000000000004
 31
0.0
  0
LINE
  5
4B
  8
0
 10
-18.399615000000001
 20
5.9000000000000004
 30
0.0
 11
-18.215682000000001
 21
3.7976369999999999
 31
0.0
  0
LINE
  5
4C
  8
0
 10
-18.308021
 20
4.8530749999999987
 30
0.0
 11
-18.867007000000001
 21
5.9000000000000004
 31
0.0
  0
LINE
  5
4D
  8
0
 10
-18.190988000000001
 20
3.7145320000000002
 30
0.0
 11
-19.357876999999998
 21
5.9000000000000004
 31
0.0
  0
ARC
  5
4E
  8
0
 10
-18.0
 20
3.816506
 30
0.0
 40
0.216506
 50
185.0
 51
5.0
  0
LINE
  5
4F
  8
0
 10
-17.964949000000001
 20
5.9000000000000004
 30
0.0
 11
-17.784317999999999
 21
3.8353760000000001
 31
0.0
  0
LINE
  5
50
  8
0
 10
-19.899615000000001
 20
5.9000000000000004
 30
0.0
 11
-19.715682000000001
 21
3.7976369999999999
 31
0.0
  0
LINE
  5
51
  8
0
 10
-19.808021
 20
4.8530749999999987
 30
0.0
 11
-20.367007000000001
 21
5.9000000000000004
 31
0.0
  0
LINE
  5
52
  8
0
 10
-19.690988000000001
 20
3.7145320000000002
 30
0.0
 11
-20.857876999999998
 21
5.9000000000000004
 31
0.0
  0
ARC
  5
53
  8
0
 10
-19.5
 20
3.816506
 30
0.0
 40
0.216506
 50
185.0
 51
5.0
  0
LINE
  5
54
  8
0
 10
-19.464949000000001
 20
5.9000000000000004
 30
0.0
 11
-19.284317999999999
 21
3.8353760000000001
 31
0.0
  0
LINE
  5
55
  8
0
 10
-21.399615000000001
 20
5.9000000000000004
 30
0.0
 11
-21.215682000000001
 21
3.7976369999999999
 31
0.0
  0
LINE
  5
56
  8
0
 10
-21.308021
 20
4.8530749999999987
 30
0.0
 11
-21.867007000000001
 21
5.9000000000000004
 31
0.0
  0
LINE
  5
57
  8
0
 10
-21.190988000000001
 20
3.7145320000000002
 30
0.0
 11
-22.357876999999998
 21
5.9000000000000004
 31
0.0
  0
ARC
  5
58
  8
0
 10
-21.0
 20
3.816506
 30
0.0
 40
0.216506
 50
185.0
 51
5.0
  0
LINE
  5
59
  8
0
 10
-20.964949000000001
 20
5.9000000000000004
 30
0.0
 11
-20.784317999999999
 21
3.8353760000000001
 31
0.0
  0
LINE
  5
5A
  8
0
 10
-22.464949000000001
 20
5.9000000000000004
 30
0.0
 11
-22.284317999999999
 21
3.8353760000000001
 31
0.0
  0
LINE
  5
5B
  8
0
 10
-22.899615000000001
 20
5.9000000000000004
 30
0.0
 11
-22.715682000000001
 21
3.7976369999999999
 31
0.0
  0
ARC
  5
5C
  8
0
 10
-22.5
 20
3.816506
 30
0.0
 40
0.216506
 50
185.0
 51
5.0
  0
LINE
  5
5D
  8
0
 10
-22.808021
 20
4.8530749999999987
 30
0.0
 11
-23.367007000000001
 21
5.9000000000000004
 31
0.0
  0
LINE
  5
5E
  8
0
 10
-22.690988000000001
 20
3.7145320000000002
 30
0.0
 11
-23.857876999999998
 21
5.9000000000000004
 31
0.0
  0
ARC
  5
5F
  8
0
 10
-24.0
 20
3.816506
 30
0.0
 40
0.216506
 50
185.0
 51
5.0
  0
LINE
  5
60
  8
0
 10
-24.434611
 20
6.2999999999999989
 30
0.0
 11
-24.215682000000001
 21
3.7976369999999999
 31
0.0
  0
ARC
  5
61
  8
0
 10
-25.5
 20
3.816506
 30
0.0
 40
0.216506
 50
185.0
 51
5.0
  0
LINE
  5
62
  8
0
 10
-25.499943999999999
 20
6.2999999999999989
 30
0.0
 11
-25.284317999999999
 21
3.8353760000000001
 31
0.0
  0
LINE
  5
63
  8
0
 10
-25.934611
 20
6.2999999999999989
 30
0.0
 11
-25.715682000000001
 21
3.7976369999999999
 31
0.0
  0
ARC
  5
64
  8
0
 10
-27.0
 20
3.816506
 30
0.0
 40
0.216506
 50
185.0
 51
5.0
  0
LINE
  5
65
  8
0
 10
-26.999943999999999
 20
6.2999999999999989
 30
0.0
 11
-26.784317999999999
 21
3.8353760000000001
 31
0.0
  0
LINE
  5
66
  8
0
 10
-27.434611
 20
6.2999999999999989
 30
0.0
 11
-27.215682000000001
 21
3.7976369999999999
 31
0.0
  0
ARC
  5
67
  8
0
 10
-33.284999999999997
 20
0.0
 30
0.0
 40
0.215
 50
90.0
 51
270.0
  0
LINE
  5
68
  8
0
 10
-31.593574
 20
-0.215
 30
0.0
 11
-33.284999999999997
 21
-0.215
 31
0.0
  0
LINE
  5
69
  8
0
 10
-31.593574
 20
0.215
 30
0.0
 11
-33.284999999999997
 21
0.215
 31
0.0
  0
LINE
  5
6A
  8
0
 10
-31.198246000000001
 20
1.6526419999999991
 30
0.0
 11
-32.901539
 21
2.2060749999999989
 31
0.0
  0
LINE
  5
6B
  8
0
 10
-31.373275
 20
1.257382999999999
 30
0.0
 11
-33.034416999999998
 21
1.7971209999999991
 31
0.0
  0
ARC
  5
6C
  8
0
 10
-32.967978000000002
 20
2.0015979999999991
 30
0.0
 40
0.215
 50
72.0
 51
252.0
  0
LINE
  5
6D
  8
0
 10
-30.278337000000001
 20
2.7873250000000001
 30
0.0
 11
-31.921569999999999
 21
3.9812050000000001
 31
0.0
  0
LINE
  5
6E
  8
0
 10
-30.600261
 20
2.4897079999999998
 30
0.0
 11
-32.174318
 21
3.6333269999999991
 31
0.0
  0
ARC
  5
6F
  8
0
 10
-32.047944000000001
 20
3.8072659999999998
 30
0.0
 40
0.215
 50
54.0
 51
234.0
  0
LINE
  5
70
  8
0
 10
-29.044895
 20
3.4450249999999989
 30
0.0
 11
-30.441020000000002
 21
5.3666260000000001
 31
0.0
  0
LINE
  5
71
  8
0
 10
-29.46321
 20
3.289226999999999
 30
0.0
 11
-30.788896999999999
 21
5.1138779999999988
 31
0.0
  0
ARC
  5
72
  8
0
 10
-30.614958000000001
 20
5.240251999999999
 30
0.0
 40
0.215
 50
36.0
 51
216.0
  0
LINE
  5
73
  8
0
 10
-28.001322999999999
 20
3.7582049999999998
 30
0.0
 11
-28.764595
 21
6.1073149999999989
 31
0.0
  0
LINE
  5
74
  8
0
 10
-28.410277000000001
 20
3.6253279999999992
 30
0.0
 11
-29.173549000000001
 21
5.9744380000000001
 31
0.0
  0
ARC
  5
75
  8
0
 10
-28.969072000000001
 20
6.040875999999999
 30
0.0
 40
0.215
 50
18.0
 51
198.0
  0
ARC
  5
76
  8
0
 10
-28.2058
 20
3.691767
 30
0.0
 40
0.215
 50
198.0
 51
211.652694
  0
ARC
  5
77
  8
0
 10
-27.215627000000001
 20
6.2811300000000001
 30
0.0
 40
0.216506
 50
5.0
 51
185.0
  0
ARC
  5
78
  8
0
 10
-25.715627000000001
 20
6.2811300000000001
 30
0.0
 40
0.216506
 50
5.0
 51
185.0
  0
ARC
  5
79
  8
0
 10
-24.215627000000001
 20
6.2811300000000001
 30
0.0
 40
0.216506
 50
85.855304000000004
 51
185.0
  0
LINE
  5
7A
  8
0
 10
-24.286496
 20
4.607041999999999
 30
0.0
 11
-25.537932999999999
 21
6.4048230000000004
 31
0.0
  0
LINE
  5
7B
  8
0
 10
-24.177693999999999
 20
3.6928139999999989
 30
0.0
 11
-25.429130000000001
 21
5.4905939999999998
 31
0.0
  0
LINE
  5
7C
  8
0
 10
-25.677693999999999
 20
3.6928139999999989
 30
0.0
 11
-26.929130000000001
 21
5.4905939999999998
 31
0.0
  0
LINE
  5
7D
  8
0
 10
-25.786496
 20
4.607041999999999
 30
0.0
 11
-27.037932999999999
 21
6.4048230000000004
 31
0.0
  0
LINE
  5
7E
  8
0
 10
-27.162113000000002
 20
3.672998999999999
 30
0.0
 11
-28.444237000000001
 21
5.1213559999999987
 31
0.0
  0
LINE
  5
7F
  8
0
 10
-27.272880000000001
 20
4.4514050000000003
 30
0.0
 11
-28.806958999999999
 21
6.1843830000000004
 31
0.0
  0
LINE
  5
80
  8
0
 10
-28.424396000000002
 20
3.5748969999999991
 30
0.0
 11
-29.765552
 21
4.4369249999999987
 31
0.0
  0
LINE
  5
81
  8
0
 10
-28.597238000000001
 20
4.200734999999999
 30
0.0
 11
-30.497895
 21
5.4223809999999988
 31
0.0
  0
LINE
  5
82
  8
0
 10
-29.762816000000001
 20
3.1388660000000002
 30
0.0
 11
-31.131270000000001
 21
3.407017999999999
 31
0.0
  0
LINE
  5
83
  8
0
 10
-29.6599
 20
3.5599470000000002
 30
0.0
 11
-32.006310999999997
 21
4.0197320000000003
 31
0.0
  0
LINE
  5
84
  8
0
 10
-30.976490999999999
 20
2.0249700000000002
 30
0.0
 11
-31.972486
 21
1.9042069999999991
 31
0.0
  0
LINE
  5
85
  8
0
 10
-30.620387000000001
 20
2.5043299999999991
 30
0.0
 11
-32.994038000000003
 21
2.2165300000000001
 31
0.0
  0
LINE
  5
86
  8
0
 10
-31.555451000000001
 20
0.564596
 30
0.0
 11
-32.308135
 21
0.215
 31
0.0
  0
LINE
  5
87
  8
0
 10
-31.427332
 20
1.1015429999999991
 30
0.0
 11
-33.376201999999999
 21
0.19636
 31
0.0
  0
ARC
  5
88
  8
0
 10
-28.2058
 20
3.691767
 30
0.0
 40
0.215
 50
334.72868
 51
18.0
  0
ARC
  5
89
  8
0
 10
-28.2058
 20
-3.691767
 30
0.0
 40
0.215
 50
342.0
 51
25.271319999999999
  0
LINE
  5
8A
  8
0
 10
-31.427332
 20
-1.1015429999999991
 30
0.0
 11
-33.376201999999999
 21
-0.19636
 31
0.0
  0
LINE
  5
8B
  8
0
 10
-31.555451000000001
 20
-0.564596
 30
0.0
 11
-32.308135
 21
-0.215
 31
0.0
  0
LINE
  5
8C
  8
0
 10
-30.620387000000001
 20
-2.5043299999999991
 30
0.0
 11
-32.994038000000003
 21
-2.2165300000000001
 31
0.0
  0
LINE
  5
8D
  8
0
 10
-30.976490999999999
 20
-2.0249700000000002
 30
0.0
 11
-31.972486
 21
-1.9042069999999991
 31
0.0
  0
LINE
  5
8E
  8
0
 10
-29.6599
 20
-3.5599470000000002
 30
0.0
 11
-32.006310999999997
 21
-4.0197320000000003
 31
0.0
  0
LINE
  5
8F
  8
0
 10
-29.762816000000001
 20
-3.1388660000000002
 30
0.0
 11
-31.131270000000001
 21
-3.407017999999999
 31
0.0
  0
LINE
  5
90
  8
0
 10
-28.597238000000001
 20
-4.200734999999999
 30
0.0
 11
-30.497895
 21
-5.4223809999999988
 31
0.0
  0
LINE
  5
91
  8
0
 10
-28.424396000000002
 20
-3.5748969999999991
 30
0.0
 11
-29.765552
 21
-4.4369249999999987
 31
0.0
  0
LINE
  5
92
  8
0
 10
-27.272880000000001
 20
-4.4514050000000003
 30
0.0
 11
-28.806958999999999
 21
-6.1843830000000004
 31
0.0
  0
LINE
  5
93
  8
0
 10
-27.162113000000002
 20
-3.672998999999999
 30
0.0
 11
-28.444237000000001
 21
-5.1213559999999987
 31
0.0
  0
LINE
  5
94
  8
0
 10
-25.786496
 20
-4.607041999999999
 30
0.0
 11
-27.037932999999999
 21
-6.4048230000000004
 31
0.0
  0
LINE
  5
95
  8
0
 10
-25.677693999999999
 20
-3.6928139999999989
 30
0.0
 11
-26.929130000000001
 21
-5.4905939999999998
 31
0.0
  0
LINE
  5
96
  8
0
 10
-24.177693999999999
 20
-3.6928139999999989
 30
0.0
 11
-25.429130000000001
 21
-5.4905939999999998
 31
0.0
  0
LINE
  5
97
  8
0
 10
-24.286496
 20
-4.607041999999999
 30
0.0
 11
-25.537932999999999
 21
-6.4048230000000004
 31
0.0
  0
ARC
  5
98
  8
0
 10
-24.215627000000001
 20
-6.2811300000000001
 30
0.0
 40
0.216506
 50
175.0
 51
274.139002
  0
ARC
  5
99
  8
0
 10
-25.715627000000001
 20
-6.2811300000000001
 30
0.0
 40
0.216506
 50
175.0
 51
355.0
  0
ARC
  5
9A
  8
0
 10
-27.215627000000001
 20
-6.2811300000000001
 30
0.0
 40
0.216506
 50
175.0
 51
355.0
  0
ARC
  5
9B
  8
0
 10
-28.2058
 20
-3.691767
 30
0.0
 40
0.215
 50
148.347306
 51
162.0
  0
ARC
  5
9C
  8
0
 10
-28.969072000000001
 20
-6.040875999999999
 30
0.0
 40
0.215
 50
162.0
 51
342.0
  0
LINE
  5
9D
  8
0
 10
-28.410277000000001
 20
-3.6253279999999992
 30
0.0
 11
-29.173549000000001
 21
-5.9744380000000001
 31
0.0
  0
LINE
  5
9E
  8
0
 10
-28.001322999999999
 20
-3.7582049999999998
 30
0.0
 11
-28.764595
 21
-6.1073149999999989
 31
0.0
  0
ARC
  5
9F
  8
0
 10
-30.614958000000001
 20
-5.240251999999999
 30
0.0
 40
0.215
 50
144.0
 51
324.0
  0
LINE
  5
A0
  8
0
 10
-29.46321
 20
-3.289226999999999
 30
0.0
 11
-30.788896999999999
 21
-5.1138779999999988
 31
0.0
  0
LINE
  5
A1
  8
0
 10
-29.044895
 20
-3.4450249999999989
 30
0.0
 11
-30.441020000000002
 21
-5.3666260000000001
 31
0.0
  0
ARC
  5
A2
  8
0
 10
-32.047944000000001
 20
-3.8072659999999998
 30
0.0
 40
0.215
 50
126.0
 51
306.0
  0
LINE
  5
A3
  8
0
 10
-30.600261
 20
-2.4897079999999998
 30
0.0
 11
-32.174318
 21
-3.6333269999999991
 31
0.0
  0
LINE
  5
A4
  8
0
 10
-30.278337000000001
 20
-2.7873250000000001
 30
0.0
 11
-31.921569999999999
 21
-3.9812050000000001
 31
0.0
  0
ARC
  5
A5
  8
0
 10
-32.967978000000002
 20
-2.0015979999999991
 30
0.0
 40
0.215
 50
108.0
 51
288.0
  0
LINE
  5
A6
  8
0
 10
-31.373275
 20
-1.257382999999999
 30
0.0
 11
-33.034416999999998
 21
-1.7971209999999991
 31
0.0
  0
LINE
  5
A7
  8
0
 10
-31.198246000000001
 20
-1.6526419999999991
 30
0.0
 11
-32.901539
 21
-2.2060749999999989
 31
0.0
  0
LINE
  5
A8
  8
0
 10
-31.593574
 20
-0.215
 30
0.0
 11
-33.284999999999997
 21
-0.215
 31
0.0
  0
LINE
  5
A9
  8
0
 10
-31.593574
 20
0.215
 30
0.0
 11
-33.284999999999997
 21
0.215
 31
0.0
  0
ARC
  5
AA
  8
0
 10
-33.284999999999997
 20
0.0
 30
0.0
 40
0.215
 50
90.0
 51
270.0
  0
LINE
  5
AB
  8
0
 10
-27.434611
 20
-6.2999999999999989
 30
0.0
 11
-27.215682000000001
 21
-3.7976369999999999
 31
0.0
  0
LINE
  5
AC
  8
0
 10
-26.999943999999999
 20
-6.2999999999999989
 30
0.0
 11
-26.784317999999999
 21
-3.8353760000000001
 31
0.0
  0
ARC
  5
AD
  8
0
 10
-27.0
 20
-3.816506
 30
0.0
 40
0.216506
 50
355.0
 51
175.0
  0
LINE
  5
AE
  8
0
 10
-25.934611
 20
-6.2999999999999989
 30
0.0
 11
-25.715682000000001
 21
-3.7976369999999999
 31
0.0
  0
LINE
  5
AF
  8
0
 10
-25.499943999999999
 20
-6.2999999999999989
 30
0.0
 11
-25.284317999999999
 21
-3.8353760000000001
 31
0.0
  0
ARC
  5
B0
  8
0
 10
-25.5
 20
-3.816506
 30
0.0
 40
0.216506
 50
355.0
 51
175.0
  0
LINE
  5
B1
  8
0
 10
-24.434611
 20
-6.2999999999999989
 30
0.0
 11
-24.215682000000001
 21
-3.7976369999999999
 31
0.0
  0
LINE
  5
B2
  8
0
 10
-23.999943999999999
 20
-6.2999999999999989
 30
0.0
 11
-23.784317999999999
 21
-3.8353760000000001
 31
0.0
  0
ARC
  5
B3
  8
0
 10
-24.0
 20
-3.816506
 30
0.0
 40
0.216506
 50
355.0
 51
175.0
  0
LINE
  5
B4
  8
0
 10
-22.690988000000001
 20
-3.7145320000000002
 30
0.0
 11
-23.985931000000001
 21
-6.1398339999999987
 31
0.0
  0
LINE
  5
B5
  8
0
 10
-22.808021
 20
-4.8530749999999987
 30
0.0
 11
-23.580579
 21
-6.2999999999999989
 31
0.0
  0
ARC
  5
B6
  8
0
 10
-22.5
 20
-3.816506
 30
0.0
 40
0.216506
 50
355.0
 51
175.0
  0
LINE
  5
B7
  8
0
 10
-22.934611
 20
-6.2999999999999989
 30
0.0
 11
-22.715682000000001
 21
-3.7976369999999999
 31
0.0
  0
LINE
  5
B8
  8
0
 10
-22.499943999999999
 20
-6.2999999999999989
 30
0.0
 11
-22.284317999999999
 21
-3.8353760000000001
 31
0.0
  0
LINE
  5
B9
  8
0
 10
-20.999943999999999
 20
-6.2999999999999989
 30
0.0
 11
-20.784317999999999
 21
-3.8353760000000001
 31
0.0
  0
ARC
  5
BA
  8
0
 10
-21.0
 20
-3.816506
 30
0.0
 40
0.216506
 50
355.0
 51
175.0
  0
LINE
  5
BB
  8
0
 10
-21.190988000000001
 20
-3.7145320000000002
 30
0.0
 11
-22.485931000000001
 21
-6.1398339999999987
 31
0.0
  0
LINE
  5
BC
  8
0
 10
-21.308021
 20
-4.8530749999999987
 30
0.0
 11
-22.080579
 21
-6.2999999999999989
 31
0.0
  0
LINE
  5
BD
  8
0
 10
-21.434611
 20
-6.2999999999999989
 30
0.0
 11
-21.215682000000001
 21
-3.7976369999999999
 31
0.0
  0
LINE
  5
BE
  8
0
 10
-19.499943999999999
 20
-6.2999999999999989
 30
0.0
 11
-19.284317999999999
 21
-3.8353760000000001
 31
0.0
  0
ARC
  5
BF
  8
0
 10
-19.5
 20
-3.816506
 30
0.0
 40
0.216506
 50
355.0
 51
175.0
  0
LINE
  5
C0
  8
0
 10
-19.690988000000001
 20
-3.7145320000000002
 30
0.0
 11
-20.985931000000001
 21
-6.1398339999999987
 31
0.0
  0
LINE
  5
C1
  8
0
 10
-19.808021
 20
-4.8530749999999987
 30
0.0
 11
-20.580579
 21
-6.2999999999999989
 31
0.0
  0
LINE
  5
C2
  8
0
 10
-19.934611
 20
-6.2999999999999989
 30
0.0
 11
-19.715682000000001
 21
-3.7976369999999999
 31
0.0
  0
LINE
  5
C3
  8
0
 10
-17.999943999999999
 20
-6.2999999999999989
 30
0.0
 11
-17.784317999999999
 21
-3.8353760000000001
 31
0.0
  0
ARC
  5
C4
  8
0
 10
-18.0
 20
-3.816506
 30
0.0
 40
0.216506
 50
355.0
 51
175.0
  0
LINE
  5
C5
  8
0
 10
-18.190988000000001
 20
-3.7145320000000002
 30
0.0
 11
-19.485931000000001
 21
-6.1398339999999987
 31
0.0
  0
LINE
  5
C6
  8
0
 10
-18.308021
 20
-4.8530749999999987
 30
0.0
 11
-19.080579
 21
-6.2999999999999989
 31
0.0
  0
LINE
  5
C7
  8
0
 10
-18.434611
 20
-6.2999999999999989
 30
0.0
 11
-18.215682000000001
 21
-3.7976369999999999
 31
0.0
  0
LINE
  5
C8
  8
0
 10
-16.690988000000001
 20
-3.7145320000000002
 30
0.0
 11
-17.985931000000001
 21
-6.1398339999999987
 31
0.0
  0
LINE
  5
C9
  8
0
 10
-16.808021
 20
-4.8530749999999987
 30
0.0
 11
-17.580579
 21
-6.2999999999999989
 31
0.0
  0
ARC
  5
CA
  8
0
 10
-16.5
 20
3.816506
 30
0.0
 40
0.216506
 50
185.0
 51
5.0
  0
LINE
  5
CB
  8
0
 10
-16.934611
 20
-6.2999999999999989
 30
0.0
 11
-16.715682000000001
 21
-3.7976369999999999
 31
0.0
  0
LINE
  5
CC
  8
0
 10
-16.464949000000001
 20
5.9000000000000004
 30
0.0
 11
-16.284317999999999
 21
3.8353760000000001
 31
0.0
  0
LINE
  5
CD
  8
0
 10
-12.809011999999999
 20
3.7145320000000002
 30
0.0
 11
-11.642123
 21
5.9000000000000004
 31
0.0
  0
LINE
  5
CE
  8
0
 10
-12.691979
 20
4.8530749999999987
 30
0.0
 11
-12.132993000000001
 21
5.9000000000000004
 31
0.0
  0
LINE
  5
CF
  8
0
 10
-11.535050999999999
 20
5.9000000000000004
 30
0.0
 11
-11.715681999999999
 21
3.8353760000000001
 31
0.0
  0
LINE
  5
D0
  8
0
 10
-11.100384999999999
 20
5.9000000000000004
 30
0.0
 11
-11.284318000000001
 21
3.7976369999999999
 31
0.0
  0
ARC
  5
D1
  8
0
 10
-11.5
 20
3.816506
 30
0.0
 40
0.216506
 50
175.0
 51
355.0
  0
LINE
  5
D2
  8
0
 10
-11.191979
 20
4.8530749999999987
 30
0.0
 11
-10.632993000000001
 21
5.9000000000000004
 31
0.0
  0
LINE
  5
D3
  8
0
 10
-11.309011999999999
 20
3.7145320000000002
 30
0.0
 11
-10.142123
 21
5.9000000000000004
 31
0.0
  0
LINE
  5
D4
  8
0
 10
-9.6003850000000011
 20
5.9000000000000004
 30
0.0
 11
-9.7843179999999972
 21
3.7976369999999999
 31
0.0
  0
LINE
  5
D5
  8
0
 10
-9.6919789999999981
 20
4.8530749999999987
 30
0.0
 11
-9.132992999999999
 21
5.9000000000000004
 31
0.0
  0
LINE
  5
D6
  8
0
 10
-9.8090119999999992
 20
3.7145320000000002
 30
0.0
 11
-8.6421229999999998
 21
5.9000000000000004
 31
0.0
  0
ARC
  5
D7
  8
0
 10
-10.0
 20
3.816506
 30
0.0
 40
0.216506
 50
175.0
 51
355.0
  0
LINE
  5
D8
  8
0
 10
-10.035050999999999
 20
5.9000000000000004
 30
0.0
 11
-10.215681999999999
 21
3.8353760000000001
 31
0.0
  0
LINE
  5
D9
  8
0
 10
-8.1003850000000011
 20
5.9000000000000004
 30
0.0
 11
-8.2843179999999972
 21
3.7976369999999999
 31
0.0
  0
LINE
  5
DA
  8
0
 10
-8.1919789999999981
 20
4.8530749999999987
 30
0.0
 11
-7.632992999999999
 21
5.9000000000000004
 31
0.0
  0
LINE
  5
DB
  8
0
 10
-8.3090119999999992
 20
3.7145320000000002
 30
0.0
 11
-7.1421229999999989
 21
5.9000000000000004
 31
0.0
  0
ARC
  5
DC
  8
0
 10
-8.5
 20
3.816506
 30
0.0
 40
0.216506
 50
175.0
 51
355.0
  0
LINE
  5
DD
  8
0
 10
-8.5350509999999993
 20
5.9000000000000004
 30
0.0
 11
-8.715682000000001
 21
3.8353760000000001
 31
0.0
  0
LINE
  5
DE
  8
0
 10
-6.6003850000000002
 20
5.9000000000000004
 30
0.0
 11
-6.7843179999999981
 21
3.7976369999999999
 31
0.0
  0
LINE
  5
DF
  8
0
 10
-6.691978999999999
 20
4.8530749999999987
 30
0.0
 11
-6.132992999999999
 21
5.9000000000000004
 31
0.0
  0
LINE
  5
E0
  8
0
 10
-6.8090119999999992
 20
3.7145320000000002
 30
0.0
 11
-5.6421229999999998
 21
5.9000000000000004
 31
0.0
  0
ARC
  5
E1
  8
0
 10
-7.0
 20
3.816506
 30
0.0
 40
0.216506
 50
175.0
 51
355.0
  0
LINE
  5
E2
  8
0
 10
-7.0350509999999993
 20
5.9000000000000004
 30
0.0
 11
-7.215682000000001
 21
3.8353760000000001
 31
0.0
  0
LINE
  5
E3
  8
0
 10
-5.5350510000000002
 20
5.9000000000000004
 30
0.0
 11
-5.7156820000000002
 21
3.8353760000000001
 31
0.0
  0
LINE
  5
E4
  8
0
 10
-5.1003850000000002
 20
5.9000000000000004
 30
0.0
 11
-5.284317999999999
 21
3.7976369999999999
 31
0.0
  0
ARC
  5
E5
  8
0
 10
-5.5
 20
3.816506
 30
0.0
 40
0.216506
 50
175.0
 51
355.0
  0
LINE
  5
E6
  8
0
 10
-5.191978999999999
 20
4.8530749999999987
 30
0.0
 11
-4.632992999999999
 21
5.9000000000000004
 31
0.0
  0
LINE
  5
E7
  8
0
 10
-5.3090120000000001
 20
3.7145320000000002
 30
0.0
 11
-4.1421229999999998
 21
5.9000000000000004
 31
0.0
  0
ARC
  5
E8
  8
0
 10
-4.0
 20
3.816506
 30
0.0
 40
0.216506
 50
175.0
 51
355.0
  0
LINE
  5
E9
  8
0
 10
-4.0350510000000002
 20
5.9000000000000004
 30
0.0
 11
-4.2156820000000002
 21
3.8353760000000001
 31
0.0
  0
LINE
  5
EA
  8
0
 10
-3.5653890000000001
 20
6.2999999999999989
 30
0.0
 11
-3.784317999999999
 21
3.7976369999999999
 31
0.0
  0
ARC
  5
EB
  8
0
 10
-2.5
 20
3.816506
 30
0.0
 40
0.216506
 50
175.0
 51
355.0
  0
LINE
  5
EC
  8
0
 10
-2.5000559999999998
 20
6.2999999999999989
 30
0.0
 11
-2.7156820000000002
 21
3.8353760000000001
 31
0.0
  0
LINE
  5
ED
  8
0
 10
-2.0653890000000001
 20
6.2999999999999989
 30
0.0
 11
-2.284317999999999
 21
3.7976369999999999
 31
0.0
  0
ARC
  5
EE
  8
0
 10
-1.0
 20
3.816506
 30
0.0
 40
0.216506
 50
175.0
 51
355.0
  0
LINE
  5
EF
  8
0
 10
-1.0000560000000001
 20
6.2999999999999989
 30
0.0
 11
-1.215681999999999
 21
3.8353760000000001
 31
0.0
  0
LINE
  5
F0
  8
0
 10
-0.5653890000000001
 20
6.2999999999999989
 30
0.0
 11
-0.7843180000000001
 21
3.7976369999999999
 31
0.0
  0
ARC
  5
F1
  8
0
 10
5.2850000000000001
 20
0.0
 30
0.0
 40
0.215
 50
270.0
 51
90.0
  0
LINE
  5
F2
  8
0
 10
3.5935739999999989
 20
-0.215
 30
0.0
 11
5.2850000000000001
 21
-0.215
 31
0.0
  0
LINE
  5
F3
  8
0
 10
3.5935739999999989
 20
0.215
 30
0.0
 11
5.2850000000000001
 21
0.215
 31
0.0
  0
LINE
  5
F4
  8
0
 10
3.1982459999999988
 20
1.6526419999999991
 30
0.0
 11
4.9015389999999988
 21
2.2060749999999989
 31
0.0
  0
LINE
  5
F5
  8
0
 10
3.373275
 20
1.257382999999999
 30
0.0
 11
5.0344169999999986
 21
1.7971209999999991
 31
0.0
  0
ARC
  5
F6
  8
0
 10
4.9679779999999987
 20
2.0015979999999991
 30
0.0
 40
0.215
 50
288.0
 51
108.0
  0
LINE
  5
F7
  8
0
 10
2.2783370000000001
 20
2.7873250000000001
 30
0.0
 11
3.9215699999999991
 21
3.9812050000000001
 31
0.0
  0
LINE
  5
F8
  8
0
 10
2.6002610000000002
 20
2.4897079999999998
 30
0.0
 11
4.1743180000000004
 21
3.6333269999999991
 31
0.0
  0
ARC
  5
F9
  8
0
 10
4.0479440000000002
 20
3.8072659999999998
 30
0.0
 40
0.215
 50
306.0
 51
126.0
  0
LINE
  5
FA
  8
0
 10
1.0448949999999999
 20
3.4450249999999989
 30
0.0
 11
2.4410199999999991
 21
5.3666260000000001
 31
0.0
  0
LINE
  5
FB
  8
0
 10
1.4632099999999999
 20
3.289226999999999
 30
0.0
 11
2.7888969999999991
 21
5.1138779999999988
 31
0.0
  0
ARC
  5
FC
  8
0
 10
2.6149580000000001
 20
5.240251999999999
 30
0.0
 40
0.215
 50
324.0
 51
144.0
  0
LINE
  5
FD
  8
0
 10
0.001323
 20
3.7582049999999998
 30
0.0
 11
0.764595
 21
6.1073149999999989
 31
0.0
  0
LINE
  5
FE
  8
0
 10
0.4102770000000001
 20
3.6253279999999992
 30
0.0
 11
1.1735489999999991
 21
5.9744380000000001
 31
0.0
  0
ARC
  5
FF
  8
0
 10
0.9690719999999998
 20
6.040875999999999
 30
0.0
 40
0.215
 50
342.0
 51
162.0
  0
ARC
  5
100
  8
0
 10
0.2058
 20
3.691767
 30
0.0
 40
0.215
 50
328.347306
 51
342.0
  0
ARC
  5
101
  8
0
 10
-0.784373
 20
6.2811300000000001
 30
0.0
 40
0.216506
 50
355.0
 51
175.0
  0
ARC
  5
102
  8
0
 10
-2.2843729999999991
 20
6.2811300000000001
 30
0.0
 40
0.216506
 50
355.0
 51
175.0
  0
ARC
  5
103
  8
0
 10
-3.784373
 20
6.2811300000000001
 30
0.0
 40
0.216506
 50
355.0
 51
94.139002000000005
  0
LINE
  5
104
  8
0
 10
-3.713503999999999
 20
4.607041999999999
 30
0.0
 11
-2.4620669999999989
 21
6.4048230000000004
 31
0.0
  0
LINE
  5
105
  8
0
 10
-3.8223059999999989
 20
3.6928139999999989
 30
0.0
 11
-2.5708700000000002
 21
5.4905939999999998
 31
0.0
  0
LINE
  5
106
  8
0
 10
-2.3223060000000002
 20
3.6928139999999989
 30
0.0
 11
-1.0708699999999991
 21
5.4905939999999998
 31
0.0
  0
LINE
  5
107
  8
0
 10
-2.213503999999999
 20
4.607041999999999
 30
0.0
 11
-0.962067
 21
6.4048230000000004
 31
0.0
  0
LINE
  5
108
  8
0
 10
-0.8378870000000001
 20
3.672998999999999
 30
0.0
 11
0.4442370000000001
 21
5.1213559999999987
 31
0.0
  0
LINE
  5
109
  8
0
 10
-0.7271200000000001
 20
4.4514050000000003
 30
0.0
 11
0.8069589999999999
 21
6.1843830000000004
 31
0.0
  0
LINE
  5
10A
  8
0
 10
0.424396
 20
3.5748969999999991
 30
0.0
 11
1.765552
 21
4.4369249999999987
 31
0.0
  0
LINE
  5
10B
  8
0
 10
0.5972380000000001
 20
4.200734999999999
 30
0.0
 11
2.4978950000000002
 21
5.4223809999999988
 31
0.0
  0
LINE
  5
10C
  8
0
 10
1.7628159999999991
 20
3.1388660000000002
 30
0.0
 11
3.1312700000000002
 21
3.407017999999999
 31
0.0
  0
LINE
  5
10D
  8
0
 10
1.659899999999999
 20
3.5599470000000002
 30
0.0
 11
4.0063110000000002
 21
4.0197320000000003
 31
0.0
  0
LINE
  5
10E
  8
0
 10
2.9764909999999989
 20
2.0249700000000002
 30
0.0
 11
3.9724859999999991
 21
1.9042069999999991
 31
0.0
  0
LINE
  5
10F
  8
0
 10
2.620387
 20
2.5043299999999991
 30
0.0
 11
4.9940379999999989
 21
2.2165300000000001
 31
0.0
  0
LINE
  5
110
  8
0
 10
3.5554510000000001
 20
0.564596
 30
0.0
 11
4.308135
 21
0.215
 31
0.0
  0
LINE
  5
111
  8
0
 10
3.4273319999999989
 20
1.1015429999999991
 30
0.0
 11
5.3762019999999993
 21
0.19636
 31
0.0
  0
ARC
  5
112
  8
0
 10
0.2058
 20
3.691767
 30
0.0
 40
0.215
 50
162.0
 51
205.27132
  0
ARC
  5
113
  8
0
 10
0.2058
 20
-3.691767
 30
0.0
 40
0.215
 50
154.72868
 51
198.0
  0
LINE
  5
114
  8
0
 10
3.4273319999999989
 20
-1.1015429999999991
 30
0.0
 11
5.3762019999999993
 21
-0.19636
 31
0.0
  0
LINE
  5
115
  8
0
 10
3.5554510000000001
 20
-0.564596
 30
0.0
 11
4.308135
 21
-0.215
 31
0.0
  0
LINE
  5
116
  8
0
 10
2.620387
 20
-2.5043299999999991
 30
0.0
 11
4.9940379999999989
 21
-2.2165300000000001
 31
0.0
  0
LINE
  5
117
  8
0
 10
2.9764909999999989
 20
-2.0249700000000002
 30
0.0
 11
3.9724859999999991
 21
-1.9042069999999991
 31
0.0
  0
LINE
  5
118
  8
0
 10
1.659899999999999
 20
-3.5599470000000002
 30
0.0
 11
4.0063110000000002
 21
-4.0197320000000003
 31
0.0
  0
LINE
  5
119
  8
0
 10
1.7628159999999991
 20
-3.1388660000000002
 30
0.0
 11
3.1312700000000002
 21
-3.407017999999999
 31
0.0
  0
LINE
  5
11A
  8
0
 10
0.5972380000000001
 20
-4.200734999999999
 30
0.0
 11
2.4978950000000002
 21
-5.4223809999999988
 31
0.0
  0
LINE
  5
11B
  8
0
 10
0.424396
 20
-3.5748969999999991
 30
0.0
 11
1.765552
 21
-4.4369249999999987
 31
0.0
  0
LINE
  5
11C
  8
0
 10
-0.7271200000000001
 20
-4.4514050000000003
 30
0.0
 11
0.8069589999999999
 21
-6.1843830000000004
 31
0.0
  0
LINE
  5
11D
  8
0
 10
-0.8378870000000001
 20
-3.672998999999999
 30
0.0
 11
0.4442370000000001
 21
-5.1213559999999987
 31
0.0
  0
LINE
  5
11E
  8
0
 10
-2.213503999999999
 20
-4.607041999999999
 30
0.0
 11
-0.962067
 21
-6.4048230000000004
 31
0.0
  0
LINE
  5
11F
  8
0
 10
-2.3223060000000002
 20
-3.6928139999999989
 30
0.0
 11
-1.0708699999999991
 21
-5.4905939999999998
 31
0.0
  0
LINE
  5
120
  8
0
 10
-3.8223059999999989
 20
-3.6928139999999989
 30
0.0
 11
-2.5708700000000002
 21
-5.4905939999999998
 31
0.0
  0
LINE
  5
121
  8
0
 10
-3.713503999999999
 20
-4.607041999999999
 30
0.0
 11
-2.4620669999999989
 21
-6.4048230000000004
 31
0.0
  0
ARC
  5
122
  8
0
 10
-3.784373
 20
-6.2811300000000001
 30
0.0
 40
0.216506
 50
265.85530399999999
 51
5.0
  0
ARC
  5
123
  8
0
 10
-2.2843729999999991
 20
-6.2811300000000001
 30
0.0
 40
0.216506
 50
185.0
 51
5.0
  0
ARC
  5
124
  8
0
 10
-0.784373
 20
-6.2811300000000001
 30
0.0
 40
0.216506
 50
185.0
 51
5.0
  0
ARC
  5
125
  8
0
 10
0.2058
 20
-3.691767
 30
0.0
 40
0.215
 50
18.0
 51
31.652694
  0
ARC
  5
126
  8
0
 10
0.9690719999999998
 20
-6.040875999999999
 30
0.0
 40
0.215
 50
198.0
 51
18.0
  0
LINE
  5
127
  8
0
 10
0.4102770000000001
 20
-3.6253279999999992
 30
0.0
 11
1.1735489999999991
 21
-5.9744380000000001
 31
0.0
  0
LINE
  5
128
  8
0
 10
0.001323
 20
-3.7582049999999998
 30
0.0
 11
0.764595
 21
-6.1073149999999989
 31
0.0
  0
ARC
  5
129
  8
0
 10
2.6149580000000001
 20
-5.240251999999999
 30
0.0
 40
0.215
 50
216.0
 51
36.0
  0
LINE
  5
12A
  8
0
 10
1.4632099999999999
 20
-3.289226999999999
 30
0.0
 11
2.7888969999999991
 21
-5.1138779999999988
 31
0.0
  0
LINE
  5
12B
  8
0
 10
1.0448949999999999
 20
-3.4450249999999989
 30
0.0
 11
2.4410199999999991
 21
-5.3666260000000001
 31
0.0
  0
ARC
  5
12C
  8
0
 10
4.0479440000000002
 20
-3.8072659999999998
 30
0.0
 40
0.215
 50
234.0
 51
54.0
  0
LINE
  5
12D
  8
0
 10
2.6002610000000002
 20
-2.4897079999999998
 30
0.0
 11
4.1743180000000004
 21
-3.6333269999999991
 31
0.0
  0
LINE
  5
12E
  8
0
 10
2.2783370000000001
 20
-2.7873250000000001
 30
0.0
 11
3.9215699999999991
 21
-3.9812050000000001
 31
0.0
  0
ARC
  5
12F
  8
0
 10
4.9679779999999987
 20
-2.0015979999999991
 30
0.0
 40
0.215
 50
252.0
 51
72.0
  0
LINE
  5
130
  8
0
 10
3.373275
 20
-1.257382999999999
 30
0.0
 11
5.0344169999999986
 21
-1.7971209999999991
 31
0.0
  0
LINE
  5
131
  8
0
 10
3.1982459999999988
 20
-1.6526419999999991
 30
0.0
 11
4.9015389999999988
 21
-2.2060749999999989
 31
0.0
  0
LINE
  5
132
  8
0
 10
3.5935739999999989
 20
-0.215
 30
0.0
 11
5.2850000000000001
 21
-0.215
 31
0.0
  0
LINE
  5
133
  8
0
 10
3.5935739999999989
 20
0.215
 30
0.0
 11
5.2850000000000001
 21
0.215
 31
0.0
  0
ARC
  5
134
  8
0
 10
5.2850000000000001
 20
0.0
 30
0.0
 40
0.215
 50
270.0
 51
90.0
  0
LINE
  5
135
  8
0
 10
-0.5653890000000001
 20
-6.2999999999999989
 30
0.0
 11
-0.7843180000000001
 21
-3.7976369999999999
 31
0.0
  0
LINE
  5
136
  8
0
 10
-1.0000560000000001
 20
-6.2999999999999989
 30
0.0
 11
-1.215681999999999
 21
-3.8353760000000001
 31
0.0
  0
ARC
  5
137
  8
0
 10
-1.0
 20
-3.816506
 30
0.0
 40
0.216506
 50
5.0
 51
185.0
  0
LINE
  5
138
  8
0
 10
-2.0653890000000001
 20
-6.2999999999999989
 30
0.0
 11
-2.284317999999999
 21
-3.7976369999999999
 31
0.0
  0
LINE
  5
139
  8
0
 10
-2.5000559999999998
 20
-6.2999999999999989
 30
0.0
 11
-2.7156820000000002
 21
-3.8353760000000001
 31
0.0
  0
ARC
  5
13A
  8
0
 10
-2.5
 20
-3.816506
 30
0.0
 40
0.216506
 50
5.0
 51
185.0
  0
LINE
  5
13B
  8
0
 10
-3.5653890000000001
 20
-6.2999999999999989
 30
0.0
 11
-3.784317999999999
 21
-3.7976369999999999
 31
0.0
  0
LINE
  5
13C
  8
0
 10
-4.0000559999999989
 20
-6.2999999999999989
 30
0.0
 11
-4.2156820000000002
 21
-3.8353760000000001
 31
0.0
  0
ARC
  5
13D
  8
0
 10
-4.0
 20
-3.816506
 30
0.0
 40
0.216506
 50
5.0
 51
185.0
  0
LINE
  5
13E
  8
0
 10
-5.3090120000000001
 20
-3.7145320000000002
 30
0.0
 11
-4.0140690000000001
 21
-6.1398339999999987
 31
0.0
  0
LINE
  5
13F
  8
0
 10
-5.191978999999999
 20
-4.8530749999999987
 30
0.0
 11
-4.4194209999999989
 21
-6.2999999999999989
 31
0.0
  0
ARC
  5
140
  8
0
 10
-5.5
 20
-3.816506
 30
0.0
 40
0.216506
 50
5.0
 51
185.0
  0
LINE
  5
141
  8
0
 10
-5.0653889999999988
 20
-6.2999999999999989
 30
0.0
 11
-5.284317999999999
 21
-3.7976369999999999
 31
0.0
  0
LINE
  5
142
  8
0
 10
-5.5000559999999989
 20
-6.2999999999999989
 30
0.0
 11
-5.7156820000000002
 21
-3.8353760000000001
 31
0.0
  0
LINE
  5
143
  8
0
 10
-7.0000559999999989
 20
-6.2999999999999989
 30
0.0
 11
-7.215682000000001
 21
-3.8353760000000001
 31
0.0
  0
ARC
  5
144
  8
0
 10
-7.0
 20
-3.816506
 30
0.0
 40
0.216506
 50
5.0
 51
185.0
  0
LINE
  5
145
  8
0
 10
-6.8090119999999992
 20
-3.7145320000000002
 30
0.0
 11
-5.5140690000000001
 21
-6.1398339999999987
 31
0.0
  0
LINE
  5
146
  8
0
 10
-6.691978999999999
 20
-4.8530749999999987
 30
0.0
 11
-5.9194209999999989
 21
-6.2999999999999989
 31
0.0
  0
LINE
  5
147
  8
0
 10
-6.5653889999999988
 20
-6.2999999999999989
 30
0.0
 11
-6.7843179999999981
 21
-3.7976369999999999
 31
0.0
  0
LINE
  5
148
  8
0
 10
-8.5000559999999972
 20
-6.2999999999999989
 30
0.0
 11
-8.715682000000001
 21
-3.8353760000000001
 31
0.0
  0
ARC
  5
149
  8
0
 10
-8.5
 20
-3.816506
 30
0.0
 40
0.216506
 50
5.0
 51
185.0
  0
LINE
  5
14A
  8
0
 10
-8.3090119999999992
 20
-3.7145320000000002
 30
0.0
 11
-7.0140690000000001
 21
-6.1398339999999987
 31
0.0
  0
LINE
  5
14B
  8
0
 10
-8.1919789999999981
 20
-4.8530749999999987
 30
0.0
 11
-7.4194209999999998
 21
-6.2999999999999989
 31
0.0
  0
LINE
  5
14C
  8
0
 10
-8.0653889999999997
 20
-6.2999999999999989
 30
0.0
 11
-8.2843179999999972
 21
-3.7976369999999999
 31
0.0
  0
LINE
  5
14D
  8
0
 10
-10.000056000000001
 20
-6.2999999999999989
 30
0.0
 11
-10.215681999999999
 21
-3.8353760000000001
 31
0.0
  0
ARC
  5
14E
  8
0
 10
-10.0
 20
-3.816506
 30
0.0
 40
0.216506
 50
5.0
 51
185.0
  0
LINE
  5
14F
  8
0
 10
-9.8090119999999992
 20
-3.7145320000000002
 30
0.0
 11
-8.5140689999999992
 21
-6.1398339999999987
 31
0.0
  0
LINE
  5
150
  8
0
 10
-9.6919789999999981
 20
-4.8530749999999987
 30
0.0
 11
-8.9194209999999998
 21
-6.2999999999999989
 31
0.0
  0
LINE
  5
151
  8
0
 10
-9.5653889999999997
 20
-6.2999999999999989
 30
0.0
 11
-9.7843179999999972
 21
-3.7976369999999999
 31
0.0
  0
LINE
  5
152
  8
0
 10
-11.309011999999999
 20
-3.7145320000000002
 30
0.0
 11
-10.014068999999999
 21
-6.1398339999999987
 31
0.0
  0
LINE
  5
153
  8
0
 10
-11.191979
 20
-4.8530749999999987
 30
0.0
 11
-10.419421
 21
-6.2999999999999989
 31
0.0
  0
ARC
  5
154
  8
0
 10
-11.5
 20
-3.816506
 30
0.0
 40
0.216506
 50
5.0
 51
185.0
  0
LINE
  5
155
  8
0
 10
-11.065389
 20
-6.2999999999999989
 30
0.0
 11
-11.284318000000001
 21
-3.7976369999999999
 31
0.0
  0
LINE
  5
156
  8
0
 10
-11.500056000000001
 20
-6.2999999999999989
 30
0.0
 11
-11.715681999999999
 21
-3.8353760000000001
 31
0.0
  0
ARC
  5
157
  8
0
 10
-24.0
 20
6.2999999999999989
 30
0.0
 40
0.2
 50
180.0
 51
270.0
  0
ARC
  5
158
  8
0
 10
-14.0
 20
-3.816506
 30
0.0
 40
0.216506
 50
0.0
 51
180.0
  0
LINE
  5
159
  8
0
 10
-13.783493999999999
 20
-6.2999999999999989
 30
0.0
 11
-13.783493999999999
 21
-3.816506
 31
0.0
  0
LINE
  5
15A
  8
0
 10
-13.000056000000001
 20
-6.2999999999999989
 30
0.0
 11
-13.215681999999999
 21
-3.8353760000000001
 31
0.0
  0
LINE
  5
15B
  8
0
 10
-12.565389
 20
-6.2999999999999989
 30
0.0
 11
-12.784318000000001
 21
-3.7976369999999999
 31
0.0
  0
ARC
  5
15C
  8
0
 10
-13.0
 20
-3.816506
 30
0.0
 40
0.216506
 50
5.0
 51
185.0
  0
LINE
  5
15D
  8
0
 10
-12.691979
 20
-4.8530749999999987
 30
0.0
 11
-11.919421
 21
-6.2999999999999989
 31
0.0
  0
LINE
  5
15E
  8
0
 10
-12.809011999999999
 20
-3.7145320000000002
 30
0.0
 11
-11.514068999999999
 21
-6.1398339999999987
 31
0.0
  0
LINE
  5
15F
  8
0
 10
-13.666506
 20
-6.2999999999999989
 30
0.0
 11
-13.666506
 21
-3.816506
 31
0.0
  0
LINE
  5
160
  8
0
 10
-13.233494
 20
-6.2999999999999989
 30
0.0
 11
-13.233494
 21
-3.816506
 31
0.0
  0
ARC
  5
161
  8
0
 10
-13.449999999999999
 20
-3.816506
 30
0.0
 40
0.216506
 50
0.0
 51
180.0
  0
LINE
  5
162
  8
0
 10
-13.019590000000001
 20
-6.2999999999999989
 30
0.0
 11
-13.233494
 21
-5.4881029999999988
 31
0.0
  0
LINE
  5
163
  8
0
 10
-13.695892000000001
 20
-6.2999999999999989
 30
0.0
 11
-13.783493999999999
 21
-5.9674959999999988
 31
0.0
  0
ENDBLK
  5
164
  8
0
  0
ENDSEC
  0
SECTION
  2
ENTITIES
  0
TEXT
  5
6F4
  8
0
 62
     3
 10
0.0
 20
0.0
 30
0.0
 40
10.0
  1
MR-P-J1
  7
STANDARD1
  0
LINE
  5
AA0
  8
0
 10
47.39999999999997
 20
48.092886383400042
 30
0.0
 11
47.39999999999997
 21
47.192886383400058
 31
0.0
  0
LINE
  5
AA1
  8
0
 10
56.600000000000001
 20
47.192886383400058
 30
0.0
 11
56.600000000000001
 21
48.092886383400042
 31
0.0
  0
ARC
  5
AA2
  8
0
 10
48.25
 20
42.692886383400072
 30
0.0
 40
0.5
 50
180.0
 51
270.0
  0
ARC
  5
AA3
  8
0
 10
55.75
 20
42.692886383400072
 30
0.0
 40
0.5
 50
270.0
 51
0.0
  0
LINE
  5
AA4
  8
0
 10
47.75
 20
47.192886383400058
 30
0.0
 11
47.75
 21
42.692886383400072
 31
0.0
  0
LINE
  5
AA5
  8
0
 10
56.25
 20
42.692886383400072
 30
0.0
 11
56.25
 21
47.192886383400058
 31
0.0
  0
ARC
  5
AA6
  8
0
 10
42.199650901499972
 20
41.068891584000049
 30
0.0
 40
1.9999999999999709
 50
321.21995908029947
 51
0.0
  0
LINE
  5
AA7
  8
0
 10
44.199650901499979
 20
46.592886383400042
 30
0.0
 11
44.199650901499979
 21
41.068891584000049
 31
0.0
  0
ARC
  5
AA8
  8
0
 10
46.199650901499979
 20
46.592886383400042
 30
0.0
 40
2.000000000000056
 50
90.0
 51
180.0
  0
ARC
  5
AA9
  8
0
 10
57.80034909859998
 20
46.592886383400042
 30
0.0
 40
2.0
 50
0.0
 51
90.0
  0
LINE
  5
AAA
  8
0
 10
59.80034909859998
 20
41.068891584000049
 30
0.0
 11
59.80034909859998
 21
46.592886383400042
 31
0.0
  0
ARC
  5
AAB
  8
0
 10
61.80034909859998
 20
41.068891584000049
 30
0.0
 40
2.0000000000000022
 50
180.0
 51
218.78004091970021
  0
ARC
  5
AAC
  8
0
 10
54.984711689299992
 20
35.592886383400057
 30
0.0
 40
6.7429712485244977
 50
310.75411851659908
 51
38.780040919700212
  0
ARC
  5
AAD
  8
0
 10
58.080990698099981
 20
32.000000000000057
 30
0.0
 40
2.0
 50
270.0
 51
310.75411851659908
  0
ARC
  5
AAE
  8
0
 10
58.080990698099981
 20
32.000000000000057
 30
0.0
 40
1.500000000000004
 50
270.0
 51
310.75411851659908
  0
ARC
  5
AAF
  8
0
 10
54.984711689299992
 20
35.592886383400057
 30
0.0
 40
6.2429712485245066
 50
310.75411851659908
 51
38.780040919700212
  0
ARC
  5
AB0
  8
0
 10
61.80034909859998
 20
41.068891584000049
 30
0.0
 40
2.4999999999999911
 50
180.0
 51
218.78004091970021
  0
LINE
  5
AB1
  8
0
 10
59.30034909859998
 20
46.592886383400042
 30
0.0
 11
59.30034909859998
 21
41.068891584000049
 31
0.0
  0
ARC
  5
AB2
  8
0
 10
57.80034909859998
 20
46.592886383400042
 30
0.0
 40
1.4999999999999849
 50
0.0
 51
90.0
  0
LINE
  5
AB3
  8
0
 10
46.199650901499979
 20
48.092886383400042
 30
0.0
 11
57.80034909859998
 21
48.092886383400042
 31
0.0
  0
ARC
  5
AB4
  8
0
 10
46.199650901499979
 20
46.592886383400042
 30
0.0
 40
1.5000000000000431
 50
90.0
 51
180.0
  0
LINE
  5
AB5
  8
0
 10
44.699650901499972
 20
41.068891584000049
 30
0.0
 11
44.699650901499972
 21
46.592886383400042
 31
0.0
  0
ARC
  5
AB6
  8
0
 10
42.199650901499972
 20
41.068891584000049
 30
0.0
 40
2.4999999999999849
 50
321.21995908029947
 51
0.0
  0
ARC
  5
AB7
  8
0
 10
49.015288310799967
 20
35.592886383400057
 30
0.0
 40
6.2429712485244719
 50
141.21995908029979
 51
229.24588148340081
  0
ARC
  5
AB8
  8
0
 10
45.919009301999971
 20
32.000000000000057
 30
0.0
 40
1.5000000000000451
 50
229.24588148340081
 51
270.0
  0
LINE
  5
AB9
  8
0
 10
50.319524912899958
 20
30.50000000000006
 30
0.0
 11
45.919009301999971
 21
30.50000000000006
 31
0.0
  0
LINE
  5
ABA
  8
0
 10
50.319524912899958
 20
30.50000000000006
 30
0.0
 11
50.319524912899958
 21
30.00000000000006
 31
0.0
  0
LINE
  5
ABB
  8
0
 10
45.919009301999971
 20
30.00000000000006
 30
0.0
 11
50.319524912899958
 21
30.00000000000006
 31
0.0
  0
ARC
  5
ABC
  8
0
 10
45.919009301999971
 20
32.000000000000057
 30
0.0
 40
2.000000000000056
 50
229.24588148340081
 51
270.0
  0
ARC
  5
ABD
  8
0
 10
49.015288310799967
 20
35.592886383400057
 30
0.0
 40
6.7429712485244861
 50
141.21995908029979
 51
229.24588148340081
  0
LINE
  5
ABE
  8
0
 10
58.080990698099981
 20
30.50000000000006
 30
0.0
 11
53.680475087199959
 21
30.50000000000006
 31
0.0
  0
LINE
  5
ABF
  8
0
 10
53.680475087199959
 20
30.00000000000006
 30
0.0
 11
53.680475087199959
 21
30.50000000000006
 31
0.0
  0
LINE
  5
AC0
  8
0
 10
53.680475087199959
 20
30.00000000000006
 30
0.0
 11
58.080990698099981
 21
30.00000000000006
 31
0.0
  0
LINE
  5
AC1
  8
0
 10
30.0
 20
56.592886383400042
 30
0.0
 11
30.0
 21
48.592886383400042
 31
0.0
  0
LINE
  5
AC2
  8
0
 10
74.0
 20
48.592886383400042
 30
0.0
 11
74.0
 21
56.592886383400042
 31
0.0
  0
LINE
  5
AC3
  8
0
 10
74.0
 20
56.592886383400042
 30
0.0
 11
30.0
 21
56.592886383400042
 31
0.0
  0
LINE
  5
AC4
  8
0
 10
30.0
 20
48.592886383400042
 30
0.0
 11
74.0
 21
48.592886383400042
 31
0.0
  0
POLYLINE
  5
AC5
  8
0
 10
51.10073144999658
 20
48.092886383408469
 30
0.0
 66
     1
 70
     8
  0
VERTEX
  8
0
  5
CA4
 10
51.1007
 20
48.0929
 30
0.000000
  70
    32
  0
VERTEX
  8
0
  5
CA5
 10
51.1047
 20
48.0859
 30
0.000000
  70
    32
  0
VERTEX
  8
0
  5
CA6
 10
51.1087
 20
48.0789
 30
0.000000
  70
    32
  0
VERTEX
  8
0
  5
CA7
 10
51.1127
 20
48.0719
 30
0.000000
  70
    32
  0
VERTEX
  8
0
  5
CA8
 10
51.1168
 20
48.0649
 30
0.000000
  70
    32
  0
VERTEX
  8
0
  5
CA9
 10
51.1208
 20
48.0580
 30
0.000000
  70
    32
  0
VERTEX
  8
0
  5
CAA
 10
51.1248
 20
48.0510
 30
0.000000
  70
    32
  0
VERTEX
  8
0
  5
CAB
 10
51.1288
 20
48.0440
 30
0.000000
  70
    32
  0
VERTEX
  8
0
  5
CAC
 10
51.1328
 20
48.0370
 30
0.000000
  70
    32
  0
VERTEX
  8
0
  5
CAD
 10
51.1368
 20
48.0300
 30
0.000000
  70
    32
  0
VERTEX
  8
0
  5
CAE
 10
51.1408
 20
48.0230
 30
0.000000
  70
    32
  0
VERTEX
  8
0
  5
CAF
 10
51.1448
 20
48.0160
 30
0.000000
  70
    32
  0
VERTEX
  8
0
  5
CB0
 10
51.1488
 20
48.0090
 30
0.000000
  70
    32
  0
VERTEX
  8
0
  5
CB1
 10
51.1528
 20
48.0020
 30
0.000000
  70
    32
  0
VERTEX
  8
0
  5
CB2
 10
51.1568
 20
47.9950
 30
0.000000
  70
    32
  0
VERTEX
  8
0
  5
CB3
 10
51.1609
 20
47.9880
 30
0.000000
  70
    32
  0
VERTEX
  8
0
  5
CB4
 10
51.1649
 20
47.9810
 30
0.000000
  70
    32
  0
VERTEX
  8
0
  5
CB5
 10
51.1689
 20
47.9740
 30
0.000000
  70
    32
  0
VERTEX
  8
0
  5
CB6
 10
51.1729
 20
47.9670
 30
0.000000
  70
    32
  0
VERTEX
  8
0
  5
CB7
 10
51.1769
 20
47.9600
 30
0.000000
  70
    32
  0
VERTEX
  8
0
  5
CB8
 10
51.1809
 20
47.9530
 30
0.000000
  70
    32
  0
VERTEX
  8
0
  5
CB9
 10
51.1850
 20
47.9460
 30
0.000000
  70
    32
  0
VERTEX
  8
0
  5
CBA
 10
51.1890
 20
47.9390
 30
0.000000
  70
    32
  0
VERTEX
  8
0
  5
CBB
 10
51.1930
 20
47.9320
 30
0.000000
  70
    32
  0
VERTEX
  8
0
  5
CBC
 10
51.1970
 20
47.9250
 30
0.000000
  70
    32
  0
VERTEX
  8
0
  5
CBD
 10
51.2010
 20
47.9180
 30
0.000000
  70
    32
  0
VERTEX
  8
0
  5
CBE
 10
51.2051
 20
47.9110
 30
0.000000
  70
    32
  0
VERTEX
  8
0
  5
CBF
 10
51.2091
 20
47.9040
 30
0.000000
  70
    32
  0
VERTEX
  8
0
  5
CC0
 10
51.2131
 20
47.8970
 30
0.000000
  70
    32
  0
VERTEX
  8
0
  5
CC1
 10
51.2171
 20
47.8900
 30
0.000000
  70
    32
  0
VERTEX
  8
0
  5
CC2
 10
51.2211
 20
47.8830
 30
0.000000
  70
    32
  0
VERTEX
  8
0
  5
CC3
 10
51.2252
 20
47.8760
 30
0.000000
  70
    32
  0
VERTEX
  8
0
  5
CC4
 10
51.2292
 20
47.8689
 30
0.000000
  70
    32
  0
VERTEX
  8
0
  5
CC5
 10
51.2332
 20
47.8619
 30
0.000000
  70
    32
  0
VERTEX
  8
0
  5
CC6
 10
51.2372
 20
47.8549
 30
0.000000
  70
    32
  0
VERTEX
  8
0
  5
CC7
 10
51.2413
 20
47.8479
 30
0.000000
  70
    32
  0
VERTEX
  8
0
  5
CC8
 10
51.2453
 20
47.8409
 30
0.000000
  70
    32
  0
VERTEX
  8
0
  5
CC9
 10
51.2493
 20
47.8339
 30
0.000000
  70
    32
  0
VERTEX
  8
0
  5
CCA
 10
51.2533
 20
47.8269
 30
0.000000
  70
    32
  0
VERTEX
  8
0
  5
CCB
 10
51.2574
 20
47.8198
 30
0.000000
  70
    32
  0
VERTEX
  8
0
  5
CCC
 10
51.2614
 20
47.8128
 30
0.000000
  70
    32
  0
VERTEX
  8
0
  5
CCD
 10
51.2654
 20
47.8058
 30
0.000000
  70
    32
  0
VERTEX
  8
0
  5
CCE
 10
51.2695
 20
47.7988
 30
0.000000
  70
    32
  0
VERTEX
  8
0
  5
CCF
 10
51.2735
 20
47.7918
 30
0.000000
  70
    32
  0
VERTEX
  8
0
  5
CD0
 10
51.2775
 20
47.7847
 30
0.000000
  70
    32
  0
VERTEX
  8
0
  5
CD1
 10
51.2816
 20
47.7777
 30
0.000000
  70
    32
  0
VERTEX
  8
0
  5
CD2
 10
51.2856
 20
47.7707
 30
0.000000
  70
    32
  0
VERTEX
  8
0
  5
CD3
 10
51.2896
 20
47.7637
 30
0.000000
  70
    32
  0
VERTEX
  8
0
  5
CD4
 10
51.2937
 20
47.7566
 30
0.000000
  70
    32
  0
VERTEX
  8
0
  5
CD5
 10
51.2977
 20
47.7496
 30
0.000000
  70
    32
  0
VERTEX
  8
0
  5
CD6
 10
51.3017
 20
47.7426
 30
0.000000
  70
    32
  0
VERTEX
  8
0
  5
CD7
 10
51.3058
 20
47.7356
 30
0.000000
  70
    32
  0
VERTEX
  8
0
  5
CD8
 10
51.3098
 20
47.7285
 30
0.000000
  70
    32
  0
VERTEX
  8
0
  5
CD9
 10
51.3138
 20
47.7215
 30
0.000000
  70
    32
  0
VERTEX
  8
0
  5
CDA
 10
51.3179
 20
47.7145
 30
0.000000
  70
    32
  0
VERTEX
  8
0
  5
CDB
 10
51.3219
 20
47.7075
 30
0.000000
  70
    32
  0
VERTEX
  8
0
  5
CDC
 10
51.3259
 20
47.7004
 30
0.000000
  70
    32
  0
VERTEX
  8
0
  5
CDD
 10
51.3300
 20
47.6934
 30
0.000000
  70
    32
  0
VERTEX
  8
0
  5
CDE
 10
51.3340
 20
47.6864
 30
0.000000
  70
    32
  0
VERTEX
  8
0
  5
CDF
 10
51.3381
 20
47.6793
 30
0.000000
  70
    32
  0
VERTEX
  8
0
  5
CE0
 10
51.3421
 20
47.6723
 30
0.000000
  70
    32
  0
VERTEX
  8
0
  5
CE1
 10
51.3461
 20
47.6653
 30
0.000000
  70
    32
  0
VERTEX
  8
0
  5
CE2
 10
51.3502
 20
47.6582
 30
0.000000
  70
    32
  0
VERTEX
  8
0
  5
CE3
 10
51.3542
 20
47.6512
 30
0.000000
  70
    32
  0
VERTEX
  8
0
  5
CE4
 10
51.3583
 20
47.6442
 30
0.000000
  70
    32
  0
VERTEX
  8
0
  5
CE5
 10
51.3623
 20
47.6371
 30
0.000000
  70
    32
  0
VERTEX
  8
0
  5
CE6
 10
51.3663
 20
47.6301
 30
0.000000
  70
    32
  0
VERTEX
  8
0
  5
CE7
 10
51.3704
 20
47.6231
 30
0.000000
  70
    32
  0
VERTEX
  8
0
  5
CE8
 10
51.3744
 20
47.6160
 30
0.000000
  70
    32
  0
VERTEX
  8
0
  5
CE9
 10
51.3785
 20
47.6090
 30
0.000000
  70
    32
  0
VERTEX
  8
0
  5
CEA
 10
51.3825
 20
47.6020
 30
0.000000
  70
    32
  0
VERTEX
  8
0
  5
CEB
 10
51.3866
 20
47.5949
 30
0.000000
  70
    32
  0
VERTEX
  8
0
  5
CEC
 10
51.3906
 20
47.5879
 30
0.000000
  70
    32
  0
VERTEX
  8
0
  5
CED
 10
51.3947
 20
47.5808
 30
0.000000
  70
    32
  0
VERTEX
  8
0
  5
CEE
 10
51.3987
 20
47.5738
 30
0.000000
  70
    32
  0
VERTEX
  8
0
  5
CEF
 10
51.4028
 20
47.5668
 30
0.000000
  70
    32
  0
VERTEX
  8
0
  5
CF0
 10
51.4068
 20
47.5597
 30
0.000000
  70
    32
  0
VERTEX
  8
0
  5
CF1
 10
51.4109
 20
47.5527
 30
0.000000
  70
    32
  0
VERTEX
  8
0
  5
CF2
 10
51.4149
 20
47.5456
 30
0.000000
  70
    32
  0
VERTEX
  8
0
  5
CF3
 10
51.4190
 20
47.5386
 30
0.000000
  70
    32
  0
VERTEX
  8
0
  5
CF4
 10
51.4230
 20
47.5315
 30
0.000000
  70
    32
  0
VERTEX
  8
0
  5
CF5
 10
51.4271
 20
47.5245
 30
0.000000
  70
    32
  0
VERTEX
  8
0
  5
CF6
 10
51.4311
 20
47.5174
 30
0.000000
  70
    32
  0
VERTEX
  8
0
  5
CF7
 10
51.4352
 20
47.5104
 30
0.000000
  70
    32
  0
VERTEX
  8
0
  5
CF8
 10
51.4392
 20
47.5034
 30
0.000000
  70
    32
  0
VERTEX
  8
0
  5
CF9
 10
51.4433
 20
47.4963
 30
0.000000
  70
    32
  0
VERTEX
  8
0
  5
CFA
 10
51.4473
 20
47.4893
 30
0.000000
  70
    32
  0
VERTEX
  8
0
  5
CFB
 10
51.4514
 20
47.4822
 30
0.000000
  70
    32
  0
VERTEX
  8
0
  5
CFC
 10
51.4554
 20
47.4752
 30
0.000000
  70
    32
  0
VERTEX
  8
0
  5
CFD
 10
51.4595
 20
47.4681
 30
0.000000
  70
    32
  0
VERTEX
  8
0
  5
CFE
 10
51.4635
 20
47.4611
 30
0.000000
  70
    32
  0
VERTEX
  8
0
  5
CFF
 10
51.4676
 20
47.4540
 30
0.000000
  70
    32
  0
VERTEX
  8
0
  5
D00
 10
51.4716
 20
47.4470
 30
0.000000
  70
    32
  0
VERTEX
  8
0
  5
D01
 10
51.4757
 20
47.4399
 30
0.000000
  70
    32
  0
VERTEX
  8
0
  5
D02
 10
51.4797
 20
47.4329
 30
0.000000
  70
    32
  0
VERTEX
  8
0
  5
D03
 10
51.4838
 20
47.4258
 30
0.000000
  70
    32
  0
VERTEX
  8
0
  5
D04
 10
51.4879
 20
47.4188
 30
0.000000
  70
    32
  0
VERTEX
  8
0
  5
D05
 10
51.4919
 20
47.4117
 30
0.000000
  70
    32
  0
VERTEX
  8
0
  5
D06
 10
51.4960
 20
47.4047
 30
0.000000
  70
    32
  0
VERTEX
  8
0
  5
D07
 10
51.5000
 20
47.3976
 30
0.000000
  70
    32
  0
VERTEX
  8
0
  5
D08
 10
51.5041
 20
47.3905
 30
0.000000
  70
    32
  0
VERTEX
  8
0
  5
D09
 10
51.5081
 20
47.3835
 30
0.000000
  70
    32
  0
VERTEX
  8
0
  5
D0A
 10
51.5122
 20
47.3764
 30
0.000000
  70
    32
  0
VERTEX
  8
0
  5
D0B
 10
51.5163
 20
47.3694
 30
0.000000
  70
    32
  0
VERTEX
  8
0
  5
D0C
 10
51.5203
 20
47.3623
 30
0.000000
  70
    32
  0
VERTEX
  8
0
  5
D0D
 10
51.5244
 20
47.3553
 30
0.000000
  70
    32
  0
VERTEX
  8
0
  5
D0E
 10
51.5284
 20
47.3482
 30
0.000000
  70
    32
  0
VERTEX
  8
0
  5
D0F
 10
51.5325
 20
47.3412
 30
0.000000
  70
    32
  0
VERTEX
  8
0
  5
D10
 10
51.5366
 20
47.3341
 30
0.000000
  70
    32
  0
VERTEX
  8
0
  5
D11
 10
51.5406
 20
47.3270
 30
0.000000
  70
    32
  0
VERTEX
  8
0
  5
D12
 10
51.5447
 20
47.3200
 30
0.000000
  70
    32
  0
VERTEX
  8
0
  5
D13
 10
51.5488
 20
47.3129
 30
0.000000
  70
    32
  0
VERTEX
  8
0
  5
D14
 10
51.5528
 20
47.3059
 30
0.000000
  70
    32
  0
VERTEX
  8
0
  5
D15
 10
51.5569
 20
47.2988
 30
0.000000
  70
    32
  0
VERTEX
  8
0
  5
D16
 10
51.5609
 20
47.2918
 30
0.000000
  70
    32
  0
VERTEX
  8
0
  5
D17
 10
51.5650
 20
47.2847
 30
0.000000
  70
    32
  0
VERTEX
  8
0
  5
D18
 10
51.5691
 20
47.2776
 30
0.000000
  70
    32
  0
VERTEX
  8
0
  5
D19
 10
51.5731
 20
47.2706
 30
0.000000
  70
    32
  0
VERTEX
  8
0
  5
D1A
 10
51.5772
 20
47.2635
 30
0.000000
  70
    32
  0
VERTEX
  8
0
  5
D1B
 10
51.5813
 20
47.2564
 30
0.000000
  70
    32
  0
VERTEX
  8
0
  5
D1C
 10
51.5853
 20
47.2494
 30
0.000000
  70
    32
  0
VERTEX
  8
0
  5
D1D
 10
51.5894
 20
47.2423
 30
0.000000
  70
    32
  0
VERTEX
  8
0
  5
D1E
 10
51.5935
 20
47.2353
 30
0.000000
  70
    32
  0
VERTEX
  8
0
  5
D1F
 10
51.5975
 20
47.2282
 30
0.000000
  70
    32
  0
VERTEX
  8
0
  5
D20
 10
51.6016
 20
47.2211
 30
0.000000
  70
    32
  0
VERTEX
  8
0
  5
D21
 10
51.6057
 20
47.2141
 30
0.000000
  70
    32
  0
VERTEX
  8
0
  5
D22
 10
51.6097
 20
47.2070
 30
0.000000
  70
    32
  0
VERTEX
  8
0
  5
D23
 10
51.6138
 20
47.2000
 30
0.000000
  70
    32
  0
VERTEX
  8
0
  5
D24
 10
51.6179
 20
47.1929
 30
0.000000
  70
    32
  0
SEQEND
  8
0
  5
D25
  0
LINE
  5
AC7
  8
0
 10
56.600000000000001
 20
47.192886383400058
 30
0.0
 11
47.39999999999997
 21
47.192886383400058
 31
0.0
  0
POLYLINE
  5
AC8
  8
0
 10
51.498611049677564
 20
48.092886383380588
 30
0.0
 66
     1
 70
     8
  0
VERTEX
  8
0
  5
D26
 10
51.4986
 20
48.0929
 30
0.000000
  70
    32
  0
VERTEX
  8
0
  5
D27
 10
51.5026
 20
48.0859
 30
0.000000
  70
    32
  0
VERTEX
  8
0
  5
D28
 10
51.5067
 20
48.0788
 30
0.000000
  70
    32
  0
VERTEX
  8
0
  5
D29
 10
51.5107
 20
48.0718
 30
0.000000
  70
    32
  0
VERTEX
  8
0
  5
D2A
 10
51.5148
 20
48.0648
 30
0.000000
  70
    32
  0
VERTEX
  8
0
  5
D2B
 10
51.5188
 20
48.0578
 30
0.000000
  70
    32
  0
VERTEX
  8
0
  5
D2C
 10
51.5228
 20
48.0508
 30
0.000000
  70
    32
  0
VERTEX
  8
0
  5
D2D
 10
51.5269
 20
48.0437
 30
0.000000
  70
    32
  0
VERTEX
  8
0
  5
D2E
 10
51.5309
 20
48.0367
 30
0.000000
  70
    32
  0
VERTEX
  8
0
  5
D2F
 10
51.5350
 20
48.0297
 30
0.000000
  70
    32
  0
VERTEX
  8
0
  5
D30
 10
51.5390
 20
48.0227
 30
0.000000
  70
    32
  0
VERTEX
  8
0
  5
D31
 10
51.5430
 20
48.0157
 30
0.000000
  70
    32
  0
VERTEX
  8
0
  5
D32
 10
51.5471
 20
48.0086
 30
0.000000
  70
    32
  0
VERTEX
  8
0
  5
D33
 10
51.5511
 20
48.0016
 30
0.000000
  70
    32
  0
VERTEX
  8
0
  5
D34
 10
51.5552
 20
47.9946
 30
0.000000
  70
    32
  0
VERTEX
  8
0
  5
D35
 10
51.5592
 20
47.9876
 30
0.000000
  70
    32
  0
VERTEX
  8
0
  5
D36
 10
51.5633
 20
47.9805
 30
0.000000
  70
    32
  0
VERTEX
  8
0
  5
D37
 10
51.5673
 20
47.9735
 30
0.000000
  70
    32
  0
VERTEX
  8
0
  5
D38
 10
51.5714
 20
47.9665
 30
0.000000
  70
    32
  0
VERTEX
  8
0
  5
D39
 10
51.5754
 20
47.9595
 30
0.000000
  70
    32
  0
VERTEX
  8
0
  5
D3A
 10
51.5794
 20
47.9524
 30
0.000000
  70
    32
  0
VERTEX
  8
0
  5
D3B
 10
51.5835
 20
47.9454
 30
0.000000
  70
    32
  0
VERTEX
  8
0
  5
D3C
 10
51.5875
 20
47.9384
 30
0.000000
  70
    32
  0
VERTEX
  8
0
  5
D3D
 10
51.5916
 20
47.9314
 30
0.000000
  70
    32
  0
VERTEX
  8
0
  5
D3E
 10
51.5956
 20
47.9243
 30
0.000000
  70
    32
  0
VERTEX
  8
0
  5
D3F
 10
51.5997
 20
47.9173
 30
0.000000
  70
    32
  0
VERTEX
  8
0
  5
D40
 10
51.6037
 20
47.9103
 30
0.000000
  70
    32
  0
VERTEX
  8
0
  5
D41
 10
51.6078
 20
47.9032
 30
0.000000
  70
    32
  0
VERTEX
  8
0
  5
D42
 10
51.6118
 20
47.8962
 30
0.000000
  70
    32
  0
VERTEX
  8
0
  5
D43
 10
51.6159
 20
47.8892
 30
0.000000
  70
    32
  0
VERTEX
  8
0
  5
D44
 10
51.6199
 20
47.8822
 30
0.000000
  70
    32
  0
VERTEX
  8
0
  5
D45
 10
51.6240
 20
47.8751
 30
0.000000
  70
    32
  0
VERTEX
  8
0
  5
D46
 10
51.6280
 20
47.8681
 30
0.000000
  70
    32
  0
VERTEX
  8
0
  5
D47
 10
51.6321
 20
47.8611
 30
0.000000
  70
    32
  0
VERTEX
  8
0
  5
D48
 10
51.6361
 20
47.8540
 30
0.000000
  70
    32
  0
VERTEX
  8
0
  5
D49
 10
51.6402
 20
47.8470
 30
0.000000
  70
    32
  0
VERTEX
  8
0
  5
D4A
 10
51.6442
 20
47.8400
 30
0.000000
  70
    32
  0
VERTEX
  8
0
  5
D4B
 10
51.6483
 20
47.8329
 30
0.000000
  70
    32
  0
VERTEX
  8
0
  5
D4C
 10
51.6523
 20
47.8259
 30
0.000000
  70
    32
  0
VERTEX
  8
0
  5
D4D
 10
51.6564
 20
47.8189
 30
0.000000
  70
    32
  0
VERTEX
  8
0
  5
D4E
 10
51.6604
 20
47.8119
 30
0.000000
  70
    32
  0
VERTEX
  8
0
  5
D4F
 10
51.6645
 20
47.8048
 30
0.000000
  70
    32
  0
VERTEX
  8
0
  5
D50
 10
51.6685
 20
47.7978
 30
0.000000
  70
    32
  0
VERTEX
  8
0
  5
D51
 10
51.6726
 20
47.7908
 30
0.000000
  70
    32
  0
VERTEX
  8
0
  5
D52
 10
51.6766
 20
47.7837
 30
0.000000
  70
    32
  0
VERTEX
  8
0
  5
D53
 10
51.6807
 20
47.7767
 30
0.000000
  70
    32
  0
VERTEX
  8
0
  5
D54
 10
51.6847
 20
47.7697
 30
0.000000
  70
    32
  0
VERTEX
  8
0
  5
D55
 10
51.6888
 20
47.7626
 30
0.000000
  70
    32
  0
VERTEX
  8
0
  5
D56
 10
51.6928
 20
47.7556
 30
0.000000
  70
    32
  0
VERTEX
  8
0
  5
D57
 10
51.6969
 20
47.7486
 30
0.000000
  70
    32
  0
VERTEX
  8
0
  5
D58
 10
51.7009
 20
47.7415
 30
0.000000
  70
    32
  0
VERTEX
  8
0
  5
D59
 10
51.7050
 20
47.7345
 30
0.000000
  70
    32
  0
VERTEX
  8
0
  5
D5A
 10
51.7090
 20
47.7275
 30
0.000000
  70
    32
  0
VERTEX
  8
0
  5
D5B
 10
51.7131
 20
47.7204
 30
0.000000
  70
    32
  0
VERTEX
  8
0
  5
D5C
 10
51.7171
 20
47.7134
 30
0.000000
  70
    32
  0
VERTEX
  8
0
  5
D5D
 10
51.7212
 20
47.7064
 30
0.000000
  70
    32
  0
VERTEX
  8
0
  5
D5E
 10
51.7252
 20
47.6993
 30
0.000000
  70
    32
  0
VERTEX
  8
0
  5
D5F
 10
51.7293
 20
47.6923
 30
0.000000
  70
    32
  0
VERTEX
  8
0
  5
D60
 10
51.7334
 20
47.6853
 30
0.000000
  70
    32
  0
VERTEX
  8
0
  5
D61
 10
51.7374
 20
47.6782
 30
0.000000
  70
    32
  0
VERTEX
  8
0
  5
D62
 10
51.7415
 20
47.6712
 30
0.000000
  70
    32
  0
VERTEX
  8
0
  5
D63
 10
51.7455
 20
47.6642
 30
0.000000
  70
    32
  0
VERTEX
  8
0
  5
D64
 10
51.7496
 20
47.6571
 30
0.000000
  70
    32
  0
VERTEX
  8
0
  5
D65
 10
51.7536
 20
47.6501
 30
0.000000
  70
    32
  0
VERTEX
  8
0
  5
D66
 10
51.7577
 20
47.6431
 30
0.000000
  70
    32
  0
VERTEX
  8
0
  5
D67
 10
51.7617
 20
47.6360
 30
0.000000
  70
    32
  0
VERTEX
  8
0
  5
D68
 10
51.7658
 20
47.6290
 30
0.000000
  70
    32
  0
VERTEX
  8
0
  5
D69
 10
51.7699
 20
47.6219
 30
0.000000
  70
    32
  0
VERTEX
  8
0
  5
D6A
 10
51.7739
 20
47.6149
 30
0.000000
  70
    32
  0
VERTEX
  8
0
  5
D6B
 10
51.7780
 20
47.6079
 30
0.000000
  70
    32
  0
VERTEX
  8
0
  5
D6C
 10
51.7820
 20
47.6008
 30
0.000000
  70
    32
  0
VERTEX
  8
0
  5
D6D
 10
51.7861
 20
47.5938
 30
0.000000
  70
    32
  0
VERTEX
  8
0
  5
D6E
 10
51.7901
 20
47.5868
 30
0.000000
  70
    32
  0
VERTEX
  8
0
  5
D6F
 10
51.7942
 20
47.5797
 30
0.000000
  70
    32
  0
VERTEX
  8
0
  5
D70
 10
51.7983
 20
47.5727
 30
0.000000
  70
    32
  0
VERTEX
  8
0
  5
D71
 10
51.8023
 20
47.5657
 30
0.000000
  70
    32
  0
VERTEX
  8
0
  5
D72
 10
51.8064
 20
47.5586
 30
0.000000
  70
    32
  0
VERTEX
  8
0
  5
D73
 10
51.8104
 20
47.5516
 30
0.000000
  70
    32
  0
VERTEX
  8
0
  5
D74
 10
51.8145
 20
47.5446
 30
0.000000
  70
    32
  0
VERTEX
  8
0
  5
D75
 10
51.8186
 20
47.5375
 30
0.000000
  70
    32
  0
VERTEX
  8
0
  5
D76
 10
51.8226
 20
47.5305
 30
0.000000
  70
    32
  0
VERTEX
  8
0
  5
D77
 10
51.8267
 20
47.5234
 30
0.000000
  70
    32
  0
VERTEX
  8
0
  5
D78
 10
51.8307
 20
47.5164
 30
0.000000
  70
    32
  0
VERTEX
  8
0
  5
D79
 10
51.8348
 20
47.5094
 30
0.000000
  70
    32
  0
VERTEX
  8
0
  5
D7A
 10
51.8389
 20
47.5023
 30
0.000000
  70
    32
  0
VERTEX
  8
0
  5
D7B
 10
51.8429
 20
47.4953
 30
0.000000
  70
    32
  0
VERTEX
  8
0
  5
D7C
 10
51.8470
 20
47.4883
 30
0.000000
  70
    32
  0
VERTEX
  8
0
  5
D7D
 10
51.8510
 20
47.4812
 30
0.000000
  70
    32
  0
VERTEX
  8
0
  5
D7E
 10
51.8551
 20
47.4742
 30
0.000000
  70
    32
  0
VERTEX
  8
0
  5
D7F
 10
51.8592
 20
47.4672
 30
0.000000
  70
    32
  0
VERTEX
  8
0
  5
D80
 10
51.8632
 20
47.4601
 30
0.000000
  70
    32
  0
VERTEX
  8
0
  5
D81
 10
51.8673
 20
47.4531
 30
0.000000
  70
    32
  0
VERTEX
  8
0
  5
D82
 10
51.8713
 20
47.4461
 30
0.000000
  70
    32
  0
VERTEX
  8
0
  5
D83
 10
51.8754
 20
47.4390
 30
0.000000
  70
    32
  0
VERTEX
  8
0
  5
D84
 10
51.8795
 20
47.4320
 30
0.000000
  70
    32
  0
VERTEX
  8
0
  5
D85
 10
51.8835
 20
47.4250
 30
0.000000
  70
    32
  0
VERTEX
  8
0
  5
D86
 10
51.8876
 20
47.4179
 30
0.000000
  70
    32
  0
VERTEX
  8
0
  5
D87
 10
51.8916
 20
47.4109
 30
0.000000
  70
    32
  0
VERTEX
  8
0
  5
D88
 10
51.8957
 20
47.4039
 30
0.000000
  70
    32
  0
VERTEX
  8
0
  5
D89
 10
51.8998
 20
47.3968
 30
0.000000
  70
    32
  0
VERTEX
  8
0
  5
D8A
 10
51.9038
 20
47.3898
 30
0.000000
  70
    32
  0
VERTEX
  8
0
  5
D8B
 10
51.9079
 20
47.3827
 30
0.000000
  70
    32
  0
VERTEX
  8
0
  5
D8C
 10
51.9119
 20
47.3757
 30
0.000000
  70
    32
  0
VERTEX
  8
0
  5
D8D
 10
51.9160
 20
47.3687
 30
0.000000
  70
    32
  0
VERTEX
  8
0
  5
D8E
 10
51.9201
 20
47.3616
 30
0.000000
  70
    32
  0
VERTEX
  8
0
  5
D8F
 10
51.9241
 20
47.3546
 30
0.000000
  70
    32
  0
VERTEX
  8
0
  5
D90
 10
51.9282
 20
47.3476
 30
0.000000
  70
    32
  0
VERTEX
  8
0
  5
D91
 10
51.9322
 20
47.3405
 30
0.000000
  70
    32
  0
VERTEX
  8
0
  5
D92
 10
51.9363
 20
47.3335
 30
0.000000
  70
    32
  0
VERTEX
  8
0
  5
D93
 10
51.9404
 20
47.3265
 30
0.000000
  70
    32
  0
VERTEX
  8
0
  5
D94
 10
51.9444
 20
47.3194
 30
0.000000
  70
    32
  0
VERTEX
  8
0
  5
D95
 10
51.9485
 20
47.3124
 30
0.000000
  70
    32
  0
VERTEX
  8
0
  5
D96
 10
51.9526
 20
47.3054
 30
0.000000
  70
    32
  0
VERTEX
  8
0
  5
D97
 10
51.9566
 20
47.2983
 30
0.000000
  70
    32
  0
VERTEX
  8
0
  5
D98
 10
51.9607
 20
47.2913
 30
0.000000
  70
    32
  0
VERTEX
  8
0
  5
D99
 10
51.9647
 20
47.2843
 30
0.000000
  70
    32
  0
VERTEX
  8
0
  5
D9A
 10
51.9688
 20
47.2773
 30
0.000000
  70
    32
  0
VERTEX
  8
0
  5
D9B
 10
51.9729
 20
47.2702
 30
0.000000
  70
    32
  0
VERTEX
  8
0
  5
D9C
 10
51.9769
 20
47.2632
 30
0.000000
  70
    32
  0
VERTEX
  8
0
  5
D9D
 10
51.9810
 20
47.2562
 30
0.000000
  70
    32
  0
VERTEX
  8
0
  5
D9E
 10
51.9851
 20
47.2491
 30
0.000000
  70
    32
  0
VERTEX
  8
0
  5
D9F
 10
51.9891
 20
47.2421
 30
0.000000
  70
    32
  0
VERTEX
  8
0
  5
DA0
 10
51.9932
 20
47.2351
 30
0.000000
  70
    32
  0
VERTEX
  8
0
  5
DA1
 10
51.9972
 20
47.2280
 30
0.000000
  70
    32
  0
VERTEX
  8
0
  5
DA2
 10
52.0013
 20
47.2210
 30
0.000000
  70
    32
  0
VERTEX
  8
0
  5
DA3
 10
52.0054
 20
47.2140
 30
0.000000
  70
    32
  0
VERTEX
  8
0
  5
DA4
 10
52.0094
 20
47.2069
 30
0.000000
  70
    32
  0
VERTEX
  8
0
  5
DA5
 10
52.0135
 20
47.1999
 30
0.000000
  70
    32
  0
VERTEX
  8
0
  5
DA6
 10
52.0175
 20
47.1929
 30
0.000000
  70
    32
  0
SEQEND
  8
0
  5
DA7
  0
ARC
  5
AC9
  8
0
 10
46.516358528899978
 20
45.310618787100047
 30
0.0
 40
5.4275531140098563
 50
29.616657259199162
 51
30.838447196199919
  0
POLYLINE
  5
ACA
  8
0
 10
51.234808840890587
 20
47.992886383410671
 30
0.0
 66
     1
 70
     8
  0
VERTEX
  8
0
  5
DA8
 10
51.2348
 20
47.9929
 30
0.000000
  70
    32
  0
VERTEX
  8
0
  5
DA9
 10
51.2375
 20
47.9883
 30
0.000000
  70
    32
  0
VERTEX
  8
0
  5
DAA
 10
51.2401
 20
47.9836
 30
0.000000
  70
    32
  0
VERTEX
  8
0
  5
DAB
 10
51.2427
 20
47.9790
 30
0.000000
  70
    32
  0
VERTEX
  8
0
  5
DAC
 10
51.2454
 20
47.9744
 30
0.000000
  70
    32
  0
VERTEX
  8
0
  5
DAD
 10
51.2480
 20
47.9697
 30
0.000000
  70
    32
  0
VERTEX
  8
0
  5
DAE
 10
51.2507
 20
47.9651
 30
0.000000
  70
    32
  0
VERTEX
  8
0
  5
DAF
 10
51.2533
 20
47.9605
 30
0.000000
  70
    32
  0
VERTEX
  8
0
  5
DB0
 10
51.2560
 20
47.9559
 30
0.000000
  70
    32
  0
VERTEX
  8
0
  5
DB1
 10
51.2586
 20
47.9512
 30
0.000000
  70
    32
  0
VERTEX
  8
0
  5
DB2
 10
51.2613
 20
47.9466
 30
0.000000
  70
    32
  0
VERTEX
  8
0
  5
DB3
 10
51.2639
 20
47.9419
 30
0.000000
  70
    32
  0
VERTEX
  8
0
  5
DB4
 10
51.2666
 20
47.9373
 30
0.000000
  70
    32
  0
VERTEX
  8
0
  5
DB5
 10
51.2692
 20
47.9327
 30
0.000000
  70
    32
  0
VERTEX
  8
0
  5
DB6
 10
51.2719
 20
47.9280
 30
0.000000
  70
    32
  0
VERTEX
  8
0
  5
DB7
 10
51.2745
 20
47.9234
 30
0.000000
  70
    32
  0
VERTEX
  8
0
  5
DB8
 10
51.2772
 20
47.9187
 30
0.000000
  70
    32
  0
VERTEX
  8
0
  5
DB9
 10
51.2798
 20
47.9141
 30
0.000000
  70
    32
  0
VERTEX
  8
0
  5
DBA
 10
51.2825
 20
47.9095
 30
0.000000
  70
    32
  0
VERTEX
  8
0
  5
DBB
 10
51.2851
 20
47.9048
 30
0.000000
  70
    32
  0
VERTEX
  8
0
  5
DBC
 10
51.2878
 20
47.9002
 30
0.000000
  70
    32
  0
VERTEX
  8
0
  5
DBD
 10
51.2904
 20
47.8955
 30
0.000000
  70
    32
  0
VERTEX
  8
0
  5
DBE
 10
51.2931
 20
47.8909
 30
0.000000
  70
    32
  0
VERTEX
  8
0
  5
DBF
 10
51.2958
 20
47.8862
 30
0.000000
  70
    32
  0
VERTEX
  8
0
  5
DC0
 10
51.2984
 20
47.8816
 30
0.000000
  70
    32
  0
VERTEX
  8
0
  5
DC1
 10
51.3011
 20
47.8769
 30
0.000000
  70
    32
  0
VERTEX
  8
0
  5
DC2
 10
51.3037
 20
47.8723
 30
0.000000
  70
    32
  0
VERTEX
  8
0
  5
DC3
 10
51.3064
 20
47.8676
 30
0.000000
  70
    32
  0
VERTEX
  8
0
  5
DC4
 10
51.3091
 20
47.8630
 30
0.000000
  70
    32
  0
VERTEX
  8
0
  5
DC5
 10
51.3117
 20
47.8583
 30
0.000000
  70
    32
  0
VERTEX
  8
0
  5
DC6
 10
51.3144
 20
47.8536
 30
0.000000
  70
    32
  0
VERTEX
  8
0
  5
DC7
 10
51.3170
 20
47.8490
 30
0.000000
  70
    32
  0
VERTEX
  8
0
  5
DC8
 10
51.3197
 20
47.8443
 30
0.000000
  70
    32
  0
VERTEX
  8
0
  5
DC9
 10
51.3224
 20
47.8397
 30
0.000000
  70
    32
  0
VERTEX
  8
0
  5
DCA
 10
51.3250
 20
47.8350
 30
0.000000
  70
    32
  0
VERTEX
  8
0
  5
DCB
 10
51.3277
 20
47.8303
 30
0.000000
  70
    32
  0
VERTEX
  8
0
  5
DCC
 10
51.3304
 20
47.8257
 30
0.000000
  70
    32
  0
VERTEX
  8
0
  5
DCD
 10
51.3330
 20
47.8210
 30
0.000000
  70
    32
  0
VERTEX
  8
0
  5
DCE
 10
51.3357
 20
47.8163
 30
0.000000
  70
    32
  0
VERTEX
  8
0
  5
DCF
 10
51.3384
 20
47.8117
 30
0.000000
  70
    32
  0
VERTEX
  8
0
  5
DD0
 10
51.3411
 20
47.8070
 30
0.000000
  70
    32
  0
VERTEX
  8
0
  5
DD1
 10
51.3437
 20
47.8023
 30
0.000000
  70
    32
  0
VERTEX
  8
0
  5
DD2
 10
51.3464
 20
47.7977
 30
0.000000
  70
    32
  0
VERTEX
  8
0
  5
DD3
 10
51.3491
 20
47.7930
 30
0.000000
  70
    32
  0
VERTEX
  8
0
  5
DD4
 10
51.3517
 20
47.7883
 30
0.000000
  70
    32
  0
VERTEX
  8
0
  5
DD5
 10
51.3544
 20
47.7837
 30
0.000000
  70
    32
  0
VERTEX
  8
0
  5
DD6
 10
51.3571
 20
47.7790
 30
0.000000
  70
    32
  0
VERTEX
  8
0
  5
DD7
 10
51.3598
 20
47.7743
 30
0.000000
  70
    32
  0
VERTEX
  8
0
  5
DD8
 10
51.3624
 20
47.7696
 30
0.000000
  70
    32
  0
VERTEX
  8
0
  5
DD9
 10
51.3651
 20
47.7650
 30
0.000000
  70
    32
  0
VERTEX
  8
0
  5
DDA
 10
51.3678
 20
47.7603
 30
0.000000
  70
    32
  0
VERTEX
  8
0
  5
DDB
 10
51.3705
 20
47.7556
 30
0.000000
  70
    32
  0
VERTEX
  8
0
  5
DDC
 10
51.3732
 20
47.7509
 30
0.000000
  70
    32
  0
VERTEX
  8
0
  5
DDD
 10
51.3758
 20
47.7462
 30
0.000000
  70
    32
  0
VERTEX
  8
0
  5
DDE
 10
51.3785
 20
47.7416
 30
0.000000
  70
    32
  0
VERTEX
  8
0
  5
DDF
 10
51.3812
 20
47.7369
 30
0.000000
  70
    32
  0
VERTEX
  8
0
  5
DE0
 10
51.3839
 20
47.7322
 30
0.000000
  70
    32
  0
VERTEX
  8
0
  5
DE1
 10
51.3866
 20
47.7275
 30
0.000000
  70
    32
  0
VERTEX
  8
0
  5
DE2
 10
51.3892
 20
47.7228
 30
0.000000
  70
    32
  0
VERTEX
  8
0
  5
DE3
 10
51.3919
 20
47.7181
 30
0.000000
  70
    32
  0
VERTEX
  8
0
  5
DE4
 10
51.3946
 20
47.7134
 30
0.000000
  70
    32
  0
VERTEX
  8
0
  5
DE5
 10
51.3973
 20
47.7088
 30
0.000000
  70
    32
  0
VERTEX
  8
0
  5
DE6
 10
51.4000
 20
47.7041
 30
0.000000
  70
    32
  0
VERTEX
  8
0
  5
DE7
 10
51.4027
 20
47.6994
 30
0.000000
  70
    32
  0
VERTEX
  8
0
  5
DE8
 10
51.4053
 20
47.6947
 30
0.000000
  70
    32
  0
VERTEX
  8
0
  5
DE9
 10
51.4080
 20
47.6900
 30
0.000000
  70
    32
  0
VERTEX
  8
0
  5
DEA
 10
51.4107
 20
47.6853
 30
0.000000
  70
    32
  0
VERTEX
  8
0
  5
DEB
 10
51.4134
 20
47.6806
 30
0.000000
  70
    32
  0
VERTEX
  8
0
  5
DEC
 10
51.4161
 20
47.6759
 30
0.000000
  70
    32
  0
VERTEX
  8
0
  5
DED
 10
51.4188
 20
47.6712
 30
0.000000
  70
    32
  0
VERTEX
  8
0
  5
DEE
 10
51.4215
 20
47.6665
 30
0.000000
  70
    32
  0
VERTEX
  8
0
  5
DEF
 10
51.4242
 20
47.6618
 30
0.000000
  70
    32
  0
VERTEX
  8
0
  5
DF0
 10
51.4269
 20
47.6571
 30
0.000000
  70
    32
  0
VERTEX
  8
0
  5
DF1
 10
51.4295
 20
47.6524
 30
0.000000
  70
    32
  0
VERTEX
  8
0
  5
DF2
 10
51.4322
 20
47.6477
 30
0.000000
  70
    32
  0
VERTEX
  8
0
  5
DF3
 10
51.4349
 20
47.6430
 30
0.000000
  70
    32
  0
VERTEX
  8
0
  5
DF4
 10
51.4376
 20
47.6383
 30
0.000000
  70
    32
  0
VERTEX
  8
0
  5
DF5
 10
51.4403
 20
47.6336
 30
0.000000
  70
    32
  0
VERTEX
  8
0
  5
DF6
 10
51.4430
 20
47.6289
 30
0.000000
  70
    32
  0
VERTEX
  8
0
  5
DF7
 10
51.4457
 20
47.6242
 30
0.000000
  70
    32
  0
VERTEX
  8
0
  5
DF8
 10
51.4484
 20
47.6195
 30
0.000000
  70
    32
  0
VERTEX
  8
0
  5
DF9
 10
51.4511
 20
47.6148
 30
0.000000
  70
    32
  0
VERTEX
  8
0
  5
DFA
 10
51.4538
 20
47.6101
 30
0.000000
  70
    32
  0
VERTEX
  8
0
  5
DFB
 10
51.4565
 20
47.6054
 30
0.000000
  70
    32
  0
VERTEX
  8
0
  5
DFC
 10
51.4592
 20
47.6007
 30
0.000000
  70
    32
  0
VERTEX
  8
0
  5
DFD
 10
51.4619
 20
47.5960
 30
0.000000
  70
    32
  0
VERTEX
  8
0
  5
DFE
 10
51.4646
 20
47.5913
 30
0.000000
  70
    32
  0
VERTEX
  8
0
  5
DFF
 10
51.4673
 20
47.5866
 30
0.000000
  70
    32
  0
VERTEX
  8
0
  5
E00
 10
51.4700
 20
47.5819
 30
0.000000
  70
    32
  0
VERTEX
  8
0
  5
E01
 10
51.4727
 20
47.5772
 30
0.000000
  70
    32
  0
VERTEX
  8
0
  5
E02
 10
51.4754
 20
47.5724
 30
0.000000
  70
    32
  0
VERTEX
  8
0
  5
E03
 10
51.4781
 20
47.5677
 30
0.000000
  70
    32
  0
VERTEX
  8
0
  5
E04
 10
51.4808
 20
47.5630
 30
0.000000
  70
    32
  0
VERTEX
  8
0
  5
E05
 10
51.4835
 20
47.5583
 30
0.000000
  70
    32
  0
VERTEX
  8
0
  5
E06
 10
51.4862
 20
47.5536
 30
0.000000
  70
    32
  0
VERTEX
  8
0
  5
E07
 10
51.4889
 20
47.5489
 30
0.000000
  70
    32
  0
VERTEX
  8
0
  5
E08
 10
51.4916
 20
47.5442
 30
0.000000
  70
    32
  0
VERTEX
  8
0
  5
E09
 10
51.4943
 20
47.5394
 30
0.000000
  70
    32
  0
VERTEX
  8
0
  5
E0A
 10
51.4970
 20
47.5347
 30
0.000000
  70
    32
  0
VERTEX
  8
0
  5
E0B
 10
51.4997
 20
47.5300
 30
0.000000
  70
    32
  0
VERTEX
  8
0
  5
E0C
 10
51.5024
 20
47.5253
 30
0.000000
  70
    32
  0
VERTEX
  8
0
  5
E0D
 10
51.5051
 20
47.5206
 30
0.000000
  70
    32
  0
VERTEX
  8
0
  5
E0E
 10
51.5078
 20
47.5158
 30
0.000000
  70
    32
  0
VERTEX
  8
0
  5
E0F
 10
51.5106
 20
47.5111
 30
0.000000
  70
    32
  0
VERTEX
  8
0
  5
E10
 10
51.5133
 20
47.5064
 30
0.000000
  70
    32
  0
VERTEX
  8
0
  5
E11
 10
51.5160
 20
47.5017
 30
0.000000
  70
    32
  0
VERTEX
  8
0
  5
E12
 10
51.5187
 20
47.4970
 30
0.000000
  70
    32
  0
VERTEX
  8
0
  5
E13
 10
51.5214
 20
47.4922
 30
0.000000
  70
    32
  0
VERTEX
  8
0
  5
E14
 10
51.5241
 20
47.4875
 30
0.000000
  70
    32
  0
VERTEX
  8
0
  5
E15
 10
51.5268
 20
47.4828
 30
0.000000
  70
    32
  0
VERTEX
  8
0
  5
E16
 10
51.5295
 20
47.4781
 30
0.000000
  70
    32
  0
VERTEX
  8
0
  5
E17
 10
51.5322
 20
47.4733
 30
0.000000
  70
    32
  0
VERTEX
  8
0
  5
E18
 10
51.5349
 20
47.4686
 30
0.000000
  70
    32
  0
VERTEX
  8
0
  5
E19
 10
51.5377
 20
47.4639
 30
0.000000
  70
    32
  0
VERTEX
  8
0
  5
E1A
 10
51.5404
 20
47.4592
 30
0.000000
  70
    32
  0
VERTEX
  8
0
  5
E1B
 10
51.5431
 20
47.4544
 30
0.000000
  70
    32
  0
VERTEX
  8
0
  5
E1C
 10
51.5458
 20
47.4497
 30
0.000000
  70
    32
  0
VERTEX
  8
0
  5
E1D
 10
51.5485
 20
47.4450
 30
0.000000
  70
    32
  0
VERTEX
  8
0
  5
E1E
 10
51.5512
 20
47.4402
 30
0.000000
  70
    32
  0
VERTEX
  8
0
  5
E1F
 10
51.5539
 20
47.4355
 30
0.000000
  70
    32
  0
VERTEX
  8
0
  5
E20
 10
51.5567
 20
47.4308
 30
0.000000
  70
    32
  0
VERTEX
  8
0
  5
E21
 10
51.5594
 20
47.4260
 30
0.000000
  70
    32
  0
VERTEX
  8
0
  5
E22
 10
51.5621
 20
47.4213
 30
0.000000
  70
    32
  0
VERTEX
  8
0
  5
E23
 10
51.5648
 20
47.4166
 30
0.000000
  70
    32
  0
VERTEX
  8
0
  5
E24
 10
51.5675
 20
47.4118
 30
0.000000
  70
    32
  0
VERTEX
  8
0
  5
E25
 10
51.5703
 20
47.4071
 30
0.000000
  70
    32
  0
VERTEX
  8
0
  5
E26
 10
51.5730
 20
47.4024
 30
0.000000
  70
    32
  0
VERTEX
  8
0
  5
E27
 10
51.5757
 20
47.3976
 30
0.000000
  70
    32
  0
VERTEX
  8
0
  5
E28
 10
51.5784
 20
47.3929
 30
0.000000
  70
    32
  0
SEQEND
  8
0
  5
E29
  0
ARC
  5
ACB
  8
0
 10
50.590068208899993
 20
46.735575576900047
 30
0.0
 40
1.186962947787584
 50
22.66100494240052
 51
33.626404407099152
  0
LINE
  5
ACD
  8
0
 10
48.25
 20
42.192886383400058
 30
0.0
 11
55.75
 21
42.192886383400058
 31
0.0
  0
LINE
  5
ACF
  8
0
 10
47.75
 20
42.692886383400072
 30
0.0
 11
56.25
 21
42.692886383400072
 31
0.0
  0
LINE
  5
AD0
  8
0
 10
51.630863574300001
 20
47.292886383400059
 30
0.0
 11
51.959774058799979
 21
47.292886383400059
 31
0.0
  0
LINE
  5
AD1
  8
0
 10
74.0
 20
76.592886383400042
 30
0.0
 11
30.0
 21
76.592886383400042
 31
0.0
  0
LINE
  5
AD2
  8
0
 10
30.0
 20
76.592886383400042
 30
0.0
 11
30.0
 21
96.592886383400042
 31
0.0
  0
LINE
  5
AD3
  8
0
 10
74.0
 20
96.592886383400042
 30
0.0
 11
74.0
 21
76.592886383400042
 31
0.0
  0
CIRCLE
  5
AD4
  8
0
 10
52.0
 20
86.592886383400042
 30
0.0
 40
2.0670000000000059
  0
LINE
  5
AD5
  8
0
 10
30.0
 20
96.592886383400042
 30
0.0
 11
74.0
 21
96.592886383400042
 31
0.0
  0
LINE
  5
AD6
  8
0
 10
96.5
 20
39.816227004700067
 30
0.0
 11
111.5
 21
39.816227004700067
 31
0.0
  0
LINE
  5
AD8
  8
0
 10
111.5
 20
30.484963878100078
 30
0.0
 11
96.5
 21
30.484963878100078
 31
0.0
  0
LINE
  5
ADA
  8
0
 10
111.5
 20
41.068891584000049
 30
0.0
 11
96.5
 21
41.068891584000049
 31
0.0
  0
LINE
  5
ADD
  8
0
 10
111.5
 20
46.592886383400042
 30
0.0
 11
96.5
 21
46.592886383400042
 31
0.0
  0
LINE
  5
AE2
  8
0
 10
111.5
 20
30.000000000000071
 30
0.0
 11
96.5
 21
30.000000000000071
 31
0.0
  0
LINE
  5
AE3
  8
0
 10
96.5
 20
30.000000000000071
 30
0.0
 11
96.5
 21
48.592886383400042
 31
0.0
  0
LINE
  5
AE4
  8
0
 10
111.5
 20
48.592886383400042
 30
0.0
 11
111.5
 21
30.000000000000071
 31
0.0
  0
LINE
  5
AE5
  8
0
 10
94.0
 20
56.592886383400042
 30
0.0
 11
94.0
 21
48.592886383400042
 31
0.0
  0
LINE
  5
AE6
  8
0
 10
114.0
 20
48.592886383400042
 30
0.0
 11
94.0
 21
48.592886383400042
 31
0.0
  0
LINE
  5
AE7
  8
0
 10
94.0
 20
56.592886383400042
 30
0.0
 11
114.0
 21
56.592886383400042
 31
0.0
  0
LINE
  5
AE8
  8
0
 10
114.0
 20
56.592886383400042
 30
0.0
 11
114.0
 21
48.592886383400042
 31
0.0
  0
LINE
  5
AFA
  8
1
 10
25.0
 20
86.592886383400042
 30
0.0
 11
79.0
 21
86.592886383400042
 31
0.0
  0
LINE
  5
AFB
  8
1
 10
52.0
 20
101.5928863834
 30
0.0
 11
52.0
 21
71.592886383400042
 31
0.0
  0
LINE
  5
AFC
  8
1
 10
104.0
 20
61.592886383400042
 30
0.0
 11
104.0
 21
25.000000000000071
 31
0.0
  0
LINE
  5
AFD
  8
1
 10
52.0
 20
61.592886383400042
 30
0.0
 11
52.0
 21
25.000000000000071
 31
0.0
  0
ENDSEC
  0
EOF
