  0
SECTION
  2
HEADER
  9
$ACADVER
  1
AC1009
  9
$INSBASE
 10
0.0
 20
0.0
 30
0.0
  9
$EXTMIN
 10
0.0
 20
-2.9604365620735562
 30
0.0
  9
$EXTMAX
 10
918.9999878406999869
 20
258.0000003872502248
 30
0.0
  9
$LIMMIN
 10
0.0
 20
0.0
  9
$LIMMAX
 10
1125.0
 20
810.0
  9
$ORTHOMODE
 70
     1
  9
$REGENMODE
 70
     1
  9
$FILLMODE
 70
     1
  9
$QTEXTMODE
 70
     0
  9
$MIRRTEXT
 70
     0
  9
$DRAGMODE
 70
     2
  9
$LTSCALE
 40
30.0
  9
$OSMODE
 70
    37
  9
$ATTMODE
 70
     1
  9
$TEXTSIZE
 40
8.0000000000000497
  9
$TRACEWID
 40
0.05
  9
$TEXTSTYLE
  7
STANDARD
  9
$CLAYER
  8
0
  9
$CELTYPE
  6
BYLAYER
  9
$CECOLOR
 62
   256
  9
$DIMSCALE
 40
3.0
  9
$DIMASZ
 40
3.0
  9
$DIMEXO
 40
2.0
  9
$DIMDLI
 40
0.38
  9
$DIMRND
 40
0.0
  9
$DIMDLE
 40
0.0
  9
$DIMEXE
 40
2.0
  9
$DIMTP
 40
0.0
  9
$DIMTM
 40
0.0
  9
$DIMTXT
 40
3.2000000000000002
  9
$DIMCEN
 40
0.0
  9
$DIMTSZ
 40
0.0
  9
$DIMTOL
 70
     0
  9
$DIMLIM
 70
     0
  9
$DIMTIH
 70
     0
  9
$DIMTOH
 70
     0
  9
$DIMSE1
 70
     0
  9
$DIMSE2
 70
     0
  9
$DIMTAD
 70
     1
  9
$DIMZIN
 70
     0
  9
$DIMBLK
  1

  9
$DIMASO
 70
     1
  9
$DIMSHO
 70
     0
  9
$DIMPOST
  1

  9
$DIMAPOST
  1

  9
$DIMALT
 70
     0
  9
$DIMALTD
 70
     2
  9
$DIMALTF
 40
25.3999999999999986
  9
$DIMLFAC
 40
1.0
  9
$DIMTOFL
 70
     1
  9
$DIMTVP
 40
1.6000000000000001
  9
$DIMTIX
 70
     1
  9
$DIMSOXD
 70
     0
  9
$DIMSAH
 70
     0
  9
$DIMBLK1
  1

  9
$DIMBLK2
  1

  9
$DIMSTYLE
  2
STANDARD
  9
$DIMCLRD
 70
     0
  9
$DIMCLRE
 70
     0
  9
$DIMCLRT
 70
     0
  9
$DIMTFAC
 40
1.0
  9
$DIMGAP
 40
0.09
  9
$LUNITS
 70
     2
  9
$LUPREC
 70
     1
  9
$SKETCHINC
 40
0.1
  9
$FILLETRAD
 40
20.0
  9
$AUNITS
 70
     0
  9
$AUPREC
 70
     1
  9
$MENU
  1
E:\r13\win\SUPPORT\ACAD
  9
$ELEVATION
 40
0.0
  9
$PELEVATION
 40
0.0
  9
$THICKNESS
 40
0.0
  9
$LIMCHECK
 70
     0
  9
$BLIPMODE
 70
     0
  9
$CHAMFERA
 40
0.0
  9
$CHAMFERB
 40
0.0
  9
$SKPOLY
 70
     0
  9
$TDCREATE
 40
2449840.6449421290308237
  9
$TDUPDATE
 40
2460571.6584722218103707
  9
$TDINDWG
 40
0.0833741319
  9
$TDUSRTIMER
 40
0.0833741319
  9
$USRTIMER
 70
     1
  9
$ANGBASE
 50
0.0
  9
$ANGDIR
 70
     0
  9
$PDMODE
 70
    35
  9
$PDSIZE
 40
0.0
  9
$PLINEWID
 40
0.0
  9
$COORDS
 70
     1
  9
$SPLFRAME
 70
     0
  9
$SPLINETYPE
 70
     6
  9
$SPLINESEGS
 70
     8
  9
$ATTDIA
 70
     1
  9
$ATTREQ
 70
     1
  9
$HANDLING
 70
     1
  9
$HANDSEED
  5
1311
  9
$SURFTAB1
 70
     6
  9
$SURFTAB2
 70
     6
  9
$SURFTYPE
 70
     6
  9
$SURFU
 70
     6
  9
$SURFV
 70
     6
  9
$UCSNAME
  2

  9
$UCSORG
 10
0.0
 20
0.0
 30
0.0
  9
$UCSXDIR
 10
1.0
 20
0.0
 30
0.0
  9
$UCSYDIR
 10
0.0
 20
1.0
 30
0.0
  9
$PUCSNAME
  2

  9
$PUCSORG
 10
0.0
 20
0.0
 30
0.0
  9
$PUCSXDIR
 10
1.0
 20
0.0
 30
0.0
  9
$PUCSYDIR
 10
0.0
 20
1.0
 30
0.0
  9
$USERI1
 70
     0
  9
$USERI2
 70
     1
  9
$USERI3
 70
     1
  9
$USERI4
 70
     0
  9
$USERI5
 70
     0
  9
$USERR1
 40
0.0
  9
$USERR2
 40
0.0
  9
$USERR3
 40
0.0
  9
$USERR4
 40
0.0
  9
$USERR5
 40
0.0
  9
$WORLDVIEW
 70
     1
  9
$SHADEDGE
 70
     3
  9
$SHADEDIF
 70
    70
  9
$TILEMODE
 70
     1
  9
$MAXACTVP
 70
    16
  9
$PLIMCHECK
 70
     0
  9
$PEXTMIN
 10
1.0000000000000000E+20
 20
1.0000000000000000E+20
 30
1.0000000000000000E+20
  9
$PEXTMAX
 10
-1.0000000000000000E+20
 20
-1.0000000000000000E+20
 30
-1.0000000000000000E+20
  9
$PLIMMIN
 10
0.0
 20
0.0
  9
$PLIMMAX
 10
12.0
 20
9.0
  9
$UNITMODE
 70
     0
  9
$VISRETAIN
 70
     0
  9
$PLINEGEN
 70
     0
  9
$PSLTSCALE
 70
     0
  0
ENDSEC
  0
SECTION
  2
TABLES
  0
TABLE
  2
VPORT
 70
     1
  0
VPORT
  2
*ACTIVE
 70
     0
 10
0.0
 20
0.0
 11
1.0
 21
1.0
 12
704.5566502463052529
 22
300.0
 13
0.0
 23
0.0
 14
30.0
 24
30.0
 15
30.0
 25
30.0
 16
0.0
 26
0.0
 36
1.0
 17
0.0
 27
0.0
 37
0.0
 40
600.0
 41
2.3485221674876842
 42
50.0
 43
0.0
 44
0.0
 50
0.0
 51
0.0
 71
     0
 72
   500
 73
     1
 74
     0
 75
     0
 76
     0
 77
     0
 78
     0
  0
ENDTAB
  0
TABLE
  2
LTYPE
 70
     4
  0
LTYPE
  2
CONTINUOUS
 70
     0
  3
Solid Line
 72
    65
 73
     0
 40
0.0
  0
LTYPE
  2
CENTER
 70
     0
  3
____ _ ____ _ ____ _ ____ _ ____ _ ____ _ ____
 72
    65
 73
     4
 40
2.0
 49
1.25
 49
-0.25
 49
0.25
 49
-0.25
  0
LTYPE
  2
HIDDEN
 70
     0
  3
_ _ _ _ _ _ _ _ _ _ _ _ _ _ _ _ _ _ _ _ _ _ _
 72
    65
 73
     2
 40
0.375
 49
0.25
 49
-0.125
  0
LTYPE
  2
PHANTOM2
 70
     0
  3
___ _ _ ___ _ _ ___ _ _ ___ _ _
 72
    65
 73
     6
 40
1.25
 49
0.625
 49
-0.125
 49
0.125
 49
-0.125
 49
0.125
 49
-0.125
  0
ENDTAB
  0
TABLE
  2
LAYER
 70
     4
  0
LAYER
  2
0
 70
     0
 62
     7
  6
CONTINUOUS
  0
LAYER
  2
1
 70
     0
 62
     1
  6
CENTER
  0
LAYER
  2
3
 70
     0
 62
     3
  6
CONTINUOUS
  0
LAYER
  2
2
 70
     0
 62
     2
  6
HIDDEN
  0
ENDTAB
  0
TABLE
  2
STYLE
 70
     2
  0
STYLE
  2
STANDARD
 70
     0
 40
0.0
 41
1.0
 50
0.0
 71
     0
 42
8.0000000000000497
  3
TXT
  4
BIGFONT
  0
STYLE
  2
STANDARD1
 70
     0
 40
0.0
 41
1.0
 50
0.0
 71
     0
 42
3.0
  3
txt
  4

  0
ENDTAB
  0
TABLE
  2
VIEW
 70
     1
  0
VIEW
  2
ALL
 70
     0
 40
810.0
 10
639.7706722689074468
 20
405.0
 41
0.0
 11
0.0
 21
0.0
 31
1.0
 12
0.0
 22
0.0
 32
0.0
 42
0.0
 43
0.0
 44
0.0
 50
0.0
 71
     0
  0
ENDTAB
  0
TABLE
  2
UCS
 70
     0
  0
ENDTAB
  0
TABLE
  2
APPID
 70
     8
  0
APPID
  2
ACAD
 70
     0
  0
APPID
  2
ACAD_MLEADERVER
 70
     0
  0
APPID
  2
ACAD_EXEMPT_FROM_CAD_STANDARDS
 70
     0
  0
APPID
  2
ACAD_NAV_VCDISPLAY
 70
     0
  0
APPID
  2
ACAD_TC
 70
     0
  0
APPID
  2
ACAD_DSTYLE_DIMRADIAL_EXTENSION
 70
     0
  0
APPID
  2
ACAD_DSTYLE_DIMJAG
 70
     0
  0
APPID
  2
ACAD_DSTYLE_DIMTALN
 70
     0
  0
ENDTAB
  0
TABLE
  2
DIMSTYLE
 70
     1
  0
DIMSTYLE
  2
STANDARD
 70
     0
  3

  4

  5

  6

  7

 40
1.0
 41
0.18
 42
0.0625
 43
0.38
 44
0.18
 45
0.0
 46
0.0
 47
0.0
 48
0.0
140
0.18
141
0.09
142
0.0
143
25.3999999999999986
144
1.0
145
0.0
146
1.0
147
0.09
 71
     0
 72
     0
 73
     1
 74
     1
 75
     0
 76
     0
 77
     0
 78
     0
170
     0
171
     2
172
     0
173
     0
174
     0
175
     0
176
     0
177
     0
178
     0
  0
ENDTAB
  0
ENDSEC
  0
SECTION
  2
BLOCKS
  0
BLOCK
  8
0
  2
$MODEL_SPACE
 70
     0
 10
0.0
 20
0.0
 30
0.0
  3
$MODEL_SPACE
  1

  0
ENDBLK
  5
1DA
  8
0
  0
BLOCK
 67
     1
  8
0
  2
$PAPER_SPACE
 70
     0
 10
0.0
 20
0.0
 30
0.0
  3
$PAPER_SPACE
  1

  0
ENDBLK
  5
1D8
 67
     1
  8
0
  0
ENDSEC
  0
SECTION
  2
ENTITIES
  0
TEXT
  5
DE1
  8
0
 62
     3
 10
0.0
 20
0.0000000000001137
 30
0.0
 40
10.0
  1
MR-B-800
  7
STANDARD1
  0
LINE
  5
DE2
  8
0
 10
28.0000002681999902
 20
164.0000014961001966
 30
0.0
 11
16.0000001639000402
 21
164.0000014961001966
 31
0.0
  0
LINE
  5
DE3
  8
0
 10
28.0000002681999902
 20
164.0000014961001966
 30
0.0
 11
28.9999995008001896
 21
162.9999994695000964
 31
0.0
  0
LINE
  5
DE4
  8
0
 10
28.9999995008001896
 20
153.9999998570002049
 30
0.0
 11
28.9999995008001896
 21
162.9999994695000964
 31
0.0
  0
LINE
  5
DE6
  8
0
 10
24.4999996946000884
 20
142.9999999166001885
 30
0.0
 11
24.4999996946000884
 21
153.9999998570002049
 31
0.0
  0
LINE
  5
DE7
  8
0
 10
28.9999995008001896
 20
142.9999999166001885
 30
0.0
 11
24.4999996946000884
 21
142.9999999166001885
 31
0.0
  0
LINE
  5
DE8
  8
0
 10
28.9999995008001896
 20
141.0000014514002089
 30
0.0
 11
28.9999995008001896
 21
142.9999999166001885
 31
0.0
  0
LINE
  5
DE9
  8
0
 10
45.0000002608001068
 20
141.0000014514002089
 30
0.0
 11
28.9999995008001896
 21
141.0000014514002089
 31
0.0
  0
LINE
  5
DEA
  8
0
 10
45.0000002608001068
 20
142.9999999166001885
 30
0.0
 11
45.0000002608001068
 21
141.0000014514002089
 31
0.0
  0
LINE
  5
DEB
  8
0
 10
49.500000067100018
 20
142.9999999166001885
 30
0.0
 11
45.0000002608001068
 21
142.9999999166001885
 31
0.0
  0
LINE
  5
DEC
  8
0
 10
49.500000067100018
 20
153.9999998570002049
 30
0.0
 11
49.500000067100018
 21
142.9999999166001885
 31
0.0
  0
LINE
  5
DED
  8
0
 10
45.0000002608001068
 20
153.9999998570002049
 30
0.0
 11
49.500000067100018
 21
153.9999998570002049
 31
0.0
  0
LINE
  5
DEE
  8
0
 10
45.0000002608001068
 20
162.9999994695000964
 30
0.0
 11
45.0000002608001068
 21
153.9999998570002049
 31
0.0
  0
LINE
  5
DEF
  8
0
 10
45.0000002608001068
 20
162.9999994695000964
 30
0.0
 11
45.9999994933998479
 21
164.0000014961001966
 31
0.0
  0
LINE
  5
DF0
  8
0
 10
57.9999995977000182
 20
164.0000014961001966
 30
0.0
 11
45.9999994933998479
 21
164.0000014961001966
 31
0.0
  0
LINE
  5
DF1
  8
0
 10
57.9999995977000182
 20
164.0000014961001966
 30
0.0
 11
58.9999997616000726
 21
162.9999994695000964
 31
0.0
  0
LINE
  5
DF2
  8
0
 10
57.9999995977000182
 20
114.0000007510002007
 30
0.0
 11
58.9999997616000726
 21
115.0000007985000963
 31
0.0
  0
LINE
  5
DF3
  8
0
 10
57.9999995977000182
 20
114.0000007510002007
 30
0.0
 11
16.0000001639000402
 21
114.0000007510002007
 31
0.0
  0
LINE
  5
DF4
  8
0
 10
15.0000000000001101
 20
115.0000007985000963
 30
0.0
 11
16.0000001639000402
 21
114.0000007510002007
 31
0.0
  0
LINE
  5
DF5
  8
0
 10
15.0000000000001101
 20
162.9999994695000964
 30
0.0
 11
15.0000000000001101
 21
115.0000007985000963
 31
0.0
  0
LINE
  5
DF6
  8
0
 10
15.0000000000001101
 20
162.9999994695000964
 30
0.0
 11
16.0000001639000402
 21
164.0000014961001966
 31
0.0
  0
LINE
  5
DF7
  8
0
 10
58.9999997616000726
 20
115.0000007985000963
 30
0.0
 11
58.9999997616000726
 21
162.9999994695000964
 31
0.0
  0
LINE
  5
DF8
  8
2
 10
52.9999997616000584
 20
124.0000005275000063
 30
0.0
 11
52.9999997616000584
 21
136.0000006318001908
 31
0.0
  0
LINE
  5
DF9
  8
1
 10
36.9999998808000399
 20
174.0000014961001966
 30
0.0
 11
36.9999998808000399
 21
104.0000007510002007
 31
0.0
  0
LINE
  5
DFA
  8
2
 10
58.54149976159988
 20
149.0000007510001865
 30
0.0
 11
49.500000067100018
 21
149.0000007510001865
 31
0.0
  0
LINE
  5
DFB
  8
2
 10
57.9999997616000584
 20
149.5415007510000862
 30
0.0
 11
49.500000067100018
 21
149.5415007510000862
 31
0.0
  0
LINE
  5
DFC
  8
2
 10
57.9999997616000584
 20
154.4585007510002015
 30
0.0
 11
45.0000002608001068
 21
154.4585007510002015
 31
0.0
  0
LINE
  5
DFD
  8
2
 10
58.54149976159988
 20
155.0000007510001865
 30
0.0
 11
45.0000002608001068
 21
155.0000007510001865
 31
0.0
  0
LINE
  5
DFE
  8
2
 10
58.9999997616000726
 20
148.5415007510000009
 30
0.0
 11
57.9999997616000584
 21
149.5415007510000862
 31
0.0
  0
LINE
  5
DFF
  8
2
 10
57.9999997616000584
 20
154.4585007510002015
 30
0.0
 11
58.9999997616000726
 21
155.4585007510002868
 31
0.0
  0
LINE
  5
E00
  8
2
 10
57.9999997616000584
 20
149.5415007510000862
 30
0.0
 11
57.9999997616000584
 21
154.4585007510002015
 31
0.0
  0
LINE
  5
E01
  8
2
 10
27.4999998808000399
 20
128.0000014961001966
 30
0.0
 11
46.4999998808000328
 21
128.0000014961001966
 31
0.0
  0
LINE
  5
E02
  8
2
 10
30.7499998808000399
 20
128.0000014961001966
 30
0.0
 11
30.7499998808000399
 21
114.0000007510002007
 31
0.0
  0
LINE
  5
E03
  8
2
 10
43.2499998808000328
 20
128.0000014961001966
 30
0.0
 11
43.2499998808000328
 21
114.0000007510002007
 31
0.0
  0
LINE
  5
E04
  8
2
 10
27.4999998808000292
 20
164.0000014961001966
 30
0.0
 11
27.4999998808000292
 21
153.9999998570002049
 31
0.0
  0
LINE
  5
E05
  8
2
 10
27.4999998808000292
 20
142.9999999166001885
 30
0.0
 11
27.4999998808000292
 21
128.0000014961001966
 31
0.0
  0
LINE
  5
E06
  8
2
 10
46.4999998808000328
 20
164.0000014961001966
 30
0.0
 11
46.4999998808000328
 21
153.9999998570002049
 31
0.0
  0
LINE
  5
E07
  8
2
 10
46.4999998808000328
 20
142.9999999166001885
 30
0.0
 11
46.4999998808000328
 21
128.0000014961001966
 31
0.0
  0
LINE
  5
E08
  8
2
 10
58.9999997616000726
 20
136.0000006318001908
 30
0.0
 11
52.9999997616000584
 21
136.0000006318001908
 31
0.0
  0
LINE
  5
E09
  8
2
 10
58.9999997616000726
 20
124.0000005275000063
 30
0.0
 11
52.9999997616000584
 21
124.0000005275000063
 31
0.0
  0
LINE
  5
E0A
  8
1
 10
47.9999997616000584
 20
130.0000005796501057
 30
0.0
 11
63.9999997616000726
 21
130.0000005796501057
 31
0.0
  0
LINE
  5
E0B
  8
1
 10
40.0000002608001068
 20
152.0000007510001865
 30
0.0
 11
63.9999997616000726
 21
152.0000007510001865
 31
0.0
  0
LINE
  5
E0C
  8
0
 10
28.9999995007999587
 20
153.9999998570002049
 30
0.0
 11
24.4999996945000511
 21
153.9999998570002049
 31
0.0
  0
LINE
  5
E0D
  8
2
 10
21.0
 20
124.0000005275000063
 30
0.0
 11
21.0
 21
136.0000006318001908
 31
0.0
  0
LINE
  5
E0E
  8
2
 10
15.4585000000000701
 20
149.0000007510001865
 30
0.0
 11
24.4999996945000511
 21
149.0000007510001865
 31
0.0
  0
LINE
  5
E0F
  8
2
 10
16.0
 20
149.5415007510000862
 30
0.0
 11
24.4999996945000511
 21
149.5415007510000862
 31
0.0
  0
LINE
  5
E10
  8
2
 10
16.0
 20
154.4585007510002015
 30
0.0
 11
28.9999995007999587
 21
154.4585007510002015
 31
0.0
  0
LINE
  5
E11
  8
2
 10
15.4585000000000701
 20
155.0000007510001865
 30
0.0
 11
28.9999995007999587
 21
155.0000007510001865
 31
0.0
  0
LINE
  5
E12
  8
2
 10
15.0
 20
148.5415007510000009
 30
0.0
 11
16.0
 21
149.5415007510000862
 31
0.0
  0
LINE
  5
E13
  8
2
 10
16.0
 20
154.4585007510002015
 30
0.0
 11
15.0
 21
155.4585007510002868
 31
0.0
  0
LINE
  5
E14
  8
2
 10
16.0
 20
149.5415007510000862
 30
0.0
 11
16.0
 21
154.4585007510002015
 31
0.0
  0
LINE
  5
E15
  8
2
 10
15.0
 20
136.0000006318001908
 30
0.0
 11
21.0
 21
136.0000006318001908
 31
0.0
  0
LINE
  5
E16
  8
2
 10
15.0
 20
124.0000005275000063
 30
0.0
 11
21.0
 21
124.0000005275000063
 31
0.0
  0
LINE
  5
E17
  8
1
 10
26.0
 20
130.0000005796501057
 30
0.0
 11
10.0
 21
130.0000005796501057
 31
0.0
  0
LINE
  5
E18
  8
1
 10
33.9999995007999587
 20
152.0000007510001865
 30
0.0
 11
10.0
 21
152.0000007510001865
 31
0.0
  0
LINE
  5
E19
  8
0
 10
108.9999997615999945
 20
163.0000007510004991
 30
0.0
 11
908.9999997616001792
 21
163.0000007510004991
 31
0.0
  0
LINE
  5
E1A
  8
0
 10
908.9999997616001792
 20
164.0000007510001012
 30
0.0
 11
908.9999997616001792
 21
114.0000007510000017
 31
0.0
  0
LINE
  5
E1B
  8
0
 10
908.9999997616001792
 20
114.0000007510000017
 30
0.0
 11
108.9999997615999945
 21
114.0000007510000017
 31
0.0
  0
LINE
  5
E1C
  8
0
 10
108.9999997615999945
 20
114.0000007510000017
 30
0.0
 11
108.9999997615999945
 21
164.0000007510001012
 31
0.0
  0
LINE
  5
E1D
  8
0
 10
128.9999997616000087
 20
124.0000007510001012
 30
0.0
 11
888.9999997616002929
 21
124.0000007510001012
 31
0.0
  0
ARC
  5
E1E
  8
0
 10
888.9999997616002929
 20
130.0000007510004991
 30
0.0
 40
6.0000000000000853
 50
270.0
 51
90.0
  0
LINE
  5
E1F
  8
0
 10
888.9999997616002929
 20
136.0000007509999875
 30
0.0
 11
128.9999997616000087
 21
136.0000007509999875
 31
0.0
  0
ARC
  5
E20
  8
0
 10
128.9999997616000087
 20
130.0000007510004991
 30
0.0
 40
6.0000000000000853
 50
90.0
 51
270.0
  0
LINE
  5
E30
  8
0
 10
908.9999997616001792
 20
164.0000007510001012
 30
0.0
 11
108.9999997615999945
 21
164.0000007510001012
 31
0.0
  0
LINE
  5
E42
  8
0
 10
908.9999997616000655
 20
64.0000000000037517
 30
0.0
 11
108.9999997615999945
 21
64.0000000000001137
 31
0.0
  0
CIRCLE
  5
E43
  8
0
 10
133.9999997616000087
 20
42.0000000000005684
 30
0.0
 40
6.249999999999857
  0
CIRCLE
  5
E44
  8
0
 10
733.9999997616000655
 20
42.0000000000023874
 30
0.0
 40
6.25
  0
CIRCLE
  5
E45
  8
0
 10
533.9999997616000655
 20
42.0000000000019327
 30
0.0
 40
6.25
  0
CIRCLE
  5
E46
  8
0
 10
333.9999997616001224
 20
42.0000000000014708
 30
0.0
 40
6.249999999999857
  0
CIRCLE
  5
E47
  8
0
 10
183.9999997616000087
 20
42.0000000000010232
 30
0.0
 40
6.25
  0
CIRCLE
  5
E48
  8
0
 10
433.9999997616001224
 20
42.0000000000014708
 30
0.0
 40
6.25
  0
CIRCLE
  5
E49
  8
0
 10
633.9999997616000655
 20
42.0000000000023874
 30
0.0
 40
6.25
  0
CIRCLE
  5
E4A
  8
0
 10
833.9999997616000655
 20
42.0000000000028422
 30
0.0
 40
6.25
  0
CIRCLE
  5
E4B
  8
0
 10
883.9999997616000655
 20
42.0000000000028422
 30
0.0
 40
6.25
  0
CIRCLE
  5
E4C
  8
0
 10
783.9999997616000655
 20
42.0000000000028422
 30
0.0
 40
5.9999999999999432
  0
CIRCLE
  5
E4D
  8
0
 10
233.999999761600094
 20
42.0000000000010232
 30
0.0
 40
6.0000000000000853
  0
LINE
  5
E4E
  8
0
 10
108.9999997615999945
 20
20.0000000000001101
 30
0.0
 11
908.9999997616000655
 21
20.0000000000033005
 31
0.0
  0
LINE
  5
E4F
  8
0
 10
108.9999997615999945
 20
64.0000000000001137
 30
0.0
 11
108.9999997615999945
 21
20.0000000000001101
 31
0.0
  0
LINE
  5
E50
  8
0
 10
908.9999997616000655
 20
20.0000000000033005
 30
0.0
 11
908.9999997616000655
 21
64.0000000000037517
 31
0.0
  0
LINE
  5
E5C
  8
0
 10
887.0413810267492636
 20
227.0000003872474963
 30
0.0
 11
908.9999997616000655
 21
227.0000003872474963
 31
0.0
  0
LINE
  5
E5E
  8
0
 10
908.9999997616000655
 20
228.0000003872470984
 30
0.0
 11
889.123475144580425
 21
228.0000003872478942
 31
0.0
  0
LINE
  5
E60
  8
0
 10
908.9999997616000655
 20
257.0000003872474963
 30
0.0
 11
108.9999997615999945
 21
257.0000003872506795
 31
0.0
  0
LINE
  5
E62
  8
0
 10
887.0413810267492636
 20
245.0000003872478942
 30
0.0
 11
908.9999997616000655
 21
245.0000003872478942
 31
0.0
  0
LINE
  5
E64
  8
0
 10
837.0413810267492636
 20
245.0000003872478942
 30
0.0
 11
880.9586184964512086
 21
245.0000003872478942
 31
0.0
  0
LINE
  5
E66
  8
0
 10
787.0413810267505141
 20
245.0000003872478942
 30
0.0
 11
830.9586184964512086
 21
245.0000003872478942
 31
0.0
  0
LINE
  5
E68
  8
0
 10
737.0413810267493773
 20
245.0000003872484058
 30
0.0
 11
780.958618496449958
 21
245.0000003872478942
 31
0.0
  0
LINE
  5
E6A
  8
0
 10
637.0413810267493773
 20
245.0000003872484058
 30
0.0
 11
730.9586184964512086
 21
245.0000003872484058
 31
0.0
  0
LINE
  5
E6C
  8
0
 10
537.0413810267489225
 20
245.000000387248889
 30
0.0
 11
630.9586184964512086
 21
245.0000003872484058
 31
0.0
  0
LINE
  5
E6E
  8
0
 10
437.0413810267490931
 20
245.000000387248889
 30
0.0
 11
530.9586184964512086
 21
245.000000387248889
 31
0.0
  0
LINE
  5
E70
  8
0
 10
337.0413810267490931
 20
245.0000003872492869
 30
0.0
 11
430.9586184964512086
 21
245.000000387248889
 31
0.0
  0
LINE
  5
E72
  8
0
 10
237.041381026749491
 20
245.0000003872497985
 30
0.0
 11
330.9586184964509812
 21
245.0000003872492869
 31
0.0
  0
LINE
  5
E74
  8
0
 10
187.0413810267490931
 20
245.0000003872497985
 30
0.0
 11
230.958618496450498
 21
245.0000003872497985
 31
0.0
  0
LINE
  5
E76
  8
0
 10
137.0413810267496046
 20
245.0000003872497985
 30
0.0
 11
180.9586184964510096
 21
245.0000003872497985
 31
0.0
  0
LINE
  5
E78
  8
0
 10
108.9999997615999945
 20
245.0000003872497985
 30
0.0
 11
130.9586184964510096
 21
245.0000003872497985
 31
0.0
  0
LINE
  5
E7B
  8
0
 10
137.0413810267490931
 20
227.0000003872507079
 30
0.0
 11
180.9586184964510096
 21
227.0000003872507079
 31
0.0
  0
LINE
  5
E7D
  8
0
 10
187.0413810267490931
 20
227.0000003872497985
 30
0.0
 11
230.9586184964504127
 21
227.0000003872497985
 31
0.0
  0
LINE
  5
E7F
  8
0
 10
237.0413810267496899
 20
227.0000003872497985
 30
0.0
 11
330.9586184964509812
 21
227.0000003872492869
 31
0.0
  0
LINE
  5
E81
  8
0
 10
337.0413810267489225
 20
227.0000003872492869
 30
0.0
 11
430.9586184964512086
 21
227.0000003872492869
 31
0.0
  0
LINE
  5
E83
  8
0
 10
437.0413810267490931
 20
227.0000003872492869
 30
0.0
 11
530.9586184964512086
 21
227.000000387248889
 31
0.0
  0
LINE
  5
E85
  8
0
 10
537.0413810267489225
 20
227.000000387248889
 30
0.0
 11
630.9586184964512086
 21
227.0000003872480079
 31
0.0
  0
LINE
  5
E87
  8
0
 10
637.0413810267493773
 20
227.0000003872480079
 30
0.0
 11
730.9586184964512086
 21
227.0000003872480079
 31
0.0
  0
LINE
  5
E89
  8
0
 10
737.0413810267493773
 20
227.0000003872480079
 30
0.0
 11
780.958618496449958
 21
227.0000003872480079
 31
0.0
  0
LINE
  5
E8B
  8
0
 10
787.0413810267506278
 20
227.0000003872480079
 30
0.0
 11
830.9586184964512086
 21
227.0000003872474963
 31
0.0
  0
LINE
  5
E8D
  8
0
 10
837.0413810267492636
 20
227.0000003872474963
 30
0.0
 11
880.9586184964512086
 21
227.0000003872474963
 31
0.0
  0
LINE
  5
E90
  8
0
 10
908.9999997616000655
 20
215.0000003872480079
 30
0.0
 11
108.9999997615999945
 21
215.0000003872497985
 31
0.0
  0
LINE
  5
E92
  8
0
 10
108.9999997615999945
 20
227.0000003872507079
 30
0.0
 11
130.9586184964510096
 21
227.0000003872507079
 31
0.0
  0
LINE
  5
E93
  8
0
 10
908.9999997616000655
 20
244.0000003872474963
 30
0.0
 11
889.123475144580425
 21
244.0000003872474963
 31
0.0
  0
LINE
  5
E96
  8
0
 10
128.8765243786205872
 20
228.0000003872501964
 30
0.0
 11
108.9999997615999945
 21
228.0000003872501964
 31
0.0
  0
LINE
  5
E9A
  8
0
 10
128.8765243786205872
 20
244.0000003872501964
 30
0.0
 11
108.9999997615999945
 21
244.0000003872501964
 31
0.0
  0
LINE
  5
E9D
  8
0
 10
828.8765243786202745
 20
244.0000003872474963
 30
0.0
 11
789.1234751445801976
 21
244.0000003872474963
 31
0.0
  0
LINE
  5
EA5
  8
0
 10
778.8765243786200472
 20
228.0000003872478942
 30
0.0
 11
739.1234751445801976
 21
228.0000003872484058
 31
0.0
  0
LINE
  5
EA6
  8
0
 10
728.8765243786200472
 20
228.0000003872484058
 30
0.0
 11
639.123475144580425
 21
228.0000003872484058
 31
0.0
  0
LINE
  5
EAA
  8
0
 10
428.876524378620104
 20
228.000000387248889
 30
0.0
 11
339.1234751445801976
 21
228.0000003872497985
 31
0.0
  0
LINE
  5
EAC
  8
0
 10
528.8765243786200472
 20
228.000000387248889
 30
0.0
 11
439.1234751445801976
 21
228.000000387248889
 31
0.0
  0
LINE
  5
EAF
  8
0
 10
628.8765243786200472
 20
244.0000003872488037
 30
0.0
 11
539.1234751445801976
 21
244.0000003872488037
 31
0.0
  0
LINE
  5
EB3
  8
0
 10
728.8765243786200472
 20
244.0000003872480079
 30
0.0
 11
639.123475144580425
 21
244.0000003872488037
 31
0.0
  0
LINE
  5
EB5
  8
0
 10
778.8765243786200472
 20
244.0000003872480079
 30
0.0
 11
739.1234751445801976
 21
244.0000003872480079
 31
0.0
  0
LINE
  5
EB7
  8
0
 10
828.8765243786202745
 20
228.0000003872478942
 30
0.0
 11
789.1234751445801976
 21
228.0000003872478942
 31
0.0
  0
LINE
  5
EB9
  8
0
 10
628.8765243786200472
 20
228.0000003872484058
 30
0.0
 11
539.1234751445801976
 21
228.000000387248889
 31
0.0
  0
LINE
  5
EBD
  8
0
 10
878.8765243786202745
 20
228.0000003872478942
 30
0.0
 11
839.1234751445801976
 21
228.0000003872478942
 31
0.0
  0
LINE
  5
EBF
  8
0
 10
428.876524378620104
 20
244.0000003872492869
 30
0.0
 11
339.1234751445801976
 21
244.0000003872497985
 31
0.0
  0
LINE
  5
EC3
  8
0
 10
528.8765243786200472
 20
244.0000003872488037
 30
0.0
 11
439.1234751445801976
 21
244.0000003872492869
 31
0.0
  0
LINE
  5
EC5
  8
0
 10
108.9999997615999945
 20
258.0000003872502248
 30
0.0
 11
908.9999997616000655
 21
258.0000003872469847
 31
0.0
  0
LINE
  5
EC8
  8
0
 10
228.8765243786201893
 20
244.0000003872497985
 30
0.0
 11
189.1234751445801976
 21
244.0000003872497985
 31
0.0
  0
LINE
  5
ECC
  8
0
 10
328.8765243786203882
 20
244.0000003872497985
 30
0.0
 11
239.1234751445801976
 21
244.0000003872497985
 31
0.0
  0
LINE
  5
ECE
  8
0
 10
228.8765243786201893
 20
228.0000003872497985
 30
0.0
 11
189.1234751445799134
 21
228.0000003872501964
 31
0.0
  0
LINE
  5
ED1
  8
0
 10
178.8765243786203882
 20
244.0000003872497985
 30
0.0
 11
139.1234751445799134
 21
244.0000003872501964
 31
0.0
  0
LINE
  5
ED4
  8
0
 10
328.8765243786203882
 20
228.0000003872497985
 30
0.0
 11
239.1234751445799986
 21
228.0000003872497985
 31
0.0
  0
LINE
  5
ED8
  8
0
 10
108.9999997615999945
 20
214.0000003872501964
 30
0.0
 11
908.9999997616000655
 21
214.0000003872474963
 31
0.0
  0
LINE
  5
ED9
  8
0
 10
108.9999997615999945
 20
214.0000003872501964
 30
0.0
 11
108.9999997615999945
 21
258.0000003872502248
 31
0.0
  0
LINE
  5
EDA
  8
0
 10
908.9999997616000655
 20
258.0000003872469847
 30
0.0
 11
908.9999997616000655
 21
214.0000003872474963
 31
0.0
  0
LINE
  5
EDB
  8
0
 10
878.8765243786202745
 20
244.0000003872474963
 30
0.0
 11
839.1234751445801976
 21
244.0000003872474963
 31
0.0
  0
LINE
  5
EDE
  8
0
 10
178.876524378620104
 20
228.0000003872501964
 30
0.0
 11
139.1234751445799134
 21
228.0000003872501964
 31
0.0
  0
CIRCLE
  5
EFA
  8
0
 10
833.9999997616000655
 20
236.0000003872478942
 30
0.0
 40
6.25
  0
CIRCLE
  5
EFB
  8
0
 10
533.9999997616000655
 20
236.000000387248889
 30
0.0
 40
6.25
  0
CIRCLE
  5
EFC
  8
0
 10
333.9999997616001224
 20
236.0000003872497985
 30
0.0
 40
6.25
  0
CIRCLE
  5
EFD
  8
0
 10
733.9999997616001792
 20
236.0000003872478942
 30
0.0
 40
6.25
  0
CIRCLE
  5
EFE
  8
0
 10
883.9999997616000655
 20
236.0000003872478942
 30
0.0
 40
6.25
  0
CIRCLE
  5
EFF
  8
0
 10
783.9999997616001792
 20
236.0000003872478942
 30
0.0
 40
5.999999999999801
  0
CIRCLE
  5
F00
  8
0
 10
183.9999997616000087
 20
236.0000003872501964
 30
0.0
 40
6.25
  0
CIRCLE
  5
F01
  8
0
 10
433.9999997616001224
 20
236.000000387248889
 30
0.0
 40
6.25
  0
CIRCLE
  5
F02
  8
0
 10
233.999999761600094
 20
236.0000003872497985
 30
0.0
 40
6.0000000000000853
  0
CIRCLE
  5
F03
  8
0
 10
133.9999997616000087
 20
236.0000003872501964
 30
0.0
 40
6.25
  0
CIRCLE
  5
F04
  8
0
 10
633.9999997616000655
 20
236.0000003872484058
 30
0.0
 40
6.25
  0
LINE
  5
F10
  8
1
 10
98.9999997616000655
 20
42.0000000000001066
 30
0.0
 11
918.9999878406999869
 21
42.0000000000001066
 31
0.0
  0
LINE
  5
F11
  8
1
 10
133.9999997616000087
 20
53.2500000000003411
 30
0.0
 11
133.9999997616000087
 21
30.7499999999998899
 31
0.0
  0
LINE
  5
F12
  8
1
 10
183.9999997616000087
 20
53.2500000000008029
 30
0.0
 11
183.9999997616000087
 21
30.7500000000003411
 31
0.0
  0
LINE
  5
F13
  8
1
 10
233.999999761600094
 20
53.0000000000011013
 30
0.0
 11
233.999999761600094
 21
31.0000000000009415
 31
0.0
  0
LINE
  5
F14
  8
1
 10
333.9999997616001224
 20
53.2500000000012506
 30
0.0
 11
333.9999997616001224
 21
30.7500000000007994
 31
0.0
  0
LINE
  5
F15
  8
1
 10
433.9999997616001224
 20
53.2500000000012506
 30
0.0
 11
433.9999997616001224
 21
30.7500000000007994
 31
0.0
  0
LINE
  5
F16
  8
1
 10
533.9999997616000655
 20
53.2500000000016982
 30
0.0
 11
533.9999997616000655
 21
30.7500000000012506
 31
0.0
  0
LINE
  5
F17
  8
1
 10
633.9999997616000655
 20
53.25000000000216
 30
0.0
 11
633.9999997616000655
 21
30.7500000000017089
 31
0.0
  0
LINE
  5
F18
  8
1
 10
733.9999997616000655
 20
53.25000000000216
 30
0.0
 11
733.9999997616000655
 21
30.7500000000017089
 31
0.0
  0
LINE
  5
F19
  8
1
 10
783.9999997616000655
 20
52.9999999999979181
 30
0.0
 11
783.9999997616000655
 21
30.9999999999977582
 31
0.0
  0
LINE
  5
F1A
  8
1
 10
833.9999997616000655
 20
53.2500000000026219
 30
0.0
 11
833.9999997616000655
 21
30.75000000000216
 31
0.0
  0
LINE
  5
F1B
  8
1
 10
883.9999997616000655
 20
53.2500000000026219
 30
0.0
 11
883.9999997616000655
 21
30.75000000000216
 31
0.0
  0
CIRCLE
  5
F1C
  8
3
 10
158.9999997616002929
 20
152.0000007509999875
 30
0.0
 40
3.0
  0
CIRCLE
  5
F1D
  8
0
 10
158.9999997616002929
 20
152.0000007509999875
 30
0.0
 40
2.458499999999999
  0
LINE
  5
F1E
  8
1
 10
150.9999997616002929
 20
152.0000007509999875
 30
0.0
 11
166.9999997616002929
 21
152.0000007509999875
 31
0.0
  0
LINE
  5
F1F
  8
1
 10
158.9999997616002929
 20
160.0000007509999875
 30
0.0
 11
158.9999997616002929
 21
144.0000007509999875
 31
0.0
  0
CIRCLE
  5
F20
  8
3
 10
208.9999997616002929
 20
152.0000007510001012
 30
0.0
 40
3.0
  0
CIRCLE
  5
F21
  8
0
 10
208.9999997616002929
 20
152.0000007510001012
 30
0.0
 40
2.458499999999999
  0
LINE
  5
F22
  8
1
 10
200.9999997616002929
 20
152.0000007510001012
 30
0.0
 11
216.9999997616002929
 21
152.0000007510001012
 31
0.0
  0
LINE
  5
F23
  8
1
 10
208.9999997616002929
 20
160.0000007509999875
 30
0.0
 11
208.9999997616002929
 21
144.0000007510001012
 31
0.0
  0
CIRCLE
  5
F24
  8
3
 10
258.9999997616002929
 20
152.0000007510001012
 30
0.0
 40
3.0
  0
CIRCLE
  5
F25
  8
0
 10
258.9999997616002929
 20
152.0000007510001012
 30
0.0
 40
2.458499999999999
  0
LINE
  5
F26
  8
1
 10
250.9999997616002929
 20
152.0000007510001012
 30
0.0
 11
266.9999997616002929
 21
152.0000007510001012
 31
0.0
  0
LINE
  5
F27
  8
1
 10
258.9999997616002929
 20
160.0000007510001012
 30
0.0
 11
258.9999997616002929
 21
144.0000007510001012
 31
0.0
  0
CIRCLE
  5
F28
  8
3
 10
308.9999997616002929
 20
152.0000007510001012
 30
0.0
 40
3.0
  0
CIRCLE
  5
F29
  8
0
 10
308.9999997616002929
 20
152.0000007510001012
 30
0.0
 40
2.458499999999999
  0
LINE
  5
F2A
  8
1
 10
300.9999997616002929
 20
152.0000007510001012
 30
0.0
 11
316.9999997616002929
 21
152.0000007510001012
 31
0.0
  0
LINE
  5
F2B
  8
1
 10
308.9999997616002929
 20
160.0000007510001012
 30
0.0
 11
308.9999997616002929
 21
144.0000007510001012
 31
0.0
  0
CIRCLE
  5
F2C
  8
3
 10
358.9999997616002929
 20
152.0000007510001012
 30
0.0
 40
3.0
  0
CIRCLE
  5
F2D
  8
0
 10
358.9999997616002929
 20
152.0000007510001012
 30
0.0
 40
2.458499999999999
  0
LINE
  5
F2E
  8
1
 10
350.9999997616002929
 20
152.0000007510001012
 30
0.0
 11
366.9999997616002929
 21
152.0000007510001012
 31
0.0
  0
LINE
  5
F2F
  8
1
 10
358.9999997616002929
 20
160.0000007510001012
 30
0.0
 11
358.9999997616002929
 21
144.0000007510001012
 31
0.0
  0
CIRCLE
  5
F30
  8
3
 10
408.9999997616001792
 20
152.0000007510001012
 30
0.0
 40
3.0
  0
CIRCLE
  5
F31
  8
0
 10
408.9999997616001792
 20
152.0000007510001012
 30
0.0
 40
2.458499999999999
  0
LINE
  5
F32
  8
1
 10
400.9999997616001792
 20
152.0000007510001012
 30
0.0
 11
416.9999997616001792
 21
152.0000007510001012
 31
0.0
  0
LINE
  5
F33
  8
1
 10
408.9999997616001792
 20
160.0000007510001012
 30
0.0
 11
408.9999997616001792
 21
144.0000007510001012
 31
0.0
  0
CIRCLE
  5
F34
  8
3
 10
458.9999997616001792
 20
152.0000007510001012
 30
0.0
 40
3.0
  0
CIRCLE
  5
F35
  8
0
 10
458.9999997616001792
 20
152.0000007510001012
 30
0.0
 40
2.458499999999999
  0
LINE
  5
F36
  8
1
 10
450.9999997616001792
 20
152.0000007510001012
 30
0.0
 11
466.9999997616001792
 21
152.0000007510001012
 31
0.0
  0
LINE
  5
F37
  8
1
 10
458.9999997616001792
 20
160.0000007510001012
 30
0.0
 11
458.9999997616001792
 21
144.0000007510001012
 31
0.0
  0
CIRCLE
  5
F38
  8
3
 10
508.9999997616001792
 20
152.0000007510001012
 30
0.0
 40
3.0
  0
CIRCLE
  5
F39
  8
0
 10
508.9999997616001792
 20
152.0000007510001012
 30
0.0
 40
2.458499999999999
  0
LINE
  5
F3A
  8
1
 10
500.9999997616001792
 20
152.0000007510001012
 30
0.0
 11
516.9999997616001792
 21
152.0000007510001012
 31
0.0
  0
LINE
  5
F3B
  8
1
 10
508.9999997616001792
 20
160.0000007510001012
 30
0.0
 11
508.9999997616001792
 21
144.0000007510001012
 31
0.0
  0
CIRCLE
  5
F3C
  8
3
 10
558.9999997616001792
 20
152.0000007510001012
 30
0.0
 40
3.0
  0
CIRCLE
  5
F3D
  8
0
 10
558.9999997616001792
 20
152.0000007510001012
 30
0.0
 40
2.458499999999999
  0
LINE
  5
F3E
  8
1
 10
550.9999997616001792
 20
152.0000007510001012
 30
0.0
 11
566.9999997616001792
 21
152.0000007510001012
 31
0.0
  0
LINE
  5
F3F
  8
1
 10
558.9999997616001792
 20
160.0000007510001012
 30
0.0
 11
558.9999997616001792
 21
144.0000007510001012
 31
0.0
  0
CIRCLE
  5
F40
  8
3
 10
608.9999997616001792
 20
152.0000007510001012
 30
0.0
 40
3.0
  0
CIRCLE
  5
F41
  8
0
 10
608.9999997616001792
 20
152.0000007510001012
 30
0.0
 40
2.458499999999999
  0
LINE
  5
F42
  8
1
 10
600.9999997616001792
 20
152.0000007510001012
 30
0.0
 11
616.9999997616001792
 21
152.0000007510001012
 31
0.0
  0
LINE
  5
F43
  8
1
 10
608.9999997616001792
 20
160.0000007510001012
 30
0.0
 11
608.9999997616001792
 21
144.0000007510001012
 31
0.0
  0
CIRCLE
  5
F44
  8
3
 10
658.9999997616001792
 20
152.0000007510001012
 30
0.0
 40
3.0
  0
CIRCLE
  5
F45
  8
0
 10
658.9999997616001792
 20
152.0000007510001012
 30
0.0
 40
2.458499999999999
  0
LINE
  5
F46
  8
1
 10
650.9999997616001792
 20
152.0000007510001012
 30
0.0
 11
666.9999997616001792
 21
152.0000007510001012
 31
0.0
  0
LINE
  5
F47
  8
1
 10
658.9999997616001792
 20
160.0000007510001865
 30
0.0
 11
658.9999997616001792
 21
144.0000007510001865
 31
0.0
  0
CIRCLE
  5
F48
  8
3
 10
708.9999997616001792
 20
152.0000007510001012
 30
0.0
 40
3.0
  0
CIRCLE
  5
F49
  8
0
 10
708.9999997616001792
 20
152.0000007510001012
 30
0.0
 40
2.458499999999999
  0
LINE
  5
F4A
  8
1
 10
700.9999997616001792
 20
152.0000007510001012
 30
0.0
 11
716.9999997616001792
 21
152.0000007510001012
 31
0.0
  0
LINE
  5
F4B
  8
1
 10
708.9999997616001792
 20
160.0000007510001865
 30
0.0
 11
708.9999997616001792
 21
144.0000007510001865
 31
0.0
  0
CIRCLE
  5
F4C
  8
3
 10
758.9999997616001792
 20
152.0000007510001012
 30
0.0
 40
3.0
  0
CIRCLE
  5
F4D
  8
0
 10
758.9999997616001792
 20
152.0000007510001012
 30
0.0
 40
2.458499999999999
  0
LINE
  5
F4E
  8
1
 10
750.9999997616001792
 20
152.0000007510001012
 30
0.0
 11
766.9999997616001792
 21
152.0000007510001012
 31
0.0
  0
LINE
  5
F4F
  8
1
 10
758.9999997616001792
 20
160.0000007510001865
 30
0.0
 11
758.9999997616001792
 21
144.0000007510001865
 31
0.0
  0
CIRCLE
  5
F50
  8
3
 10
808.9999997616001792
 20
152.0000007510001865
 30
0.0
 40
3.0
  0
CIRCLE
  5
F51
  8
0
 10
808.9999997616001792
 20
152.0000007510001865
 30
0.0
 40
2.458499999999999
  0
LINE
  5
F52
  8
1
 10
800.9999997616001792
 20
152.0000007510001865
 30
0.0
 11
816.9999997616001792
 21
152.0000007510001865
 31
0.0
  0
LINE
  5
F53
  8
1
 10
808.9999997616001792
 20
160.0000007510001865
 30
0.0
 11
808.9999997616001792
 21
144.0000007510001865
 31
0.0
  0
CIRCLE
  5
F54
  8
3
 10
858.9999997616001792
 20
152.0000007510001865
 30
0.0
 40
3.0
  0
CIRCLE
  5
F55
  8
0
 10
858.9999997616001792
 20
152.0000007510001865
 30
0.0
 40
2.458499999999999
  0
LINE
  5
F56
  8
1
 10
850.9999997616001792
 20
152.0000007510001865
 30
0.0
 11
866.9999997616001792
 21
152.0000007510001865
 31
0.0
  0
LINE
  5
F57
  8
1
 10
858.9999997616001792
 20
160.0000007510001865
 30
0.0
 11
858.9999997616001792
 21
144.0000007510001865
 31
0.0
  0
LINE
  5
F58
  8
1
 10
133.9999997615998097
 20
250.50000038725031
 30
0.0
 11
133.9999997615998097
 21
221.5000003872501964
 31
0.0
  0
LINE
  5
F59
  8
1
 10
98.9999997616000655
 20
236.0000003872004868
 30
0.0
 11
918.9999878406999869
 21
236.0000003872004868
 31
0.0
  0
LINE
  5
F5A
  8
1
 10
183.9999997616000087
 20
250.50000038725031
 30
0.0
 11
183.999999761600094
 21
221.5000003872501964
 31
0.0
  0
LINE
  5
F5B
  8
1
 10
233.999999761600094
 20
250.5000003872499121
 30
0.0
 11
233.999999761600094
 21
221.5000003872495995
 31
0.0
  0
LINE
  5
F5C
  8
1
 10
333.9999997616001224
 20
250.50000038725031
 30
0.0
 11
333.9999997616001224
 21
221.5000003872501964
 31
0.0
  0
LINE
  5
F5D
  8
1
 10
433.9999997616001224
 20
250.50000038725031
 30
0.0
 11
433.9999997616001224
 21
221.5000003872501964
 31
0.0
  0
LINE
  5
F5E
  8
1
 10
533.9999997616000655
 20
250.50000038725031
 30
0.0
 11
533.9999997616000655
 21
221.5000003872501964
 31
0.0
  0
LINE
  5
F5F
  8
1
 10
633.9999997616000655
 20
250.50000038725031
 30
0.0
 11
633.9999997616000655
 21
221.5000003872501964
 31
0.0
  0
LINE
  5
F60
  8
1
 10
733.9999997616004066
 20
250.50000038725031
 30
0.0
 11
733.9999997616001792
 21
221.5000003872501964
 31
0.0
  0
LINE
  5
F61
  8
1
 10
783.9999997616001792
 20
250.5000003872482921
 30
0.0
 11
783.9999997616001792
 21
221.50000038724761
 31
0.0
  0
LINE
  5
F62
  8
1
 10
833.9999997616000655
 20
250.50000038725031
 30
0.0
 11
833.9999997616000655
 21
221.5000003872501964
 31
0.0
  0
LINE
  5
F63
  8
1
 10
883.9999997616000655
 20
250.50000038725031
 30
0.0
 11
883.9999997616000655
 21
221.5000003872501964
 31
0.0
  0
CIRCLE
  5
1251
  8
0
 10
133.9999997616000087
 20
236.0000003872501964
 30
0.0
 40
9.5000000000000213
  0
CIRCLE
  5
1252
  8
0
 10
183.9999997616000087
 20
236.0000003872501964
 30
0.0
 40
9.5000000000000178
  0
CIRCLE
  5
1253
  8
0
 10
233.999999761600094
 20
236.0000003872497985
 30
0.0
 40
9.5000000000001368
  0
CIRCLE
  5
1254
  8
0
 10
333.9999997616001224
 20
236.0000003872497985
 30
0.0
 40
9.5000000000000941
  0
CIRCLE
  5
1255
  8
0
 10
433.9999997616001224
 20
236.000000387248889
 30
0.0
 40
9.5000000000000941
  0
CIRCLE
  5
1256
  8
0
 10
533.9999997616000655
 20
236.000000387248889
 30
0.0
 40
9.4999999999999734
  0
CIRCLE
  5
1257
  8
0
 10
633.9999997616000655
 20
236.0000003872484058
 30
0.0
 40
9.5000000000002451
  0
CIRCLE
  5
1258
  8
0
 10
733.9999997616001792
 20
236.0000003872478942
 30
0.0
 40
9.4999999999999734
  0
CIRCLE
  5
1259
  8
0
 10
783.9999997616001792
 20
236.0000003872478942
 30
0.0
 40
9.5000000000003677
  0
CIRCLE
  5
125A
  8
0
 10
833.9999997616000655
 20
236.0000003872478942
 30
0.0
 40
9.5000000000000941
  0
CIRCLE
  5
125B
  8
0
 10
883.9999997616000655
 20
236.0000003872478942
 30
0.0
 40
9.5000000000001261
  0
LINE
  5
1271
  8
1
 10
118.000000208600099
 20
130.0000007510004991
 30
0.0
 11
899.9999997616004066
 21
130.0000007510004991
 31
0.0
  0
LINE
  5
1272
  8
1
 10
129.0000002086001132
 20
141.0000007510006128
 30
0.0
 11
129.0000002086001132
 21
119.0000007510005986
 31
0.0
  0
LINE
  5
1273
  8
1
 10
888.9999997616002929
 20
141.0000007510004991
 30
0.0
 11
888.9999997616002929
 21
119.0000007510004991
 31
0.0
  0
ENDSEC
  0
EOF
