  0
SECTION
  2
HEADER
  9
$ACADVER
  1
AC1009
  9
$INSBASE
 10
0.0
 20
0.0
 30
0.0
  9
$EXTMIN
 10
0.0
 20
-2.960436562073669
 30
0.0
  9
$EXTMAX
 10
179.40000000000001
 20
110.90000000000001
 30
0.0
  9
$LIMMIN
 10
0.0
 20
0.0
  9
$LIMMAX
 10
187.5
 20
135.0
  9
$ORTHOMODE
 70
     1
  9
$REGENMODE
 70
     1
  9
$FILLMODE
 70
     1
  9
$QTEXTMODE
 70
     0
  9
$MIRRTEXT
 70
     0
  9
$DRAGMODE
 70
     2
  9
$LTSCALE
 40
5.0
  9
$OSMODE
 70
    37
  9
$ATTMODE
 70
     1
  9
$TEXTSIZE
 40
0.2
  9
$TRACEWID
 40
0.05
  9
$TEXTSTYLE
  7
STANDARD
  9
$CLAYER
  8
0
  9
$CELTYPE
  6
BYLAYER
  9
$CECOLOR
 62
   256
  9
$DIMSCALE
 40
0.5
  9
$DIMASZ
 40
3.0
  9
$DIMEXO
 40
2.0
  9
$DIMDLI
 40
0.38
  9
$DIMRND
 40
0.0
  9
$DIMDLE
 40
0.0
  9
$DIMEXE
 40
2.0
  9
$DIMTP
 40
0.0
  9
$DIMTM
 40
0.0
  9
$DIMTXT
 40
3.2000000000000002
  9
$DIMCEN
 40
0.0
  9
$DIMTSZ
 40
0.0
  9
$DIMTOL
 70
     0
  9
$DIMLIM
 70
     0
  9
$DIMTIH
 70
     0
  9
$DIMTOH
 70
     0
  9
$DIMSE1
 70
     0
  9
$DIMSE2
 70
     0
  9
$DIMTAD
 70
     1
  9
$DIMZIN
 70
     0
  9
$DIMBLK
  1

  9
$DIMASO
 70
     1
  9
$DIMSHO
 70
     0
  9
$DIMPOST
  1

  9
$DIMAPOST
  1

  9
$DIMALT
 70
     0
  9
$DIMALTD
 70
     2
  9
$DIMALTF
 40
25.399999999999999
  9
$DIMLFAC
 40
1.0
  9
$DIMTOFL
 70
     1
  9
$DIMTVP
 40
1.6000000000000001
  9
$DIMTIX
 70
     0
  9
$DIMSOXD
 70
     0
  9
$DIMSAH
 70
     0
  9
$DIMBLK1
  1

  9
$DIMBLK2
  1

  9
$DIMSTYLE
  2
STANDARD
  9
$DIMCLRD
 70
     0
  9
$DIMCLRE
 70
     0
  9
$DIMCLRT
 70
     0
  9
$DIMTFAC
 40
1.0
  9
$DIMGAP
 40
0.5
  9
$LUNITS
 70
     2
  9
$LUPREC
 70
     1
  9
$SKETCHINC
 40
0.1
  9
$FILLETRAD
 40
0.0
  9
$AUNITS
 70
     0
  9
$AUPREC
 70
     1
  9
$MENU
  1
E:\r13\win\SUPPORT\ACAD
  9
$ELEVATION
 40
0.0
  9
$PELEVATION
 40
0.0
  9
$THICKNESS
 40
0.0
  9
$LIMCHECK
 70
     0
  9
$BLIPMODE
 70
     0
  9
$CHAMFERA
 40
0.0
  9
$CHAMFERB
 40
0.0
  9
$SKPOLY
 70
     0
  9
$TDCREATE
 40
2449839.7949652779
  9
$TDUPDATE
 40
2457534.4791827081
  9
$TDINDWG
 40
0.0695139005
  9
$TDUSRTIMER
 40
0.0695139005
  9
$USRTIMER
 70
     1
  9
$ANGBASE
 50
0.0
  9
$ANGDIR
 70
     0
  9
$PDMODE
 70
     0
  9
$PDSIZE
 40
0.0
  9
$PLINEWID
 40
0.0
  9
$COORDS
 70
     1
  9
$SPLFRAME
 70
     0
  9
$SPLINETYPE
 70
     6
  9
$SPLINESEGS
 70
     8
  9
$ATTDIA
 70
     0
  9
$ATTREQ
 70
     1
  9
$HANDLING
 70
     1
  9
$HANDSEED
  5
A3D
  9
$SURFTAB1
 70
     6
  9
$SURFTAB2
 70
     6
  9
$SURFTYPE
 70
     6
  9
$SURFU
 70
     6
  9
$SURFV
 70
     6
  9
$UCSNAME
  2

  9
$UCSORG
 10
0.0
 20
0.0
 30
0.0
  9
$UCSXDIR
 10
1.0
 20
0.0
 30
0.0
  9
$UCSYDIR
 10
0.0
 20
1.0
 30
0.0
  9
$PUCSNAME
  2

  9
$PUCSORG
 10
0.0
 20
0.0
 30
0.0
  9
$PUCSXDIR
 10
1.0
 20
0.0
 30
0.0
  9
$PUCSYDIR
 10
0.0
 20
1.0
 30
0.0
  9
$USERI1
 70
     0
  9
$USERI2
 70
     1
  9
$USERI3
 70
     1
  9
$USERI4
 70
     0
  9
$USERI5
 70
     0
  9
$USERR1
 40
0.0
  9
$USERR2
 40
0.0
  9
$USERR3
 40
0.0
  9
$USERR4
 40
0.0
  9
$USERR5
 40
0.0
  9
$WORLDVIEW
 70
     1
  9
$SHADEDGE
 70
     3
  9
$SHADEDIF
 70
    70
  9
$TILEMODE
 70
     1
  9
$MAXACTVP
 70
    16
  9
$PLIMCHECK
 70
     0
  9
$PEXTMIN
 10
1.0000000000000000E+020
 20
1.0000000000000000E+020
 30
1.0000000000000000E+020
  9
$PEXTMAX
 10
-1.0000000000000000E+020
 20
-1.0000000000000000E+020
 30
-1.0000000000000000E+020
  9
$PLIMMIN
 10
0.0
 20
0.0
  9
$PLIMMAX
 10
12.0
 20
9.0
  9
$UNITMODE
 70
     0
  9
$VISRETAIN
 70
     0
  9
$PLINEGEN
 70
     0
  9
$PSLTSCALE
 70
     0
  0
ENDSEC
  0
SECTION
  2
TABLES
  0
TABLE
  2
VPORT
 70
     1
  0
VPORT
  2
*ACTIVE
 70
     0
 10
0.0
 20
0.0
 11
1.0
 21
1.0
 12
172.54273504273499
 22
95.0
 13
0.0
 23
0.0
 14
5.0
 24
5.0
 15
5.0
 25
5.0
 16
0.0
 26
0.0
 36
1.0
 17
0.0
 27
0.0
 37
0.0
 40
190.0
 41
1.816239316239316
 42
50.0
 43
0.0
 44
0.0
 50
0.0
 51
0.0
 71
     0
 72
   500
 73
     1
 74
     0
 75
     0
 76
     0
 77
     0
 78
     2
  0
ENDTAB
  0
TABLE
  2
LTYPE
 70
     4
  0
LTYPE
  2
CONTINUOUS
 70
     0
  3
Solid Line
 72
    65
 73
     0
 40
0.0
  0
LTYPE
  2
CENTER
 70
     0
  3
____ _ ____ _ ____ _ ____ _ ____ _ ____ _ ____
 72
    65
 73
     4
 40
2.0
 49
1.25
 49
-0.25
 49
0.25
 49
-0.25
  0
LTYPE
  2
PHANTOM2
 70
     0
  3
___ _ _ ___ _ _ ___ _ _ ___ _ _
 72
    65
 73
     6
 40
1.25
 49
0.625
 49
-0.125
 49
0.125
 49
-0.125
 49
0.125
 49
-0.125
  0
LTYPE
  2
HIDDEN
 70
     0
  3
_ _ _ _ _ _ _ _ _ _ _ _ _ _ _ _ _ _ _ _ _ _ _
 72
    65
 73
     2
 40
0.375
 49
0.25
 49
-0.125
  0
ENDTAB
  0
TABLE
  2
LAYER
 70
     5
  0
LAYER
  2
0
 70
     0
 62
     7
  6
CONTINUOUS
  0
LAYER
  2
1
 70
     0
 62
     1
  6
CENTER
  0
LAYER
  2
3
 70
     0
 62
     3
  6
CONTINUOUS
  0
LAYER
  2
2
 70
     0
 62
     2
  6
HIDDEN
  0
LAYER
  2
DEFPOINTS
 70
     0
 62
     7
  6
CONTINUOUS
  0
ENDTAB
  0
TABLE
  2
STYLE
 70
     2
  0
STYLE
  2
STANDARD
 70
     0
 40
0.0
 41
1.0
 50
0.0
 71
     0
 42
0.2
  3
TXT
  4
BIGFONT
  0
STYLE
  2
STANDARD1
 70
     0
 40
0.0
 41
1.0
 50
0.0
 71
     0
 42
3.0
  3
txt
  4

  0
ENDTAB
  0
TABLE
  2
VIEW
 70
     1
  0
VIEW
  2
ALL
 70
     0
 40
179.5384664489153
 10
146.94997169852391
 20
89.769233224457665
 41
0.0
 11
0.0
 21
0.0
 31
1.0
 12
0.0
 22
0.0
 32
0.0
 42
0.0
 43
0.0
 44
0.0
 50
0.0
 71
     0
  0
ENDTAB
  0
TABLE
  2
UCS
 70
     0
  0
ENDTAB
  0
TABLE
  2
APPID
 70
     6
  0
APPID
  2
ACAD
 70
     0
  0
APPID
  2
ACAD_MLEADERVER
 70
     0
  0
APPID
  2
ACAD_EXEMPT_FROM_CAD_STANDARDS
 70
     0
  0
APPID
  2
ACAD_NAV_VCDISPLAY
 70
     0
  0
APPID
  2
ACAD_DSTYLE_DIMJAG
 70
     0
  0
APPID
  2
ACAD_DSTYLE_DIMTALN
 70
     0
  0
ENDTAB
  0
TABLE
  2
DIMSTYLE
 70
     1
  0
DIMSTYLE
  2
STANDARD
 70
     0
  3

  4

  5

  6

  7

 40
1.0
 41
0.18
 42
0.0625
 43
0.38
 44
0.18
 45
0.0
 46
0.0
 47
0.0
 48
0.0
140
0.18
141
0.09
142
0.0
143
25.399999999999999
144
1.0
145
0.0
146
1.0
147
0.09
 71
     0
 72
     0
 73
     1
 74
     1
 75
     0
 76
     0
 77
     0
 78
     0
170
     0
171
     2
172
     0
173
     0
174
     0
175
     0
176
     0
177
     0
178
     0
  0
ENDTAB
  0
ENDSEC
  0
SECTION
  2
BLOCKS
  0
BLOCK
  8
0
  2
$MODEL_SPACE
 70
     0
 10
0.0
 20
0.0
 30
0.0
  3
$MODEL_SPACE
  1

  0
ENDBLK
  5
131
  8
0
  0
BLOCK
 67
     1
  8
0
  2
$PAPER_SPACE
 70
     0
 10
0.0
 20
0.0
 30
0.0
  3
$PAPER_SPACE
  1

  0
ENDBLK
  5
12F
 67
     1
  8
0
  0
ENDSEC
  0
SECTION
  2
ENTITIES
  0
TEXT
  5
223
  8
0
 62
     3
 10
0.0
 20
0.0
 30
0.0
 40
10.0
  1
MPN-3/8HT
  7
STANDARD1
  0
LINE
  5
5DF
  8
1
 10
81.700000000000017
 20
42.099999999999987
 30
0.0
 11
125.2
 21
42.099999999999987
 31
0.0
  0
LINE
  5
5E0
  8
0
 10
122.7
 20
46.099999999999987
 30
0.0
 11
122.7
 21
38.100000000000001
 31
0.0
  0
LINE
  5
5E1
  8
0
 10
105.7
 20
38.100000000000001
 30
0.0
 11
122.7
 21
38.100000000000001
 31
0.0
  0
LINE
  5
5E2
  8
0
 10
122.7
 20
46.099999999999987
 30
0.0
 11
105.7
 21
46.099999999999987
 31
0.0
  0
LINE
  5
5E3
  8
0
 10
84.835085296108645
 20
54.199999999999989
 30
0.0
 11
84.200000000000017
 21
53.099999999999987
 31
0.0
  0
LINE
  5
5E4
  8
0
 10
84.200000000000017
 20
53.099999999999987
 30
0.0
 11
84.200000000000017
 21
31.100000000000001
 31
0.0
  0
LINE
  5
5E5
  8
0
 10
84.200000000000017
 20
31.100000000000001
 30
0.0
 11
84.835085296108645
 21
30.0
 31
0.0
  0
LINE
  5
5E6
  8
0
 10
100.7
 20
36.5
 30
0.0
 11
105.45
 21
36.5
 31
0.0
  0
LINE
  5
5E7
  8
0
 10
105.45
 20
47.699999999999982
 30
0.0
 11
100.7
 21
47.699999999999982
 31
0.0
  0
LINE
  5
5E8
  8
0
 10
105.7
 20
47.449999999999989
 30
0.0
 11
105.7
 21
36.75
 31
0.0
  0
LINE
  5
5E9
  8
0
 10
105.45
 20
47.699999999999982
 30
0.0
 11
105.45
 21
36.5
 31
0.0
  0
LINE
  5
5EA
  8
0
 10
105.7
 20
47.449999999999989
 30
0.0
 11
105.45
 21
47.699999999999982
 31
0.0
  0
LINE
  5
5EB
  8
0
 10
105.45
 20
36.5
 30
0.0
 11
105.7
 21
36.75
 31
0.0
  0
LINE
  5
5EC
  8
0
 10
92.200000000000017
 20
35.43519999999998
 30
0.0
 11
92.700000000000017
 21
35.43519999999998
 31
0.0
  0
LINE
  5
5ED
  8
0
 10
92.700000000000017
 20
48.764800000000001
 30
0.0
 11
92.200000000000017
 21
48.764800000000001
 31
0.0
  0
LINE
  5
5EE
  8
0
 10
92.700000000000017
 20
50.431000000000012
 30
0.0
 11
92.700000000000017
 21
33.769000000000013
 31
0.0
  0
LINE
  5
5EF
  8
0
 10
92.700000000000017
 20
33.769000000000013
 30
0.0
 11
99.700000000000017
 21
33.769000000000013
 31
0.0
  0
LINE
  5
5F0
  8
0
 10
99.700000000000017
 20
50.431000000000012
 30
0.0
 11
92.700000000000017
 21
50.431000000000012
 31
0.0
  0
LINE
  5
5F1
  8
0
 10
100.7
 20
49.431000000000012
 30
0.0
 11
100.7
 21
34.768999999999998
 31
0.0
  0
LINE
  5
5F2
  8
0
 10
99.700000000000017
 20
50.431000000000012
 30
0.0
 11
99.700000000000017
 21
33.769000000000013
 31
0.0
  0
LINE
  5
5F3
  8
0
 10
100.7
 20
49.431000000000012
 30
0.0
 11
99.700000000000017
 21
50.431000000000012
 31
0.0
  0
LINE
  5
5F4
  8
0
 10
99.700000000000017
 20
33.769000000000013
 30
0.0
 11
100.7
 21
34.768999999999998
 31
0.0
  0
LINE
  5
5F5
  8
0
 10
92.200000000000017
 20
51.164333333333332
 30
0.0
 11
92.200000000000017
 21
33.035666666666657
 31
0.0
  0
LINE
  5
5F6
  8
0
 10
91.700000000000017
 20
33.035666666666657
 30
0.0
 11
92.200000000000017
 21
33.035666666666657
 31
0.0
  0
LINE
  5
5F7
  8
0
 10
92.200000000000017
 20
51.164333333333332
 30
0.0
 11
91.700000000000017
 21
51.164333333333332
 31
0.0
  0
POLYLINE
  5
5F8
  8
0
 66
     1
 10
0.0
 20
0.0
 30
0.0
  0
VERTEX
  5
9F0
  8
0
 10
84.200000000000017
 20
51.626279441628839
 30
0.0
  0
VERTEX
  5
9F1
  8
0
 10
84.214529174476155
 20
51.998525729452979
 30
0.0
  0
VERTEX
  5
9F2
  8
0
 10
84.257919068478571
 20
52.370772017277119
 30
0.0
  0
VERTEX
  5
9F3
  8
0
 10
84.347236551193731
 20
52.817295460528271
 30
0.0
  0
VERTEX
  5
9F4
  8
0
 10
84.474752595688443
 20
53.261512374720859
 30
0.0
  0
VERTEX
  5
9F5
  8
0
 10
84.63877190532699
 20
53.705737088280529
 30
0.0
  0
VERTEX
  5
9F6
  8
0
 10
84.835085296108645
 20
54.146696073854542
 30
0.0
  0
SEQEND
  5
9F7
  8
0
  0
POLYLINE
  5
5F9
  8
0
 66
     1
 10
0.0
 20
0.0
 30
0.0
  0
VERTEX
  5
9F8
  8
0
 10
84.835085296108645
 20
30.05330392614545
 30
0.0
  0
VERTEX
  5
9F9
  8
0
 10
84.569467045336665
 20
30.67055852072378
 30
0.0
  0
VERTEX
  5
9FA
  8
0
 10
84.369208850176022
 20
31.29567340861232
 30
0.0
  0
VERTEX
  5
9FB
  8
0
 10
84.296105166961723
 20
31.613333230233849
 30
0.0
  0
VERTEX
  5
9FC
  8
0
 10
84.243084343344904
 20
31.93198409396885
 30
0.0
  0
VERTEX
  5
9FD
  8
0
 10
84.210825292096359
 20
32.25267325726989
 30
0.0
  0
VERTEX
  5
9FE
  8
0
 10
84.200000000000017
 20
32.573720558371178
 30
0.0
  0
SEQEND
  5
9FF
  8
0
  0
POLYLINE
  5
5FA
  8
0
 66
     1
 10
0.0
 20
0.0
 30
0.0
  0
VERTEX
  5
A00
  8
0
 10
84.200000000000017
 20
42.099999999999987
 30
0.0
  0
VERTEX
  5
A01
  8
0
 10
84.236254166685939
 20
43.277035422109847
 30
0.0
  0
VERTEX
  5
A02
  8
0
 10
84.34380252219691
 20
44.454070844219721
 30
0.0
  0
VERTEX
  5
A03
  8
0
 10
84.519851854454345
 20
45.63481374448682
 30
0.0
  0
VERTEX
  5
A04
  8
0
 10
84.757272644759809
 20
46.808141688439463
 30
0.0
  0
VERTEX
  5
A05
  8
0
 10
84.835085296108645
 20
47.14083326445143
 30
0.0
  0
SEQEND
  5
A06
  8
0
  0
POLYLINE
  5
5FB
  8
0
 66
     1
 10
0.0
 20
0.0
 30
0.0
  0
VERTEX
  5
A07
  8
0
 10
84.835085296108645
 20
49.105862809403114
 30
0.0
  0
VERTEX
  5
A08
  8
0
 10
84.569467045336665
 20
49.723117403981441
 30
0.0
  0
VERTEX
  5
A09
  8
0
 10
84.369208850176022
 20
50.348232291869969
 30
0.0
  0
VERTEX
  5
A0A
  8
0
 10
84.296105166961723
 20
50.665892113491509
 30
0.0
  0
VERTEX
  5
A0B
  8
0
 10
84.243084343344904
 20
50.984542977226482
 30
0.0
  0
VERTEX
  5
A0C
  8
0
 10
84.210825292096359
 20
51.305232140527551
 30
0.0
  0
VERTEX
  5
A0D
  8
0
 10
84.200000000000017
 20
51.626279441628839
 30
0.0
  0
SEQEND
  5
A0E
  8
0
  0
POLYLINE
  5
5FC
  8
0
 66
     1
 10
0.0
 20
0.0
 30
0.0
  0
VERTEX
  5
A0F
  8
0
 10
84.200000000000017
 20
32.573720558371178
 30
0.0
  0
VERTEX
  5
A10
  8
0
 10
84.214529174476155
 20
32.945966846195319
 30
0.0
  0
VERTEX
  5
A11
  8
0
 10
84.257919068478571
 20
33.318213134019487
 30
0.0
  0
VERTEX
  5
A12
  8
0
 10
84.347236551193731
 20
33.764736577270611
 30
0.0
  0
VERTEX
  5
A13
  8
0
 10
84.474752595688443
 20
34.208953491463241
 30
0.0
  0
VERTEX
  5
A14
  8
0
 10
84.63877190532699
 20
34.653178205022897
 30
0.0
  0
VERTEX
  5
A15
  8
0
 10
84.835085296108645
 20
35.094137190596889
 30
0.0
  0
SEQEND
  5
A16
  8
0
  0
POLYLINE
  5
5FD
  8
0
 66
     1
 10
0.0
 20
0.0
 30
0.0
  0
VERTEX
  5
A17
  8
0
 10
84.835085296108645
 20
37.059166735548558
 30
0.0
  0
VERTEX
  5
A18
  8
0
 10
84.653449390133432
 20
37.869715907557861
 30
0.0
  0
VERTEX
  5
A19
  8
0
 10
84.498873039374487
 20
38.68582841034646
 30
0.0
  0
VERTEX
  5
A1A
  8
0
 10
84.373530311580666
 20
39.511225867043493
 30
0.0
  0
VERTEX
  5
A1B
  8
0
 10
84.280696917260883
 20
40.340880472228463
 30
0.0
  0
VERTEX
  5
A1C
  8
0
 10
84.220354026470062
 20
41.218617316459017
 30
0.0
  0
VERTEX
  5
A1D
  8
0
 10
84.200000000000017
 20
42.099999999999987
 30
0.0
  0
SEQEND
  5
A1E
  8
0
  0
LINE
  5
5FE
  8
0
 10
91.700000000000017
 20
54.199999999999989
 30
0.0
 11
91.700000000000017
 21
30.0
 31
0.0
  0
LINE
  5
5FF
  8
0
 10
90.200000000000017
 20
47.14083326445143
 30
0.0
 11
90.200000000000017
 21
37.059166735548558
 31
0.0
  0
LINE
  5
600
  8
0
 10
84.835085296108645
 20
54.146696073854542
 30
0.0
 11
90.200000000000017
 21
54.146696073854542
 31
0.0
  0
LINE
  5
601
  8
0
 10
90.200000000000017
 20
54.146696073854542
 30
0.0
 11
90.200000000000017
 21
49.105862809403114
 31
0.0
  0
LINE
  5
602
  8
0
 10
90.200000000000017
 20
49.105862809403114
 30
0.0
 11
84.835085296108645
 21
49.105862809403114
 31
0.0
  0
LINE
  5
603
  8
0
 10
84.835085296108645
 20
49.105862809403114
 30
0.0
 11
84.835085296108645
 21
47.14083326445143
 31
0.0
  0
LINE
  5
604
  8
0
 10
84.835085296108645
 20
47.14083326445143
 30
0.0
 11
90.200000000000017
 21
47.14083326445143
 31
0.0
  0
LINE
  5
605
  8
0
 10
90.200000000000017
 20
37.059166735548558
 30
0.0
 11
84.835085296108645
 21
37.059166735548558
 31
0.0
  0
LINE
  5
606
  8
0
 10
84.835085296108645
 20
37.059166735548558
 30
0.0
 11
84.835085296108645
 21
35.094137190596889
 31
0.0
  0
LINE
  5
607
  8
0
 10
84.835085296108645
 20
35.094137190596889
 30
0.0
 11
90.200000000000017
 21
35.094137190596889
 31
0.0
  0
LINE
  5
608
  8
0
 10
90.200000000000017
 20
35.094137190596889
 30
0.0
 11
90.200000000000017
 21
30.05330392614545
 31
0.0
  0
LINE
  5
609
  8
0
 10
90.200000000000017
 20
30.05330392614545
 30
0.0
 11
84.835085296108645
 21
30.05330392614545
 31
0.0
  0
LINE
  5
60A
  8
0
 10
84.835085296108645
 20
30.05330392614545
 30
0.0
 11
84.835085296108645
 21
30.0
 31
0.0
  0
LINE
  5
60B
  8
0
 10
84.835085296108645
 20
30.0
 30
0.0
 11
91.700000000000017
 21
30.0
 31
0.0
  0
LINE
  5
60C
  8
0
 10
91.700000000000017
 20
54.199999999999989
 30
0.0
 11
84.835085296108645
 21
54.199999999999989
 31
0.0
  0
LINE
  5
60D
  8
0
 10
84.835085296108645
 20
54.199999999999989
 30
0.0
 11
84.835085296108645
 21
54.146696073854542
 31
0.0
  0
LINE
  5
60E
  8
3
 10
100.556
 20
49.574999999999989
 30
0.0
 11
92.700000000000017
 21
49.574999999999989
 31
0.0
  0
LINE
  5
60F
  8
3
 10
100.556
 20
34.625
 30
0.0
 11
92.700000000000017
 21
34.625
 31
0.0
  0
LINE
  5
614
  8
1
 10
81.700000000000017
 20
96.300000000000026
 30
0.0
 11
125.2
 21
96.300000000000026
 31
0.0
  0
LINE
  5
615
  8
0
 10
105.7
 20
92.300000000000026
 30
0.0
 11
122.7
 21
92.300000000000026
 31
0.0
  0
LINE
  5
616
  8
0
 10
122.7
 20
100.3
 30
0.0
 11
105.7
 21
100.3
 31
0.0
  0
LINE
  5
617
  8
0
 10
122.7
 20
100.3
 30
0.0
 11
122.7
 21
92.300000000000026
 31
0.0
  0
LINE
  5
618
  8
0
 10
100.7
 20
90.699999999999974
 30
0.0
 11
105.45
 21
90.699999999999974
 31
0.0
  0
LINE
  5
619
  8
0
 10
105.45
 20
101.90000000000001
 30
0.0
 11
100.7
 21
101.90000000000001
 31
0.0
  0
LINE
  5
61A
  8
0
 10
105.7
 20
101.65000000000001
 30
0.0
 11
105.45
 21
101.90000000000001
 31
0.0
  0
LINE
  5
61B
  8
0
 10
105.45
 20
90.699999999999974
 30
0.0
 11
105.7
 21
90.949999999999974
 31
0.0
  0
LINE
  5
61C
  8
0
 10
105.7
 20
101.65000000000001
 30
0.0
 11
105.7
 21
90.949999999999974
 31
0.0
  0
LINE
  5
61D
  8
0
 10
105.45
 20
101.90000000000001
 30
0.0
 11
105.45
 21
90.699999999999974
 31
0.0
  0
LINE
  5
61E
  8
0
 10
92.200000000000017
 20
89.635199999999998
 30
0.0
 11
92.700000000000017
 21
89.635199999999998
 31
0.0
  0
LINE
  5
61F
  8
0
 10
92.700000000000017
 20
102.9648
 30
0.0
 11
92.200000000000017
 21
102.9648
 31
0.0
  0
LINE
  5
620
  8
0
 10
100.7
 20
103.631
 30
0.0
 11
99.700000000000017
 21
104.631
 31
0.0
  0
LINE
  5
621
  8
0
 10
99.700000000000017
 20
87.968999999999994
 30
0.0
 11
100.7
 21
88.968999999999994
 31
0.0
  0
LINE
  5
622
  8
0
 10
100.7
 20
103.631
 30
0.0
 11
100.7
 21
88.968999999999994
 31
0.0
  0
LINE
  5
623
  8
0
 10
92.700000000000017
 20
87.968999999999994
 30
0.0
 11
99.700000000000017
 21
87.968999999999994
 31
0.0
  0
LINE
  5
624
  8
0
 10
99.700000000000017
 20
104.631
 30
0.0
 11
92.700000000000017
 21
104.631
 31
0.0
  0
LINE
  5
625
  8
0
 10
99.700000000000017
 20
104.631
 30
0.0
 11
99.700000000000017
 21
87.968999999999994
 31
0.0
  0
LINE
  5
626
  8
0
 10
92.700000000000017
 20
104.631
 30
0.0
 11
92.700000000000017
 21
87.968999999999994
 31
0.0
  0
LINE
  5
627
  8
0
 10
91.700000000000017
 20
87.235666666666646
 30
0.0
 11
92.200000000000017
 21
87.235666666666646
 31
0.0
  0
LINE
  5
628
  8
0
 10
92.200000000000017
 20
105.36433333333331
 30
0.0
 11
91.700000000000017
 21
105.36433333333331
 31
0.0
  0
LINE
  5
629
  8
0
 10
92.200000000000017
 20
105.36433333333331
 30
0.0
 11
92.200000000000017
 21
87.235666666666646
 31
0.0
  0
LINE
  5
62A
  8
0
 10
90.200000000000017
 20
107.3
 30
0.0
 11
84.200000000000017
 21
107.3
 31
0.0
  0
LINE
  5
62B
  8
0
 10
84.200000000000017
 20
107.3
 30
0.0
 11
84.200000000000017
 21
85.300000000000011
 31
0.0
  0
LINE
  5
62C
  8
0
 10
84.200000000000017
 20
85.300000000000011
 30
0.0
 11
90.200000000000017
 21
85.300000000000011
 31
0.0
  0
POLYLINE
  5
62D
  8
0
 66
     1
 10
0.0
 20
0.0
 30
0.0
  0
VERTEX
  5
A1F
  8
0
 10
84.200000000000017
 20
101.8
 30
0.0
  0
VERTEX
  5
A20
  8
0
 10
84.214529174476155
 20
102.4447494834404
 30
0.0
  0
VERTEX
  5
A21
  8
0
 10
84.257919068478571
 20
103.0894989668807
 30
0.0
  0
VERTEX
  5
A22
  8
0
 10
84.347236551193731
 20
103.8629002573622
 30
0.0
  0
VERTEX
  5
A23
  8
0
 10
84.474752595688443
 20
104.63230652232529
 30
0.0
  0
VERTEX
  5
A24
  8
0
 10
84.63877190532699
 20
105.4017262961884
 30
0.0
  0
VERTEX
  5
A25
  8
0
 10
84.835085296108574
 20
106.16548966325649
 30
0.0
  0
SEQEND
  5
A26
  8
0
  0
POLYLINE
  5
62E
  8
0
 66
     1
 10
0.0
 20
0.0
 30
0.0
  0
VERTEX
  5
A27
  8
0
 10
84.835085296108574
 20
86.434510336743415
 30
0.0
  0
VERTEX
  5
A28
  8
0
 10
84.569195110866843
 20
87.505152741427466
 30
0.0
  0
VERTEX
  5
A29
  8
0
 10
84.369208850176022
 20
88.586357402149076
 30
0.0
  0
VERTEX
  5
A2A
  8
0
 10
84.276164294149524
 20
89.321826315488394
 30
0.0
  0
VERTEX
  5
A2B
  8
0
 10
84.219281163721888
 20
90.060374823022642
 30
0.0
  0
VERTEX
  5
A2C
  8
0
 10
84.200000000000017
 20
90.800000000000011
 30
0.0
  0
SEQEND
  5
A2D
  8
0
  0
LINE
  5
62F
  8
0
 10
84.835085296108574
 20
107.3
 30
0.0
 11
84.835085296108574
 21
106.16548966325649
 31
0.0
  0
LINE
  5
630
  8
0
 10
84.835085296108574
 20
106.16548966325649
 30
0.0
 11
90.200000000000017
 21
106.16548966325659
 31
0.0
  0
LINE
  5
631
  8
0
 10
90.200000000000017
 20
106.16548966325659
 30
0.0
 11
90.200000000000017
 21
97.434510336743415
 31
0.0
  0
LINE
  5
632
  8
0
 10
90.200000000000017
 20
97.434510336743415
 30
0.0
 11
84.835085296108574
 21
97.434510336743472
 31
0.0
  0
LINE
  5
633
  8
0
 10
84.835085296108574
 20
95.165489663256608
 30
0.0
 11
90.200000000000017
 21
95.165489663256608
 31
0.0
  0
LINE
  5
634
  8
0
 10
90.200000000000017
 20
95.165489663256608
 30
0.0
 11
90.200000000000017
 21
86.434510336743472
 31
0.0
  0
LINE
  5
635
  8
0
 10
90.200000000000017
 20
86.434510336743472
 30
0.0
 11
84.835085296108574
 21
86.434510336743415
 31
0.0
  0
LINE
  5
636
  8
0
 10
84.835085296108574
 20
86.434510336743415
 30
0.0
 11
84.835085296108574
 21
85.300000000000011
 31
0.0
  0
LINE
  5
637
  8
0
 10
90.200000000000017
 20
85.300000000000011
 30
0.0
 11
90.200000000000017
 21
84.199999999999989
 31
0.0
  0
LINE
  5
638
  8
0
 10
90.200000000000017
 20
84.199999999999989
 30
0.0
 11
91.700000000000017
 21
84.199999999999989
 31
0.0
  0
LINE
  5
639
  8
0
 10
91.700000000000017
 20
108.40000000000001
 30
0.0
 11
90.200000000000017
 21
108.40000000000001
 31
0.0
  0
LINE
  5
63A
  8
0
 10
91.700000000000017
 20
108.40000000000001
 30
0.0
 11
91.700000000000017
 21
84.199999999999989
 31
0.0
  0
LINE
  5
63B
  8
0
 10
90.200000000000017
 20
108.40000000000001
 30
0.0
 11
90.200000000000017
 21
107.3
 31
0.0
  0
LINE
  5
63C
  8
0
 10
84.835085296108574
 20
97.434510336743472
 30
0.0
 11
84.835085296108574
 21
95.165489663256608
 31
0.0
  0
POLYLINE
  5
63D
  8
0
 66
     1
 10
0.0
 20
0.0
 30
0.0
  0
VERTEX
  5
A2E
  8
0
 10
84.835085296108574
 20
97.434510336743472
 30
0.0
  0
VERTEX
  5
A2F
  8
0
 10
84.569195110866843
 20
98.505152741427494
 30
0.0
  0
VERTEX
  5
A30
  8
0
 10
84.369208850176022
 20
99.58635740214909
 30
0.0
  0
VERTEX
  5
A31
  8
0
 10
84.276164294149524
 20
100.32182631548839
 30
0.0
  0
VERTEX
  5
A32
  8
0
 10
84.219281163721888
 20
101.0603748230226
 30
0.0
  0
VERTEX
  5
A33
  8
0
 10
84.200000000000017
 20
101.8
 30
0.0
  0
SEQEND
  5
A34
  8
0
  0
POLYLINE
  5
63E
  8
0
 66
     1
 10
0.0
 20
0.0
 30
0.0
  0
VERTEX
  5
A35
  8
0
 10
84.200000000000017
 20
90.800000000000011
 30
0.0
  0
VERTEX
  5
A36
  8
0
 10
84.214529174476155
 20
91.444749483440376
 30
0.0
  0
VERTEX
  5
A37
  8
0
 10
84.257919068478571
 20
92.089498966880683
 30
0.0
  0
VERTEX
  5
A38
  8
0
 10
84.347236551193731
 20
92.862900257362298
 30
0.0
  0
VERTEX
  5
A39
  8
0
 10
84.474752595688443
 20
93.632306522325337
 30
0.0
  0
VERTEX
  5
A3A
  8
0
 10
84.63877190532699
 20
94.401726296188414
 30
0.0
  0
VERTEX
  5
A3B
  8
0
 10
84.835085296108574
 20
95.165489663256608
 30
0.0
  0
SEQEND
  5
A3C
  8
0
  0
LINE
  5
63F
  8
3
 10
100.556
 20
103.77500000000001
 30
0.0
 11
92.700000000000017
 21
103.77500000000001
 31
0.0
  0
LINE
  5
640
  8
3
 10
100.556
 20
88.825000000000017
 30
0.0
 11
92.700000000000017
 21
88.825000000000017
 31
0.0
  0
LINE
  5
641
  8
0
 10
37.059166735548587
 20
85.300000000000011
 30
0.0
 11
47.140833264451402
 21
85.300000000000011
 31
0.0
  0
LINE
  5
642
  8
0
 10
49.105862809403071
 20
86.434510336743415
 30
0.0
 11
54.146696073854542
 21
95.165489663256608
 31
0.0
  0
LINE
  5
643
  8
0
 10
54.146696073854542
 20
97.434510336743415
 30
0.0
 11
49.105862809403071
 21
106.16548966325659
 31
0.0
  0
LINE
  5
644
  8
0
 10
47.140833264451402
 20
107.3
 30
0.0
 11
37.059166735548587
 21
107.3
 31
0.0
  0
LINE
  5
645
  8
0
 10
35.094137190596911
 20
106.16548966325659
 30
0.0
 11
30.05330392614545
 21
97.434510336743415
 31
0.0
  0
LINE
  5
646
  8
0
 10
30.05330392614545
 20
95.165489663256608
 30
0.0
 11
35.094137190596911
 21
86.434510336743429
 31
0.0
  0
CIRCLE
  5
647
  8
0
 10
42.099999999999987
 20
96.300000000000026
 30
0.0
 40
6.6647999999999987
  0
CIRCLE
  5
648
  8
0
 10
42.099999999999987
 20
96.300000000000026
 30
0.0
 40
10.99999999999997
  0
LINE
  5
649
  8
1
 10
27.5
 20
96.300000000000026
 30
0.0
 11
56.70000000000001
 21
96.300000000000026
 31
0.0
  0
LINE
  5
64A
  8
1
 10
42.099999999999987
 20
81.700000000000017
 30
0.0
 11
42.099999999999987
 21
110.90000000000001
 31
0.0
  0
CIRCLE
  5
64B
  8
0
 10
42.099999999999987
 20
96.300000000000026
 30
0.0
 40
12.1
  0
LINE
  5
6F4
  8
1
 10
150.19999999999999
 20
96.300000000000026
 30
0.0
 11
179.40000000000001
 21
96.300000000000026
 31
0.0
  0
LINE
  5
6F5
  8
1
 10
164.80000000000001
 20
81.700000000000017
 30
0.0
 11
164.80000000000001
 21
110.90000000000001
 31
0.0
  0
CIRCLE
  5
6F6
  8
0
 10
164.80000000000001
 20
96.300000000000026
 30
0.0
 40
12.1
  0
CIRCLE
  5
6F7
  8
0
 10
164.80000000000001
 20
96.300000000000026
 30
0.0
 40
9.064333333333332
  0
CIRCLE
  5
6F9
  8
0
 10
164.80000000000001
 20
96.300000000000026
 30
0.0
 40
8.3309999999999995
  0
CIRCLE
  5
6FA
  8
0
 10
164.80000000000001
 20
96.300000000000026
 30
0.0
 40
5.5999999999999988
  0
CIRCLE
  5
6FC
  8
0
 10
164.80000000000001
 20
96.300000000000026
 30
0.0
 40
4.0
  0
CIRCLE
  5
7CE
  8
3
 10
164.80000000000001
 20
96.300000000000026
 30
0.0
 40
7.4749999999999943
  0
ENDSEC
  0
EOF
