  0
SECTION
  2
HEADER
  9
$ACADVER
  1
AC1009
  9
$INSBASE
 10
0.0
 20
0.0
 30
0.0
  9
$EXTMIN
 10
0.0
 20
-2.960436562073669
 30
0.0
  9
$EXTMAX
 10
160.2649654679004
 20
111.01191435387121
 30
0.0
  9
$LIMMIN
 10
0.0
 20
0.0
  9
$LIMMAX
 10
187.5
 20
135.0
  9
$ORTHOMODE
 70
     1
  9
$REGENMODE
 70
     1
  9
$FILLMODE
 70
     1
  9
$QTEXTMODE
 70
     0
  9
$MIRRTEXT
 70
     0
  9
$DRAGMODE
 70
     2
  9
$LTSCALE
 40
5.0
  9
$OSMODE
 70
  3071
  9
$ATTMODE
 70
     1
  9
$TEXTSIZE
 40
4.000000000000048
  9
$TRACEWID
 40
0.05
  9
$TEXTSTYLE
  7
STANDARD
  9
$CLAYER
  8
0
  9
$CELTYPE
  6
BYLAYER
  9
$CECOLOR
 62
   256
  9
$DIMSCALE
 40
0.5
  9
$DIMASZ
 40
3.0
  9
$DIMEXO
 40
2.0
  9
$DIMDLI
 40
0.38
  9
$DIMRND
 40
0.0
  9
$DIMDLE
 40
0.0
  9
$DIMEXE
 40
2.0
  9
$DIMTP
 40
0.0
  9
$DIMTM
 40
0.0
  9
$DIMTXT
 40
3.2000000000000002
  9
$DIMCEN
 40
0.0
  9
$DIMTSZ
 40
0.0
  9
$DIMTOL
 70
     0
  9
$DIMLIM
 70
     0
  9
$DIMTIH
 70
     0
  9
$DIMTOH
 70
     0
  9
$DIMSE1
 70
     0
  9
$DIMSE2
 70
     0
  9
$DIMTAD
 70
     1
  9
$DIMZIN
 70
     0
  9
$DIMBLK
  1

  9
$DIMASO
 70
     0
  9
$DIMSHO
 70
     0
  9
$DIMPOST
  1

  9
$DIMAPOST
  1

  9
$DIMALT
 70
     0
  9
$DIMALTD
 70
     2
  9
$DIMALTF
 40
25.399999999999999
  9
$DIMLFAC
 40
1.0
  9
$DIMTOFL
 70
     1
  9
$DIMTVP
 40
1.6000000000000001
  9
$DIMTIX
 70
     1
  9
$DIMSOXD
 70
     0
  9
$DIMSAH
 70
     0
  9
$DIMBLK1
  1

  9
$DIMBLK2
  1

  9
$DIMSTYLE
  2
STANDARD
  9
$DIMCLRD
 70
     0
  9
$DIMCLRE
 70
     0
  9
$DIMCLRT
 70
     0
  9
$DIMTFAC
 40
1.0
  9
$DIMGAP
 40
0.09
  9
$LUNITS
 70
     2
  9
$LUPREC
 70
     4
  9
$SKETCHINC
 40
0.1
  9
$FILLETRAD
 40
3.0
  9
$AUNITS
 70
     0
  9
$AUPREC
 70
     4
  9
$MENU
  1
E:\r13\win\SUPPORT\ACAD
  9
$ELEVATION
 40
0.0
  9
$PELEVATION
 40
0.0
  9
$THICKNESS
 40
0.0
  9
$LIMCHECK
 70
     0
  9
$BLIPMODE
 70
     0
  9
$CHAMFERA
 40
0.0
  9
$CHAMFERB
 40
0.0
  9
$SKPOLY
 70
     0
  9
$TDCREATE
 40
2449840.6472569439
  9
$TDUPDATE
 40
2456597.6697386
  9
$TDINDWG
 40
0.0408813889
  9
$TDUSRTIMER
 40
0.0408813889
  9
$USRTIMER
 70
     1
  9
$ANGBASE
 50
0.0
  9
$ANGDIR
 70
     0
  9
$PDMODE
 70
     0
  9
$PDSIZE
 40
0.0
  9
$PLINEWID
 40
0.0
  9
$COORDS
 70
     1
  9
$SPLFRAME
 70
     0
  9
$SPLINETYPE
 70
     6
  9
$SPLINESEGS
 70
     8
  9
$ATTDIA
 70
     0
  9
$ATTREQ
 70
     1
  9
$HANDLING
 70
     1
  9
$HANDSEED
  5
320
  9
$SURFTAB1
 70
     6
  9
$SURFTAB2
 70
     6
  9
$SURFTYPE
 70
     6
  9
$SURFU
 70
     6
  9
$SURFV
 70
     6
  9
$UCSNAME
  2

  9
$UCSORG
 10
0.0
 20
0.0
 30
0.0
  9
$UCSXDIR
 10
1.0
 20
0.0
 30
0.0
  9
$UCSYDIR
 10
0.0
 20
1.0
 30
0.0
  9
$PUCSNAME
  2

  9
$PUCSORG
 10
0.0
 20
0.0
 30
0.0
  9
$PUCSXDIR
 10
1.0
 20
0.0
 30
0.0
  9
$PUCSYDIR
 10
0.0
 20
1.0
 30
0.0
  9
$USERI1
 70
     0
  9
$USERI2
 70
     1
  9
$USERI3
 70
     0
  9
$USERI4
 70
     0
  9
$USERI5
 70
     0
  9
$USERR1
 40
0.0
  9
$USERR2
 40
0.0
  9
$USERR3
 40
0.0
  9
$USERR4
 40
0.0
  9
$USERR5
 40
0.0
  9
$WORLDVIEW
 70
     1
  9
$SHADEDGE
 70
     3
  9
$SHADEDIF
 70
    70
  9
$TILEMODE
 70
     1
  9
$MAXACTVP
 70
    16
  9
$PLIMCHECK
 70
     0
  9
$PEXTMIN
 10
1.0000000000000000E+020
 20
1.0000000000000000E+020
 30
1.0000000000000000E+020
  9
$PEXTMAX
 10
-1.0000000000000000E+020
 20
-1.0000000000000000E+020
 30
-1.0000000000000000E+020
  9
$PLIMMIN
 10
0.0
 20
0.0
  9
$PLIMMAX
 10
12.0
 20
9.0
  9
$UNITMODE
 70
     0
  9
$VISRETAIN
 70
     0
  9
$PLINEGEN
 70
     0
  9
$PSLTSCALE
 70
     0
  0
ENDSEC
  0
SECTION
  2
TABLES
  0
TABLE
  2
VPORT
 70
     1
  0
VPORT
  2
*ACTIVE
 70
     0
 10
0.0
 20
0.0
 11
1.0
 21
1.0
 12
93.74713919532617
 22
66.313465060797697
 13
0.0
 23
0.0
 14
5.0
 24
5.0
 15
5.0
 25
5.0
 16
0.0
 26
0.0
 36
1.0
 17
0.0
 27
0.0
 37
0.0
 40
140.15365342376049
 41
2.304913294797688
 42
50.0
 43
0.0
 44
0.0
 50
0.0
 51
0.0
 71
     0
 72
   500
 73
     1
 74
     0
 75
     0
 76
     0
 77
     0
 78
     1
  0
ENDTAB
  0
TABLE
  2
LTYPE
 70
     3
  0
LTYPE
  2
CONTINUOUS
 70
     0
  3
Solid Line
 72
    65
 73
     0
 40
0.0
  0
LTYPE
  2
CENTER
 70
     0
  3
____ _ ____ _ ____ _ ____ _ ____ _ ____ _ ____
 72
    65
 73
     4
 40
2.0
 49
1.25
 49
-0.25
 49
0.25
 49
-0.25
  0
LTYPE
  2
PHANTOM2
 70
     0
  3
___ _ _ ___ _ _ ___ _ _ ___ _ _
 72
    65
 73
     6
 40
1.25
 49
0.625
 49
-0.125
 49
0.125
 49
-0.125
 49
0.125
 49
-0.125
  0
ENDTAB
  0
TABLE
  2
LAYER
 70
     3
  0
LAYER
  2
0
 70
     0
 62
     7
  6
CONTINUOUS
  0
LAYER
  2
1
 70
     0
 62
     1
  6
CENTER
  0
LAYER
  2
3
 70
     0
 62
     3
  6
CONTINUOUS
  0
ENDTAB
  0
TABLE
  2
STYLE
 70
     2
  0
STYLE
  2
STANDARD
 70
     0
 40
0.0
 41
1.0
 50
0.0
 71
     0
 42
4.000000000000048
  3
ROMANS
  4
BIGFONT
  0
STYLE
  2
STANDARD1
 70
     0
 40
0.0
 41
1.0
 50
0.0
 71
     0
 42
3.0
  3
txt
  4

  0
ENDTAB
  0
TABLE
  2
VIEW
 70
     1
  0
VIEW
  2
ALL
 70
     0
 40
175.0
 10
143.23529411764699
 20
87.5
 41
0.0
 11
0.0
 21
0.0
 31
1.0
 12
0.0
 22
0.0
 32
0.0
 42
0.0
 43
0.0
 44
0.0
 50
0.0
 71
     0
  0
ENDTAB
  0
TABLE
  2
UCS
 70
     0
  0
ENDTAB
  0
TABLE
  2
APPID
 70
     4
  0
APPID
  2
ACAD
 70
     0
  0
APPID
  2
ACAD_EXEMPT_FROM_CAD_STANDARDS
 70
     0
  0
APPID
  2
ACAD_MLEADERVER
 70
     0
  0
APPID
  2
ACAD_NAV_VCDISPLAY
 70
     0
  0
ENDTAB
  0
TABLE
  2
DIMSTYLE
 70
     1
  0
DIMSTYLE
  2
STANDARD
 70
     0
  3

  4

  5

  6

  7

 40
1.0
 41
0.18
 42
0.0625
 43
0.38
 44
0.18
 45
0.0
 46
0.0
 47
0.0
 48
0.0
140
0.18
141
0.09
142
0.0
143
25.399999999999999
144
1.0
145
0.0
146
1.0
147
0.09
 71
     0
 72
     0
 73
     1
 74
     1
 75
     0
 76
     0
 77
     0
 78
     0
170
     0
171
     2
172
     0
173
     0
174
     0
175
     0
176
     0
177
     0
178
     0
  0
ENDTAB
  0
ENDSEC
  0
SECTION
  2
BLOCKS
  0
BLOCK
  8
0
  2
$MODEL_SPACE
 70
     0
 10
0.0
 20
0.0
 30
0.0
  3
$MODEL_SPACE
  1

  0
ENDBLK
  5
12F
  8
0
  0
BLOCK
 67
     1
  8
0
  2
$PAPER_SPACE
 70
     0
 10
0.0
 20
0.0
 30
0.0
  3
$PAPER_SPACE
  1

  0
ENDBLK
  5
12D
 67
     1
  8
0
  0
ENDSEC
  0
SECTION
  2
ENTITIES
  0
LINE
  5
27
  8
1
 10
120.7633652974076
 20
111.01191435387121
 30
0.0
 11
120.7633652974076
 21
97.011914353871177
 31
0.0
  0
CIRCLE
  5
28
  8
0
 10
120.7633652974076
 20
104.01191435387121
 30
0.0
 40
4.0
  0
LINE
  5
29
  8
1
 10
58.906958836856653
 20
104.01191435387111
 30
0.0
 11
131.2633652974076
 21
104.01191435387111
 31
0.0
  0
LINE
  5
2A
  8
0
 10
126.7633652974076
 20
109.51191435387111
 30
0.0
 11
126.7633652974076
 21
98.511914353871134
 31
0.0
  0
LINE
  5
2B
  8
0
 10
63.76336529740766
 20
109.51191435387111
 30
0.0
 11
126.7633652974076
 21
109.51191435387111
 31
0.0
  0
LINE
  5
2C
  8
0
 10
63.763365297407631
 20
98.511914353871134
 30
0.0
 11
126.7633652974076
 21
98.511914353871134
 31
0.0
  0
LINE
  5
2D
  8
0
 10
63.763365297407667
 20
63.0682449902271
 30
0.0
 11
68.263365297406523
 21
63.0682449902271
 31
0.0
  0
LINE
  5
2E
  8
0
 10
126.7633652974076
 20
68.568244990226873
 30
0.0
 11
126.7633652974076
 21
63.068244990226923
 31
0.0
  0
LINE
  5
2F
  8
0
 10
63.763365297407667
 20
65.568244990227043
 30
0.0
 11
126.7633652974076
 21
65.568244990227072
 31
0.0
  0
LINE
  5
30
  8
0
 10
32.368107534102442
 20
63.068244990227051
 30
0.0
 11
36.368107534102442
 21
63.068244990227051
 31
0.0
  0
LINE
  5
31
  8
0
 10
32.368107534102442
 20
65.568244990227043
 30
0.0
 11
32.368107534102442
 21
59.268244990226961
 31
0.0
  0
LINE
  5
32
  8
0
 10
36.368107534102442
 20
65.568244990227043
 30
0.0
 11
36.368107534102442
 21
59.268244990226961
 31
0.0
  0
LINE
  5
33
  8
0
 10
28.86810753410241
 20
65.568244990227043
 30
0.0
 11
32.368107534102442
 21
65.568244990227043
 31
0.0
  0
LINE
  5
34
  8
0
 10
39.868107534102407
 20
78.068244990227058
 30
0.0
 11
39.868107534102442
 21
65.568244990227043
 31
0.0
  0
LINE
  5
35
  8
0
 10
28.86810753410241
 20
78.068244990227015
 30
0.0
 11
28.86810753410241
 21
65.568244990227043
 31
0.0
  0
LINE
  5
36
  8
0
 10
28.86810753410241
 20
78.068244990227015
 30
0.0
 11
39.868107534102407
 21
78.068244990227086
 31
0.0
  0
LINE
  5
37
  8
0
 10
63.763365297407603
 20
98.511914353871177
 30
0.0
 11
63.763365297407631
 21
109.51191435387111
 31
0.0
  0
LINE
  5
38
  8
0
 10
83.471569229907047
 20
78.068244990227058
 30
0.0
 11
107.0551613649079
 21
78.068244990227058
 31
0.0
  0
CIRCLE
  5
39
  8
0
 10
69.76336529740766
 20
104.01191435387121
 30
0.0
 40
4.0
  0
LINE
  5
3A
  8
1
 10
69.76336529740766
 20
111.01191435387121
 30
0.0
 11
69.76336529740766
 21
97.011914353871177
 31
0.0
  0
LINE
  5
3B
  8
0
 10
63.763365297407667
 20
68.568244990227043
 30
0.0
 11
63.763365297407667
 21
63.0682449902271
 31
0.0
  0
LINE
  5
3C
  8
0
 10
119.26336529740639
 20
65.568244990226944
 30
0.0
 11
119.26336529740639
 21
63.068244990226908
 31
0.0
  0
LINE
  5
3D
  8
0
 10
122.2633652974088
 20
65.568244990226944
 30
0.0
 11
122.2633652974087
 21
63.068244990226923
 31
0.0
  0
LINE
  5
3E
  8
0
 10
122.2633652974087
 20
63.068244990226923
 30
0.0
 11
126.7633652974076
 21
63.068244990226923
 31
0.0
  0
LINE
  5
3F
  8
0
 10
68.263365297406494
 20
65.568244990226944
 30
0.0
 11
68.263365297406537
 21
63.068244990226937
 31
0.0
  0
LINE
  5
40
  8
0
 10
71.263365297408953
 20
65.568244990226944
 30
0.0
 11
71.263365297408924
 21
63.068244990226908
 31
0.0
  0
LINE
  5
41
  8
0
 10
71.263365297408924
 20
63.068244990227079
 30
0.0
 11
119.26336529740639
 21
63.068244990226937
 31
0.0
  0
LINE
  5
42
  8
0
 10
36.368107534102442
 20
65.568244990227043
 30
0.0
 11
39.868107534102442
 21
65.568244990227043
 31
0.0
  0
LINE
  5
43
  8
0
 10
63.763365297407681
 20
68.568244990227043
 30
0.0
 11
82.129928443407167
 21
77.75152656322679
 31
0.0
  0
LINE
  5
44
  8
0
 10
126.7633652974076
 20
68.568244990226873
 30
0.0
 11
108.3968021514078
 21
77.751526563226804
 31
0.0
  0
LINE
  5
45
  8
0
 10
82.763365297407603
 20
98.511914353871134
 30
0.0
 11
82.763365297407631
 21
109.51191435387111
 31
0.0
  0
LINE
  5
46
  8
0
 10
107.7633652974075
 20
109.51191435387111
 30
0.0
 11
107.7633652974075
 21
98.511914353871134
 31
0.0
  0
LINE
  5
47
  8
0
 10
39.868107534102442
 20
68.568244990227043
 30
0.0
 11
28.86810753410241
 21
68.568244990227043
 31
0.0
  0
POLYLINE
  5
48
  8
0
 66
     1
 10
0.0
 20
0.0
 30
0.0
 70
     3
  0
VERTEX
  5
49
  8
0
 10
30.368107534102421
 20
71.568244990226987
 30
0.0
 42
0.0866957082651688
  0
VERTEX
  5
4A
  8
0
 10
30.42638836082665
 20
71.234648433437428
 30
0.0
 42
0.0749570278789067
 70
     1
  0
VERTEX
  5
4B
  8
0
 10
30.612289940998419
 20
70.890730892397244
 30
0.0
 42
0.0636622706482265
  0
VERTEX
  5
4C
  8
0
 10
30.98645263449054
 20
70.506666059909094
 30
0.0
 42
0.051960800828683
 70
     1
  0
VERTEX
  5
4D
  8
0
 10
31.53968040935624
 20
70.15403142785388
 30
0.0
 42
0.0324398769002409
 70
     2
 50
333.43494882292202
  0
VERTEX
  5
4E
  8
0
 10
32.133154148748581
 20
69.903960371116966
 30
0.0
 42
0.0326332050711661
 70
     1
 50
333.43494882292202
  0
VERTEX
  5
4F
  8
0
 10
32.750384353548
 20
69.734006858280424
 30
0.0
 42
0.0253397441251736
 50
333.43494882292202
  0
VERTEX
  5
50
  8
0
 10
33.558103470777887
 20
69.609635630019312
 30
0.0
 42
0.0255329928029794
 70
     1
 50
333.43494882292202
  0
VERTEX
  5
51
  8
0
 10
34.368107534102428
 20
69.568244990226987
 30
0.0
 42
0.0255329928029728
  0
VERTEX
  5
52
  8
0
 10
35.1781115974266
 20
69.609635630019284
 30
0.0
 42
0.0253397441251873
 70
     1
  0
VERTEX
  5
53
  8
0
 10
35.985830714656849
 20
69.734006858280424
 30
0.0
 42
0.0326332050711284
  0
VERTEX
  5
54
  8
0
 10
36.603060919456361
 20
69.903960371116924
 30
0.0
 42
0.0324398769002068
 70
     1
  0
VERTEX
  5
55
  8
0
 10
37.19653465884862
 20
70.15403142785388
 30
0.0
 42
0.0519608008286687
 70
     2
 50
26.565051177078249
  0
VERTEX
  5
56
  8
0
 10
37.749762433714302
 20
70.506666059909065
 30
0.0
 42
0.0636622706482217
 70
     1
 50
26.565051177078249
  0
VERTEX
  5
57
  8
0
 10
38.123925127206448
 20
70.890730892397272
 30
0.0
 42
0.0749570278789041
 50
26.565051177078249
  0
VERTEX
  5
58
  8
0
 10
38.3098267073782
 20
71.234648433437485
 30
0.0
 42
0.0866957082651639
 70
     1
 50
26.565051177078249
  0
VERTEX
  5
59
  8
0
 10
38.368107534102421
 20
71.568244990226987
 30
0.0
 42
0.0866957082651697
  0
VERTEX
  5
5A
  8
0
 10
38.309826707378207
 20
71.901841547016517
 30
0.0
 42
0.0749570278789198
 70
     1
  0
VERTEX
  5
5B
  8
0
 10
38.123925127206441
 20
72.24575908805673
 30
0.0
 42
0.0636622706482487
  0
VERTEX
  5
5C
  8
0
 10
37.749762433714317
 20
72.629823920544879
 30
0.0
 42
0.0519608008286984
 70
     1
  0
VERTEX
  5
5D
  8
0
 10
37.196534658848613
 20
72.982458552600093
 30
0.0
 42
0.0324398769002334
 70
     2
 50
153.43494882292191
  0
VERTEX
  5
5E
  8
0
 10
36.603060919456361
 20
73.232529609337007
 30
0.0
 42
0.0326332050711711
 70
     1
 50
153.43494882292191
  0
VERTEX
  5
5F
  8
0
 10
35.985830714656849
 20
73.402483122173578
 30
0.0
 42
0.0253397441251834
 50
153.43494882292191
  0
VERTEX
  5
60
  8
0
 10
35.178111597426827
 20
73.526854350434675
 30
0.0
 42
0.0255329928029736
 70
     1
 50
153.43494882292191
  0
VERTEX
  5
61
  8
0
 10
34.368107534102421
 20
73.568244990227015
 30
0.0
 42
0.0255329928029714
  0
VERTEX
  5
62
  8
0
 10
33.558103470777887
 20
73.526854350434675
 30
0.0
 42
0.0253397441251737
 70
     1
  0
VERTEX
  5
63
  8
0
 10
32.750384353547979
 20
73.402483122173578
 30
0.0
 42
0.0326332050711307
  0
VERTEX
  5
64
  8
0
 10
32.133154148748638
 20
73.232529609337121
 30
0.0
 42
0.0324398769001998
 70
     1
  0
VERTEX
  5
65
  8
0
 10
31.53968040935623
 20
72.982458552600093
 30
0.0
 42
0.0519608008286826
 70
     2
 50
206.56505117707829
  0
VERTEX
  5
66
  8
0
 10
30.98645263449054
 20
72.629823920544908
 30
0.0
 42
0.0636622706482253
 70
     1
 50
206.56505117707829
  0
VERTEX
  5
67
  8
0
 10
30.612289940998402
 20
72.245759088056701
 30
0.0
 42
0.074957027878922
 50
206.56505117707829
  0
VERTEX
  5
68
  8
0
 10
30.426388360826639
 20
71.90184154701646
 30
0.0
 42
0.0866957082651648
 70
     1
 50
206.56505117707829
  0
SEQEND
  5
69
  8
0
  0
ARC
  5
6A
  8
0
 10
107.0551613649079
 20
75.068244990227072
 30
0.0
 40
3.0
 50
63.434948822921953
 51
89.999999999999943
  0
ARC
  5
6B
  8
0
 10
83.471569229907047
 20
75.068244990227043
 30
0.0
 40
3.0
 50
90.000000000000014
 51
116.5650511770779
  0
LINE
  5
70
  8
0
 10
122.7633652974075
 20
63.068244990226788
 30
0.0
 11
122.7633652974075
 21
59.268244990226862
 31
0.0
  0
LINE
  5
71
  8
3
 10
122.38436529740611
 20
63.068244990226788
 30
0.0
 11
122.38436529740611
 21
59.268244990226862
 31
0.0
  0
LINE
  5
72
  8
3
 10
119.1423652974089
 20
63.068244990226823
 30
0.0
 11
119.1423652974089
 21
59.268244990226869
 31
0.0
  0
LINE
  5
73
  8
0
 10
118.7633652974074
 20
63.068244990226823
 30
0.0
 11
118.7633652974074
 21
59.26824499022684
 31
0.0
  0
LINE
  5
74
  8
1
 10
120.7633652974074
 20
74.568244990226844
 30
0.0
 11
120.7633652974075
 21
54.06824499022683
 31
0.0
  0
LINE
  5
75
  8
0
 10
124.2633652974075
 20
70.768244990226833
 30
0.0
 11
124.2633652974074
 21
69.818244990226916
 31
0.0
  0
LINE
  5
76
  8
0
 10
122.3633652974078
 20
70.768244990226862
 30
0.0
 11
124.2633652974075
 21
70.768244990226833
 31
0.0
  0
LINE
  5
77
  8
0
 10
121.7633652974077
 20
71.068244990226844
 30
0.0
 11
123.7437500551368
 21
71.068244990226844
 31
0.0
  0
LINE
  5
78
  8
0
 10
124.2633652974074
 20
70.768244990226833
 30
0.0
 11
123.7437500551368
 21
71.068244990226844
 31
0.0
  0
LINE
  5
79
  8
0
 10
71.763365297407859
 20
63.068244990226823
 30
0.0
 11
71.763365297407887
 21
59.26824499022684
 31
0.0
  0
LINE
  5
7A
  8
3
 10
71.384365297406447
 20
63.068244990226823
 30
0.0
 11
71.384365297406418
 21
59.268244990226869
 31
0.0
  0
LINE
  5
7B
  8
3
 10
68.142365297409242
 20
63.068244990226788
 30
0.0
 11
68.142365297409242
 21
59.268244990226862
 31
0.0
  0
LINE
  5
7C
  8
0
 10
67.763365297407859
 20
63.068244990226788
 30
0.0
 11
67.763365297407887
 21
59.268244990226862
 31
0.0
  0
LINE
  5
81
  8
0
 10
66.263365297407859
 20
70.768244990226833
 30
0.0
 11
66.782980539678533
 21
71.068244990226844
 31
0.0
  0
LINE
  5
82
  8
0
 10
68.763365297407603
 20
71.068244990226844
 30
0.0
 11
66.782980539678533
 21
71.068244990226844
 31
0.0
  0
LINE
  5
83
  8
0
 10
68.16336529740758
 20
70.768244990226862
 30
0.0
 11
66.26336529740783
 21
70.768244990226833
 31
0.0
  0
LINE
  5
84
  8
0
 10
66.26336529740783
 20
70.768244990226833
 30
0.0
 11
66.263365297407859
 21
69.818244990226916
 31
0.0
  0
LINE
  5
85
  8
1
 10
69.763365297407859
 20
74.568244990226844
 30
0.0
 11
69.76336529740783
 21
54.06824499022683
 31
0.0
  0
LINE
  5
86
  8
0
 10
30.868107534102421
 20
70.608009267479304
 30
0.0
 11
30.868107534102421
 21
70.768244990227032
 31
0.0
  0
LINE
  5
87
  8
0
 10
30.868107534102428
 20
70.76824499022706
 30
0.0
 11
31.387722776373032
 21
71.068244990227043
 31
0.0
  0
LINE
  5
88
  8
0
 10
37.868107534102428
 20
70.768244990227032
 30
0.0
 11
37.868107534102428
 21
70.608009267479247
 31
0.0
  0
LINE
  5
89
  8
0
 10
37.868107534102421
 20
70.768244990227032
 30
0.0
 11
37.348492291831739
 21
71.068244990227043
 31
0.0
  0
LINE
  5
8A
  8
0
 10
31.387722776373032
 20
71.068244990227043
 30
0.0
 11
37.348492291831739
 21
71.068244990227043
 31
0.0
  0
LINE
  5
8B
  8
0
 10
30.868107534102421
 20
70.768244990227032
 30
0.0
 11
37.868107534102428
 21
70.768244990227032
 31
0.0
  0
LINE
  5
8C
  8
3
 10
32.747107534103812
 20
63.068244990226937
 30
0.0
 11
32.74710753410384
 21
59.268244990226982
 31
0.0
  0
LINE
  5
8D
  8
3
 10
35.989107534101016
 20
63.068244990226908
 30
0.0
 11
35.989107534101016
 21
59.268244990226961
 31
0.0
  0
LINE
  5
92
  8
1
 10
34.3681075341024
 20
81.068244990227029
 30
0.0
 11
34.368107534102442
 21
54.068244990226937
 31
0.0
  0
LINE
  5
93
  8
0
 10
119.2633652974078
 20
103.1458889500868
 30
0.0
 11
120.7633652974078
 21
102.27986354630239
 31
0.0
  0
LINE
  5
94
  8
0
 10
120.7633652974078
 20
102.27986354630239
 30
0.0
 11
122.2633652974076
 21
103.1458889500868
 31
0.0
  0
LINE
  5
95
  8
0
 10
122.2633652974076
 20
103.1458889500868
 30
0.0
 11
122.2633652974076
 21
104.87793975765599
 31
0.0
  0
LINE
  5
96
  8
0
 10
122.2633652974076
 20
104.87793975765599
 30
0.0
 11
120.7633652974076
 21
105.7439651614401
 31
0.0
  0
LINE
  5
97
  8
0
 10
120.7633652974076
 20
105.7439651614401
 30
0.0
 11
119.2633652974075
 21
104.8779397576555
 31
0.0
  0
LINE
  5
98
  8
0
 10
119.2633652974075
 20
104.8779397576555
 30
0.0
 11
119.2633652974078
 21
103.1458889500868
 31
0.0
  0
CIRCLE
  5
99
  8
0
 10
120.7633652974076
 20
104.01191435387121
 30
0.0
 40
3.5
  0
LINE
  5
9A
  8
0
 10
68.26336529740783
 20
103.1458889500868
 30
0.0
 11
69.76336529740783
 21
102.27986354630239
 31
0.0
  0
LINE
  5
9B
  8
0
 10
69.76336529740783
 20
102.27986354630239
 30
0.0
 11
71.26336529740766
 21
103.1458889500868
 31
0.0
  0
LINE
  5
9C
  8
0
 10
71.26336529740766
 20
103.1458889500868
 30
0.0
 11
71.26336529740766
 21
104.87793975765599
 31
0.0
  0
LINE
  5
9D
  8
0
 10
71.26336529740766
 20
104.87793975765599
 30
0.0
 11
69.76336529740766
 21
105.7439651614401
 31
0.0
  0
LINE
  5
9E
  8
0
 10
69.76336529740766
 20
105.7439651614401
 30
0.0
 11
68.263365297407489
 21
104.8779397576555
 31
0.0
  0
LINE
  5
9F
  8
0
 10
68.263365297407489
 20
104.8779397576555
 30
0.0
 11
68.26336529740783
 21
103.1458889500868
 31
0.0
  0
CIRCLE
  5
A0
  8
0
 10
69.76336529740766
 20
104.01191435387121
 30
0.0
 40
3.5
  0
LINE
  5
A7
  8
1
 10
154.76496546790031
 20
81.068244990227029
 30
0.0
 11
154.7649654679004
 21
54.068244990226937
 31
0.0
  0
LINE
  5
AC
  8
3
 10
156.38596546789901
 20
63.068244990226908
 30
0.0
 11
156.38596546789901
 21
59.268244990226961
 31
0.0
  0
LINE
  5
AD
  8
3
 10
153.14396546790181
 20
63.068244990226937
 30
0.0
 11
153.14396546790181
 21
59.268244990226982
 31
0.0
  0
LINE
  5
AE
  8
0
 10
151.2649654679004
 20
70.768244990227032
 30
0.0
 11
158.2649654679004
 21
70.768244990227032
 31
0.0
  0
LINE
  5
AF
  8
0
 10
151.78458071017101
 20
71.068244990227043
 30
0.0
 11
157.74535022562969
 21
71.068244990227043
 31
0.0
  0
LINE
  5
B0
  8
0
 10
158.26496546790031
 20
70.768244990227032
 30
0.0
 11
157.74535022562969
 21
71.068244990227043
 31
0.0
  0
LINE
  5
B1
  8
0
 10
158.2649654679004
 20
70.768244990227032
 30
0.0
 11
158.2649654679004
 21
70.608009267479247
 31
0.0
  0
LINE
  5
B2
  8
0
 10
151.2649654679004
 20
70.76824499022706
 30
0.0
 11
151.78458071017101
 21
71.068244990227043
 31
0.0
  0
LINE
  5
B3
  8
0
 10
151.2649654679004
 20
70.608009267479304
 30
0.0
 11
151.2649654679004
 21
70.768244990227032
 31
0.0
  0
POLYLINE
  5
B4
  8
0
 66
     1
 10
0.0
 20
0.0
 30
0.0
 70
     3
  0
VERTEX
  5
B5
  8
0
 10
150.76496546790031
 20
71.568244990226987
 30
0.0
 42
0.0866957082651688
  0
VERTEX
  5
B6
  8
0
 10
150.8232462946246
 20
71.234648433437428
 30
0.0
 42
0.0749570278789067
 70
     1
  0
VERTEX
  5
B7
  8
0
 10
151.00914787479641
 20
70.890730892397244
 30
0.0
 42
0.0636622706482265
  0
VERTEX
  5
B8
  8
0
 10
151.38331056828849
 20
70.506666059909094
 30
0.0
 42
0.051960800828683
 70
     1
  0
VERTEX
  5
B9
  8
0
 10
151.93653834315421
 20
70.15403142785388
 30
0.0
 42
0.0324398769002409
 70
     2
 50
333.43494882292202
  0
VERTEX
  5
BA
  8
0
 10
152.53001208254651
 20
69.903960371116966
 30
0.0
 42
0.0326332050711661
 70
     1
 50
333.43494882292202
  0
VERTEX
  5
BB
  8
0
 10
153.1472422873459
 20
69.734006858280424
 30
0.0
 42
0.0253397441251736
 50
333.43494882292202
  0
VERTEX
  5
BC
  8
0
 10
153.95496140457581
 20
69.609635630019312
 30
0.0
 42
0.0255329928029794
 70
     1
 50
333.43494882292202
  0
VERTEX
  5
BD
  8
0
 10
154.7649654679004
 20
69.568244990226987
 30
0.0
 42
0.0255329928029728
  0
VERTEX
  5
BE
  8
0
 10
155.5749695312245
 20
69.609635630019284
 30
0.0
 42
0.0253397441251873
 70
     1
  0
VERTEX
  5
BF
  8
0
 10
156.3826886484548
 20
69.734006858280424
 30
0.0
 42
0.0326332050711284
  0
VERTEX
  5
C0
  8
0
 10
156.99991885325429
 20
69.903960371116924
 30
0.0
 42
0.0324398769002068
 70
     1
  0
VERTEX
  5
C1
  8
0
 10
157.59339259264661
 20
70.15403142785388
 30
0.0
 42
0.0519608008286687
 70
     2
 50
26.565051177078249
  0
VERTEX
  5
C2
  8
0
 10
158.14662036751221
 20
70.506666059909065
 30
0.0
 42
0.0636622706482217
 70
     1
 50
26.565051177078249
  0
VERTEX
  5
C3
  8
0
 10
158.52078306100441
 20
70.890730892397272
 30
0.0
 42
0.0749570278789041
 50
26.565051177078249
  0
VERTEX
  5
C4
  8
0
 10
158.70668464117611
 20
71.234648433437485
 30
0.0
 42
0.0866957082651639
 70
     1
 50
26.565051177078249
  0
VERTEX
  5
C5
  8
0
 10
158.7649654679004
 20
71.568244990226987
 30
0.0
 42
0.0866957082651697
  0
VERTEX
  5
C6
  8
0
 10
158.70668464117611
 20
71.901841547016517
 30
0.0
 42
0.0749570278789198
 70
     1
  0
VERTEX
  5
C7
  8
0
 10
158.52078306100441
 20
72.24575908805673
 30
0.0
 42
0.0636622706482487
  0
VERTEX
  5
C8
  8
0
 10
158.14662036751221
 20
72.629823920544879
 30
0.0
 42
0.0519608008286984
 70
     1
  0
VERTEX
  5
C9
  8
0
 10
157.59339259264661
 20
72.982458552600093
 30
0.0
 42
0.0324398769002334
 70
     2
 50
153.43494882292191
  0
VERTEX
  5
CA
  8
0
 10
156.99991885325429
 20
73.232529609337007
 30
0.0
 42
0.0326332050711711
 70
     1
 50
153.43494882292191
  0
VERTEX
  5
CB
  8
0
 10
156.3826886484548
 20
73.402483122173578
 30
0.0
 42
0.0253397441251834
 50
153.43494882292191
  0
VERTEX
  5
CC
  8
0
 10
155.57496953122481
 20
73.526854350434675
 30
0.0
 42
0.0255329928029736
 70
     1
 50
153.43494882292191
  0
VERTEX
  5
CD
  8
0
 10
154.76496546790031
 20
73.568244990227015
 30
0.0
 42
0.0255329928029714
  0
VERTEX
  5
CE
  8
0
 10
153.95496140457581
 20
73.526854350434675
 30
0.0
 42
0.0253397441251737
 70
     1
  0
VERTEX
  5
CF
  8
0
 10
153.1472422873459
 20
73.402483122173578
 30
0.0
 42
0.0326332050711307
  0
VERTEX
  5
D0
  8
0
 10
152.53001208254659
 20
73.232529609337121
 30
0.0
 42
0.0324398769001998
 70
     1
  0
VERTEX
  5
D1
  8
0
 10
151.93653834315421
 20
72.982458552600093
 30
0.0
 42
0.0519608008286826
 70
     2
 50
206.56505117707829
  0
VERTEX
  5
D2
  8
0
 10
151.38331056828849
 20
72.629823920544908
 30
0.0
 42
0.0636622706482253
 70
     1
 50
206.56505117707829
  0
VERTEX
  5
D3
  8
0
 10
151.0091478747963
 20
72.245759088056701
 30
0.0
 42
0.074957027878922
 50
206.56505117707829
  0
VERTEX
  5
D4
  8
0
 10
150.8232462946246
 20
71.90184154701646
 30
0.0
 42
0.0866957082651648
 70
     1
 50
206.56505117707829
  0
SEQEND
  5
D5
  8
0
  0
LINE
  5
D6
  8
0
 10
160.2649654679004
 20
68.568244990227043
 30
0.0
 11
149.2649654679004
 21
68.568244990227043
 31
0.0
  0
LINE
  5
D7
  8
0
 10
156.7649654679004
 20
65.568244990227043
 30
0.0
 11
160.2649654679004
 21
65.568244990227043
 31
0.0
  0
LINE
  5
D8
  8
0
 10
149.2649654679004
 20
78.068244990227015
 30
0.0
 11
160.26496546790031
 21
78.068244990227086
 31
0.0
  0
LINE
  5
D9
  8
0
 10
149.2649654679004
 20
78.068244990227015
 30
0.0
 11
149.2649654679004
 21
65.568244990227043
 31
0.0
  0
LINE
  5
DA
  8
0
 10
160.26496546790031
 20
78.068244990227058
 30
0.0
 11
160.2649654679004
 21
65.568244990227043
 31
0.0
  0
LINE
  5
DB
  8
0
 10
149.2649654679004
 20
65.568244990227043
 30
0.0
 11
152.7649654679004
 21
65.568244990227043
 31
0.0
  0
LINE
  5
DC
  8
0
 10
156.7649654679004
 20
65.568244990227043
 30
0.0
 11
156.7649654679004
 21
59.268244990226961
 31
0.0
  0
LINE
  5
DD
  8
0
 10
152.7649654679004
 20
65.568244990227043
 30
0.0
 11
152.7649654679004
 21
59.268244990226961
 31
0.0
  0
LINE
  5
DE
  8
0
 10
152.7649654679004
 20
63.068244990227051
 30
0.0
 11
156.7649654679004
 21
63.068244990227051
 31
0.0
  0
LINE
  5
E6
  8
1
 10
69.76336529740766
 20
38.998658292053953
 30
0.0
 11
69.76336529740766
 21
24.99865829205395
 31
0.0
  0
LINE
  5
E7
  8
0
 10
63.763365297407603
 20
26.49865829205395
 30
0.0
 11
63.763365297407631
 21
37.498658292053953
 31
0.0
  0
LINE
  5
E8
  8
0
 10
63.763365297407631
 20
26.498658292053921
 30
0.0
 11
126.7633652974076
 21
26.498658292053921
 31
0.0
  0
LINE
  5
E9
  8
0
 10
63.76336529740766
 20
37.498658292053918
 30
0.0
 11
126.7633652974076
 21
37.498658292053918
 31
0.0
  0
LINE
  5
EA
  8
0
 10
126.7633652974076
 20
37.498658292053918
 30
0.0
 11
126.7633652974076
 21
26.498658292053921
 31
0.0
  0
LINE
  5
EB
  8
1
 10
58.906958836856653
 20
31.998658292053921
 30
0.0
 11
131.2633652974076
 21
31.998658292053921
 31
0.0
  0
LINE
  5
EC
  8
1
 10
120.7633652974076
 20
38.998658292053953
 30
0.0
 11
120.7633652974076
 21
24.99865829205395
 31
0.0
  0
LINE
  5
F3
  8
0
 10
123.6501166400663
 20
33.998658292053932
 30
0.0
 11
126.7633652974075
 21
33.998658292053932
 31
0.0
  0
LINE
  5
F4
  8
0
 10
123.65011664006521
 20
29.998658292053939
 30
0.0
 11
126.7633652974075
 21
29.998658292053928
 31
0.0
  0
LINE
  5
F5
  8
0
 10
72.650116640066372
 20
33.998658292053939
 30
0.0
 11
117.8766139547498
 21
33.998658292053918
 31
0.0
  0
LINE
  5
F6
  8
0
 10
72.650116640065249
 20
29.998658292053928
 30
0.0
 11
117.87661395474809
 21
29.998658292053921
 31
0.0
  0
LINE
  5
F7
  8
0
 10
66.87661395474818
 20
29.998658292053939
 30
0.0
 11
63.763365297407731
 21
29.998658292053928
 31
0.0
  0
LINE
  5
F8
  8
0
 10
66.876613954749814
 20
33.998658292053932
 30
0.0
 11
63.763365297407731
 21
33.998658292053932
 31
0.0
  0
CIRCLE
  5
1A4
  8
0
 10
120.7633652974076
 20
31.998658292053921
 30
0.0
 40
3.399999999999999
  0
LINE
  5
1A5
  8
0
 10
116.721913416371
 20
31.998658292054198
 30
0.0
 11
118.74263935853421
 21
35.498658292054202
 31
0.0
  0
LINE
  5
1A6
  8
0
 10
118.74263935688801
 20
28.498658294902739
 30
0.0
 11
116.7219134147239
 21
31.998658294902739
 31
0.0
  0
LINE
  5
1A7
  8
0
 10
122.7840912379251
 20
28.498658294902739
 30
0.0
 11
118.74263935359831
 21
28.498658294902739
 31
0.0
  0
LINE
  5
1A8
  8
0
 10
124.8048171784443
 20
31.998658292054198
 30
0.0
 11
122.7840912362812
 21
28.498658292054198
 31
0.0
  0
LINE
  5
1A9
  8
0
 10
122.7840912379274
 20
35.498658289202027
 30
0.0
 11
124.8048171800914
 21
31.998658289205672
 31
0.0
  0
LINE
  5
1AA
  8
0
 10
118.74263935688749
 20
35.498658289205657
 30
0.0
 11
122.7840912412147
 21
35.498658289205657
 31
0.0
  0
CIRCLE
  5
1AB
  8
3
 10
120.7633652974076
 20
31.998658292053921
 30
0.0
 40
1.6209999999999991
  0
CIRCLE
  5
1AC
  8
0
 10
120.7633652974076
 20
31.998658292053921
 30
0.0
 40
2.0
  0
CIRCLE
  5
1BC
  8
0
 10
69.76336529740766
 20
31.99865829205395
 30
0.0
 40
3.399999999999999
  0
LINE
  5
1BD
  8
0
 10
65.721913416371052
 20
31.99865829205423
 30
0.0
 11
67.742639358534205
 21
35.49865829205423
 31
0.0
  0
LINE
  5
1BE
  8
0
 10
67.74263935688802
 20
28.498658294902771
 30
0.0
 11
65.721913414723957
 21
31.998658294902771
 31
0.0
  0
LINE
  5
1BF
  8
0
 10
71.784091237925139
 20
28.498658294902771
 30
0.0
 11
67.742639353598364
 21
28.498658294902771
 31
0.0
  0
LINE
  5
1C0
  8
0
 10
73.804817178444381
 20
31.99865829205423
 30
0.0
 11
71.784091236281228
 21
28.49865829205423
 31
0.0
  0
LINE
  5
1C1
  8
0
 10
71.784091237927413
 20
35.498658289202062
 30
0.0
 11
73.804817180091476
 21
31.998658289205689
 31
0.0
  0
LINE
  5
1C2
  8
0
 10
67.742639356887565
 20
35.4986582892057
 30
0.0
 11
71.784091241214782
 21
35.4986582892057
 31
0.0
  0
CIRCLE
  5
1C3
  8
3
 10
69.76336529740766
 20
31.99865829205395
 30
0.0
 40
1.6209999999999991
  0
CIRCLE
  5
1C4
  8
0
 10
69.76336529740766
 20
31.99865829205395
 30
0.0
 40
2.0
  0
LINE
  5
218
  8
0
 10
30.868107536950721
 20
59.268244990227018
 30
0.0
 11
37.868107531253578
 21
59.268244990227018
 31
0.0
  0
LINE
  5
219
  8
0
 10
30.96810753410276
 20
56.068244990227029
 30
0.0
 11
37.768107534102121
 21
56.068244990227029
 31
0.0
  0
LINE
  5
21A
  8
0
 10
37.868107531253578
 20
59.268244990227018
 30
0.0
 11
37.8681075312536
 21
56.125980015501412
 31
0.0
  0
LINE
  5
21B
  8
0
 10
30.86810753695071
 20
56.125980015501717
 30
0.0
 11
30.868107536950721
 21
59.268244990227018
 31
0.0
  0
LINE
  5
21C
  8
0
 10
30.968107534102788
 20
56.068244990227029
 30
0.0
 11
30.86810753695071
 21
56.125980015501753
 31
0.0
  0
ARC
  5
21D
  8
0
 10
32.618107535526889
 20
61.180600391896903
 30
0.0
 40
5.054620376395234
 50
249.74384199953849
 51
290.2561580004558
  0
ARC
  5
21E
  8
0
 10
36.11810753267801
 20
61.180600391896903
 30
0.0
 40
5.054620376395234
 50
249.7438419995442
 51
290.25615800046148
  0
LINE
  5
21F
  8
0
 10
37.768107534102121
 20
56.068244990227029
 30
0.0
 11
37.8681075312536
 21
56.125980015501412
 31
0.0
  0
LINE
  5
220
  8
0
 10
34.36810753410245
 20
56.438587406417483
 30
0.0
 11
34.368107534102442
 21
59.268244990227018
 31
0.0
  0
LINE
  5
223
  8
0
 10
73.804817178447209
 20
59.268244990227132
 30
0.0
 11
65.72191341636848
 21
59.268244990227132
 31
0.0
  0
LINE
  5
224
  8
0
 10
65.72191341636848
 20
59.268244990227132
 30
0.0
 11
65.72191341636848
 21
56.43858740641722
 31
0.0
  0
LINE
  5
225
  8
0
 10
73.163365297408134
 20
56.068244990227143
 30
0.0
 11
66.363365297407555
 21
56.068244990227143
 31
0.0
  0
LINE
  5
226
  8
0
 10
71.784091237925921
 20
59.268244990227132
 30
0.0
 11
71.784091237925921
 21
56.438587406417653
 31
0.0
  0
LINE
  5
227
  8
0
 10
67.742639356890223
 20
59.268244990227132
 30
0.0
 11
67.742639356890223
 21
56.438587406417369
 31
0.0
  0
ARC
  5
228
  8
0
 10
69.763365297408043
 20
62.813372618875697
 30
0.0
 40
6.6873926033737083
 50
252.41204622597999
 51
287.58795377402168
  0
ARC
  5
229
  8
0
 10
66.732276386630275
 20
57.915055937944963
 30
0.0
 40
1.7890759224437529
 50
244.38424746777551
 51
304.38424746802241
  0
LINE
  5
22A
  8
0
 10
66.363365297408194
 20
56.068244990226752
 30
0.0
 11
65.72191341636848
 21
56.43858740641722
 31
0.0
  0
LINE
  5
22B
  8
0
 10
73.163365297407481
 20
56.068244990226752
 30
0.0
 11
73.804817178447209
 21
56.43858740641722
 31
0.0
  0
ARC
  5
22C
  8
0
 10
72.794454208185385
 20
57.915055937944963
 30
0.0
 40
1.7890759224437529
 50
235.61575253197751
 51
295.61575253222452
  0
LINE
  5
22D
  8
0
 10
73.804817178447209
 20
59.268244990227132
 30
0.0
 11
73.804817178447209
 21
56.43858740641722
 31
0.0
  0
LINE
  5
22E
  8
0
 10
124.8048171784469
 20
59.26824499022706
 30
0.0
 11
116.7219134163681
 21
59.26824499022706
 31
0.0
  0
LINE
  5
22F
  8
0
 10
116.7219134163681
 20
59.26824499022706
 30
0.0
 11
116.7219134163681
 21
56.438587406417149
 31
0.0
  0
LINE
  5
230
  8
0
 10
124.16336529740779
 20
56.068244990227072
 30
0.0
 11
117.3633652974072
 21
56.068244990227072
 31
0.0
  0
LINE
  5
231
  8
0
 10
122.78409123792559
 20
59.26824499022706
 30
0.0
 11
122.78409123792559
 21
56.438587406417582
 31
0.0
  0
LINE
  5
232
  8
0
 10
118.7426393568899
 20
59.26824499022706
 30
0.0
 11
118.7426393568899
 21
56.438587406417291
 31
0.0
  0
ARC
  5
233
  8
0
 10
120.7633652974077
 20
62.813372618875633
 30
0.0
 40
6.6873926033737083
 50
252.41204622597999
 51
287.58795377402168
  0
ARC
  5
234
  8
0
 10
117.73227638662991
 20
57.915055937944892
 30
0.0
 40
1.7890759224437529
 50
244.38424746777551
 51
304.38424746802241
  0
LINE
  5
235
  8
0
 10
117.3633652974078
 20
56.068244990226681
 30
0.0
 11
116.7219134163681
 21
56.438587406417149
 31
0.0
  0
LINE
  5
236
  8
0
 10
124.1633652974071
 20
56.068244990226681
 30
0.0
 11
124.8048171784469
 21
56.438587406417149
 31
0.0
  0
ARC
  5
237
  8
0
 10
123.794454208185
 20
57.915055937944892
 30
0.0
 40
1.7890759224437529
 50
235.61575253197751
 51
295.61575253222452
  0
LINE
  5
238
  8
0
 10
124.8048171784469
 20
59.26824499022706
 30
0.0
 11
124.8048171784469
 21
56.438587406417149
 31
0.0
  0
LINE
  5
239
  8
0
 10
151.26496547074871
 20
59.268244990227032
 30
0.0
 11
158.26496546505149
 21
59.268244990227032
 31
0.0
  0
LINE
  5
23A
  8
0
 10
151.3649654679007
 20
56.068244990227043
 30
0.0
 11
158.16496546790009
 21
56.068244990227043
 31
0.0
  0
LINE
  5
23B
  8
0
 10
158.26496546505149
 20
59.268244990227032
 30
0.0
 11
158.26496546505149
 21
56.125980015501433
 31
0.0
  0
LINE
  5
23C
  8
0
 10
151.26496547074871
 20
56.125980015501739
 30
0.0
 11
151.26496547074871
 21
59.268244990227032
 31
0.0
  0
LINE
  5
23D
  8
0
 10
151.3649654679007
 20
56.068244990227043
 30
0.0
 11
151.26496547074871
 21
56.125980015501767
 31
0.0
  0
ARC
  5
23E
  8
0
 10
153.01496546932489
 20
61.180600391896917
 30
0.0
 40
5.054620376395234
 50
249.74384199953809
 51
290.25615800045512
  0
ARC
  5
23F
  8
0
 10
156.51496546647601
 20
61.180600391896917
 30
0.0
 40
5.054620376395234
 50
249.743841999545
 51
290.25615800046182
  0
LINE
  5
240
  8
0
 10
158.16496546790009
 20
56.068244990227043
 30
0.0
 11
158.26496546505149
 21
56.125980015501433
 31
0.0
  0
LINE
  5
241
  8
0
 10
154.7649654679004
 20
56.438587406417497
 30
0.0
 11
154.7649654679004
 21
59.268244990227032
 31
0.0
  0
TEXT
  5
2BB
  8
0
 62
     3
 10
0.0
 20
0.0
 30
0.0
 40
10.0
  1
MLSD63
  7
STANDARD1
  0
ENDSEC
  0
EOF
