  0
SECTION
  2
HEADER
  9
$ACADVER
  1
AC1009
  9
$INSBASE
 10
0.0
 20
0.0
 30
0.0
  9
$EXTMIN
 10
0.0
 20
-2.960436562073669
 30
0.0
  9
$EXTMAX
 10
171.13760151724969
 20
107.4524141048133
 30
0.0
  9
$LIMMIN
 10
0.0
 20
0.0
  9
$LIMMAX
 10
187.5
 20
135.0
  9
$ORTHOMODE
 70
     1
  9
$REGENMODE
 70
     1
  9
$FILLMODE
 70
     1
  9
$QTEXTMODE
 70
     0
  9
$MIRRTEXT
 70
     0
  9
$DRAGMODE
 70
     2
  9
$LTSCALE
 40
5.0
  9
$OSMODE
 70
  3071
  9
$ATTMODE
 70
     1
  9
$TEXTSIZE
 40
4.000000000000048
  9
$TRACEWID
 40
0.05
  9
$TEXTSTYLE
  7
STANDARD
  9
$CLAYER
  8
0
  9
$CELTYPE
  6
BYLAYER
  9
$CECOLOR
 62
   256
  9
$DIMSCALE
 40
0.5
  9
$DIMASZ
 40
3.0
  9
$DIMEXO
 40
2.0
  9
$DIMDLI
 40
0.38
  9
$DIMRND
 40
0.0
  9
$DIMDLE
 40
0.0
  9
$DIMEXE
 40
2.0
  9
$DIMTP
 40
0.0
  9
$DIMTM
 40
0.0
  9
$DIMTXT
 40
3.2000000000000002
  9
$DIMCEN
 40
0.0
  9
$DIMTSZ
 40
0.0
  9
$DIMTOL
 70
     0
  9
$DIMLIM
 70
     0
  9
$DIMTIH
 70
     0
  9
$DIMTOH
 70
     0
  9
$DIMSE1
 70
     0
  9
$DIMSE2
 70
     0
  9
$DIMTAD
 70
     1
  9
$DIMZIN
 70
     0
  9
$DIMBLK
  1

  9
$DIMASO
 70
     0
  9
$DIMSHO
 70
     0
  9
$DIMPOST
  1

  9
$DIMAPOST
  1

  9
$DIMALT
 70
     0
  9
$DIMALTD
 70
     2
  9
$DIMALTF
 40
25.399999999999999
  9
$DIMLFAC
 40
1.0
  9
$DIMTOFL
 70
     1
  9
$DIMTVP
 40
1.6000000000000001
  9
$DIMTIX
 70
     1
  9
$DIMSOXD
 70
     0
  9
$DIMSAH
 70
     0
  9
$DIMBLK1
  1

  9
$DIMBLK2
  1

  9
$DIMSTYLE
  2
STANDARD
  9
$DIMCLRD
 70
     0
  9
$DIMCLRE
 70
     0
  9
$DIMCLRT
 70
     0
  9
$DIMTFAC
 40
1.0
  9
$DIMGAP
 40
0.09
  9
$LUNITS
 70
     2
  9
$LUPREC
 70
     4
  9
$SKETCHINC
 40
0.1
  9
$FILLETRAD
 40
3.0
  9
$AUNITS
 70
     0
  9
$AUPREC
 70
     4
  9
$MENU
  1
E:\r13\win\SUPPORT\ACAD
  9
$ELEVATION
 40
0.0
  9
$PELEVATION
 40
0.0
  9
$THICKNESS
 40
0.0
  9
$LIMCHECK
 70
     0
  9
$BLIPMODE
 70
     0
  9
$CHAMFERA
 40
0.0
  9
$CHAMFERB
 40
0.0
  9
$SKPOLY
 70
     0
  9
$TDCREATE
 40
2449840.6473032408
  9
$TDUPDATE
 40
2456597.6696907058
  9
$TDINDWG
 40
0.0535787384
  9
$TDUSRTIMER
 40
0.0535787384
  9
$USRTIMER
 70
     1
  9
$ANGBASE
 50
0.0
  9
$ANGDIR
 70
     0
  9
$PDMODE
 70
     0
  9
$PDSIZE
 40
0.0
  9
$PLINEWID
 40
0.0
  9
$COORDS
 70
     1
  9
$SPLFRAME
 70
     0
  9
$SPLINETYPE
 70
     6
  9
$SPLINESEGS
 70
     8
  9
$ATTDIA
 70
     0
  9
$ATTREQ
 70
     1
  9
$HANDLING
 70
     1
  9
$HANDSEED
  5
310
  9
$SURFTAB1
 70
     6
  9
$SURFTAB2
 70
     6
  9
$SURFTYPE
 70
     6
  9
$SURFU
 70
     6
  9
$SURFV
 70
     6
  9
$UCSNAME
  2

  9
$UCSORG
 10
0.0
 20
0.0
 30
0.0
  9
$UCSXDIR
 10
1.0
 20
0.0
 30
0.0
  9
$UCSYDIR
 10
0.0
 20
1.0
 30
0.0
  9
$PUCSNAME
  2

  9
$PUCSORG
 10
0.0
 20
0.0
 30
0.0
  9
$PUCSXDIR
 10
1.0
 20
0.0
 30
0.0
  9
$PUCSYDIR
 10
0.0
 20
1.0
 30
0.0
  9
$USERI1
 70
     0
  9
$USERI2
 70
     1
  9
$USERI3
 70
     0
  9
$USERI4
 70
     0
  9
$USERI5
 70
     0
  9
$USERR1
 40
0.0
  9
$USERR2
 40
0.0
  9
$USERR3
 40
0.0
  9
$USERR4
 40
0.0
  9
$USERR5
 40
0.0
  9
$WORLDVIEW
 70
     1
  9
$SHADEDGE
 70
     3
  9
$SHADEDIF
 70
    70
  9
$TILEMODE
 70
     1
  9
$MAXACTVP
 70
    16
  9
$PLIMCHECK
 70
     0
  9
$PEXTMIN
 10
1.0000000000000000E+020
 20
1.0000000000000000E+020
 30
1.0000000000000000E+020
  9
$PEXTMAX
 10
-1.0000000000000000E+020
 20
-1.0000000000000000E+020
 30
-1.0000000000000000E+020
  9
$PLIMMIN
 10
0.0
 20
0.0
  9
$PLIMMAX
 10
12.0
 20
9.0
  9
$UNITMODE
 70
     0
  9
$VISRETAIN
 70
     0
  9
$PLINEGEN
 70
     0
  9
$PSLTSCALE
 70
     0
  0
ENDSEC
  0
SECTION
  2
TABLES
  0
TABLE
  2
VPORT
 70
     1
  0
VPORT
  2
*ACTIVE
 70
     0
 10
0.0
 20
0.0
 11
1.0
 21
1.0
 12
93.74713919532617
 22
66.313465060797697
 13
0.0
 23
0.0
 14
5.0
 24
5.0
 15
5.0
 25
5.0
 16
0.0
 26
0.0
 36
1.0
 17
0.0
 27
0.0
 37
0.0
 40
140.15365342376049
 41
2.304913294797688
 42
50.0
 43
0.0
 44
0.0
 50
0.0
 51
0.0
 71
     0
 72
   500
 73
     1
 74
     0
 75
     0
 76
     0
 77
     0
 78
     1
  0
ENDTAB
  0
TABLE
  2
LTYPE
 70
     3
  0
LTYPE
  2
CONTINUOUS
 70
     0
  3
Solid Line
 72
    65
 73
     0
 40
0.0
  0
LTYPE
  2
CENTER
 70
     0
  3
____ _ ____ _ ____ _ ____ _ ____ _ ____ _ ____
 72
    65
 73
     4
 40
2.0
 49
1.25
 49
-0.25
 49
0.25
 49
-0.25
  0
LTYPE
  2
PHANTOM2
 70
     0
  3
___ _ _ ___ _ _ ___ _ _ ___ _ _
 72
    65
 73
     6
 40
1.25
 49
0.625
 49
-0.125
 49
0.125
 49
-0.125
 49
0.125
 49
-0.125
  0
ENDTAB
  0
TABLE
  2
LAYER
 70
     3
  0
LAYER
  2
0
 70
     0
 62
     7
  6
CONTINUOUS
  0
LAYER
  2
1
 70
     0
 62
     1
  6
CENTER
  0
LAYER
  2
3
 70
     0
 62
     3
  6
CONTINUOUS
  0
ENDTAB
  0
TABLE
  2
STYLE
 70
     2
  0
STYLE
  2
STANDARD
 70
     0
 40
0.0
 41
1.0
 50
0.0
 71
     0
 42
4.000000000000048
  3
ROMANS
  4
BIGFONT
  0
STYLE
  2
STANDARD1
 70
     0
 40
0.0
 41
1.0
 50
0.0
 71
     0
 42
3.0
  3
txt
  4

  0
ENDTAB
  0
TABLE
  2
VIEW
 70
     1
  0
VIEW
  2
ALL
 70
     0
 40
186.0502242993941
 10
152.2797634181596
 20
93.02511214969708
 41
0.0
 11
0.0
 21
0.0
 31
1.0
 12
0.0
 22
0.0
 32
0.0
 42
0.0
 43
0.0
 44
0.0
 50
0.0
 71
     0
  0
ENDTAB
  0
TABLE
  2
UCS
 70
     0
  0
ENDTAB
  0
TABLE
  2
APPID
 70
     4
  0
APPID
  2
ACAD
 70
     0
  0
APPID
  2
ACAD_EXEMPT_FROM_CAD_STANDARDS
 70
     0
  0
APPID
  2
ACAD_MLEADERVER
 70
     0
  0
APPID
  2
ACAD_NAV_VCDISPLAY
 70
     0
  0
ENDTAB
  0
TABLE
  2
DIMSTYLE
 70
     1
  0
DIMSTYLE
  2
STANDARD
 70
     0
  3

  4

  5

  6

  7

 40
1.0
 41
0.18
 42
0.0625
 43
0.38
 44
0.18
 45
0.0
 46
0.0
 47
0.0
 48
0.0
140
0.18
141
0.09
142
0.0
143
25.399999999999999
144
1.0
145
0.0
146
1.0
147
0.09
 71
     0
 72
     0
 73
     1
 74
     1
 75
     0
 76
     0
 77
     0
 78
     0
170
     0
171
     2
172
     0
173
     0
174
     0
175
     0
176
     0
177
     0
178
     0
  0
ENDTAB
  0
ENDSEC
  0
SECTION
  2
BLOCKS
  0
BLOCK
  8
0
  2
$MODEL_SPACE
 70
     0
 10
0.0
 20
0.0
 30
0.0
  3
$MODEL_SPACE
  1

  0
ENDBLK
  5
12F
  8
0
  0
BLOCK
 67
     1
  8
0
  2
$PAPER_SPACE
 70
     0
 10
0.0
 20
0.0
 30
0.0
  3
$PAPER_SPACE
  1

  0
ENDBLK
  5
12D
 67
     1
  8
0
  0
ENDSEC
  0
SECTION
  2
ENTITIES
  0
LINE
  5
27
  8
1
 10
138.18289975642699
 20
107.4524141048133
 30
0.0
 11
138.18289975642699
 21
93.452414104813315
 31
0.0
  0
CIRCLE
  5
28
  8
0
 10
138.18289975642699
 20
100.4524141048133
 30
0.0
 40
4.0
  0
LINE
  5
29
  8
1
 10
38.326493295876041
 20
100.4524141048133
 30
0.0
 11
148.68289975642699
 21
100.4524141048133
 31
0.0
  0
LINE
  5
2A
  8
0
 10
144.18289975642691
 20
105.9524141048133
 30
0.0
 11
144.18289975642691
 21
94.952414104813286
 31
0.0
  0
LINE
  5
2B
  8
0
 10
43.182899756427041
 20
105.9524141048133
 30
0.0
 11
144.18289975642691
 21
105.9524141048133
 31
0.0
  0
LINE
  5
2C
  8
0
 10
43.182899756427013
 20
94.952414104813286
 30
0.0
 11
144.18289975642691
 21
94.952414104813286
 31
0.0
  0
LINE
  5
2D
  8
0
 10
43.182899756427048
 20
57.618629682473312
 30
0.0
 11
47.682899756425897
 21
57.618629682473291
 31
0.0
  0
LINE
  5
2E
  8
0
 10
144.18289975642699
 20
63.118629682473063
 30
0.0
 11
144.18289975642699
 21
57.61862968247312
 31
0.0
  0
LINE
  5
2F
  8
0
 10
43.182899756427048
 20
60.118629682473241
 30
0.0
 11
144.18289975642699
 21
60.118629682473262
 31
0.0
  0
LINE
  5
30
  8
0
 10
17.113902855095439
 20
57.618629682473241
 30
0.0
 11
21.11390285509545
 21
57.618629682473241
 31
0.0
  0
LINE
  5
31
  8
0
 10
17.113902855095439
 20
60.118629682473241
 30
0.0
 11
17.113902855095439
 21
53.818629682473158
 31
0.0
  0
LINE
  5
32
  8
0
 10
21.11390285509545
 20
60.118629682473241
 30
0.0
 11
21.11390285509545
 21
53.818629682473158
 31
0.0
  0
LINE
  5
33
  8
0
 10
13.61390285509542
 20
60.118629682473241
 30
0.0
 11
17.113902855095439
 21
60.118629682473241
 31
0.0
  0
LINE
  5
34
  8
0
 10
24.613902855095429
 20
72.618629682473255
 30
0.0
 11
24.61390285509545
 21
60.118629682473241
 31
0.0
  0
LINE
  5
35
  8
0
 10
13.61390285509542
 20
72.618629682473227
 30
0.0
 11
13.61390285509542
 21
60.118629682473241
 31
0.0
  0
LINE
  5
36
  8
0
 10
13.61390285509542
 20
72.618629682473227
 30
0.0
 11
24.613902855095429
 21
72.618629682473284
 31
0.0
  0
LINE
  5
37
  8
0
 10
43.182899756426977
 20
94.952414104813315
 30
0.0
 11
43.182899756427013
 21
105.9524141048133
 31
0.0
  0
LINE
  5
38
  8
0
 10
62.891103688926421
 20
72.618629682473255
 30
0.0
 11
124.47469582392731
 21
72.618629682473255
 31
0.0
  0
CIRCLE
  5
39
  8
0
 10
49.182899756427041
 20
100.4524141048133
 30
0.0
 40
4.0
  0
LINE
  5
3A
  8
1
 10
49.182899756427041
 20
107.4524141048133
 30
0.0
 11
49.182899756427041
 21
93.452414104813315
 31
0.0
  0
LINE
  5
3B
  8
0
 10
43.182899756427048
 20
63.118629682473227
 30
0.0
 11
43.182899756427048
 21
57.618629682473312
 31
0.0
  0
LINE
  5
3C
  8
0
 10
136.68289975642571
 20
60.118629682473163
 30
0.0
 11
136.6828997564258
 21
57.618629682473099
 31
0.0
  0
LINE
  5
3D
  8
0
 10
139.68289975642821
 20
60.118629682473163
 30
0.0
 11
139.6828997564281
 21
57.61862968247312
 31
0.0
  0
LINE
  5
3E
  8
0
 10
139.6828997564281
 20
57.61862968247312
 30
0.0
 11
144.18289975642699
 21
57.61862968247312
 31
0.0
  0
LINE
  5
3F
  8
0
 10
47.68289975642589
 20
60.118629682473163
 30
0.0
 11
47.682899756425911
 21
57.618629682473141
 31
0.0
  0
LINE
  5
40
  8
0
 10
50.682899756428341
 20
60.118629682473163
 30
0.0
 11
50.682899756428299
 21
57.618629682473099
 31
0.0
  0
LINE
  5
41
  8
0
 10
50.682899756428299
 20
57.618629682473284
 30
0.0
 11
136.6828997564258
 21
57.618629682473141
 31
0.0
  0
LINE
  5
42
  8
0
 10
21.11390285509545
 20
60.118629682473241
 30
0.0
 11
24.61390285509545
 21
60.118629682473241
 31
0.0
  0
LINE
  5
43
  8
0
 10
43.182899756427069
 20
63.118629682473248
 30
0.0
 11
61.549462902426541
 21
72.301911255472987
 31
0.0
  0
LINE
  5
44
  8
0
 10
144.18289975642699
 20
63.118629682473063
 30
0.0
 11
125.8163366104272
 21
72.301911255473016
 31
0.0
  0
LINE
  5
45
  8
0
 10
62.182899756426991
 20
94.952414104813244
 30
0.0
 11
62.18289975642702
 21
105.9524141048132
 31
0.0
  0
LINE
  5
46
  8
0
 10
125.18289975642691
 20
105.9524141048133
 30
0.0
 11
125.18289975642691
 21
94.952414104813286
 31
0.0
  0
LINE
  5
47
  8
0
 10
24.61390285509545
 20
63.118629682473227
 30
0.0
 11
13.61390285509542
 21
63.118629682473227
 31
0.0
  0
POLYLINE
  5
48
  8
0
 66
     1
 10
0.0
 20
0.0
 30
0.0
 70
     3
  0
VERTEX
  5
49
  8
0
 10
15.11390285509543
 20
66.11862968247317
 30
0.0
 42
0.0866957082651688
  0
VERTEX
  5
4A
  8
0
 10
15.172183681819661
 20
65.78503312568364
 30
0.0
 42
0.0749570278789067
 70
     1
  0
VERTEX
  5
4B
  8
0
 10
15.35808526199143
 20
65.441115584643427
 30
0.0
 42
0.0636622706482265
  0
VERTEX
  5
4C
  8
0
 10
15.732247955483549
 20
65.057050752155277
 30
0.0
 42
0.051960800828683
 70
     1
  0
VERTEX
  5
4D
  8
0
 10
16.285475730349251
 20
64.704416120100092
 30
0.0
 42
0.0324398769002409
 70
     2
 50
333.43494882292202
  0
VERTEX
  5
4E
  8
0
 10
16.878949469741588
 20
64.454345063363149
 30
0.0
 42
0.0326332050711661
 70
     1
 50
333.43494882292202
  0
VERTEX
  5
4F
  8
0
 10
17.496179674541011
 20
64.284391550526607
 30
0.0
 42
0.0253397441251736
 50
333.43494882292202
  0
VERTEX
  5
50
  8
0
 10
18.303898791770902
 20
64.160020322265495
 30
0.0
 42
0.0255329928029794
 70
     1
 50
333.43494882292202
  0
VERTEX
  5
51
  8
0
 10
19.113902855095439
 20
64.11862968247317
 30
0.0
 42
0.0255329928029728
  0
VERTEX
  5
52
  8
0
 10
19.923906918419611
 20
64.160020322265495
 30
0.0
 42
0.0253397441251873
 70
     1
  0
VERTEX
  5
53
  8
0
 10
20.73162603564986
 20
64.284391550526635
 30
0.0
 42
0.0326332050711284
  0
VERTEX
  5
54
  8
0
 10
21.348856240449368
 20
64.454345063363149
 30
0.0
 42
0.0324398769002068
 70
     1
  0
VERTEX
  5
55
  8
0
 10
21.942329979841631
 20
64.704416120100092
 30
0.0
 42
0.0519608008286687
 70
     2
 50
26.565051177078249
  0
VERTEX
  5
56
  8
0
 10
22.49555775470732
 20
65.057050752155249
 30
0.0
 42
0.0636622706482217
 70
     1
 50
26.565051177078249
  0
VERTEX
  5
57
  8
0
 10
22.869720448199459
 20
65.441115584643484
 30
0.0
 42
0.0749570278789041
 50
26.565051177078249
  0
VERTEX
  5
58
  8
0
 10
23.055622028371211
 20
65.785033125683668
 30
0.0
 42
0.0866957082651639
 70
     1
 50
26.565051177078249
  0
VERTEX
  5
59
  8
0
 10
23.113902855095429
 20
66.118629682473198
 30
0.0
 42
0.0866957082651697
  0
VERTEX
  5
5A
  8
0
 10
23.055622028371221
 20
66.4522262392627
 30
0.0
 42
0.0749570278789198
 70
     1
  0
VERTEX
  5
5B
  8
0
 10
22.869720448199448
 20
66.796143780302941
 30
0.0
 42
0.0636622706482487
  0
VERTEX
  5
5C
  8
0
 10
22.495557754707331
 20
67.180208612791063
 30
0.0
 42
0.0519608008286984
 70
     1
  0
VERTEX
  5
5D
  8
0
 10
21.94232997984162
 20
67.532843244846305
 30
0.0
 42
0.0324398769002334
 70
     2
 50
153.43494882292191
  0
VERTEX
  5
5E
  8
0
 10
21.348856240449368
 20
67.78291430158319
 30
0.0
 42
0.0326332050711711
 70
     1
 50
153.43494882292191
  0
VERTEX
  5
5F
  8
0
 10
20.73162603564986
 20
67.952867814419761
 30
0.0
 42
0.0253397441251834
 50
153.43494882292191
  0
VERTEX
  5
60
  8
0
 10
19.923906918419839
 20
68.077239042680873
 30
0.0
 42
0.0255329928029736
 70
     1
 50
153.43494882292191
  0
VERTEX
  5
61
  8
0
 10
19.113902855095429
 20
68.118629682473198
 30
0.0
 42
0.0255329928029714
  0
VERTEX
  5
62
  8
0
 10
18.303898791770902
 20
68.077239042680901
 30
0.0
 42
0.0253397441251737
 70
     1
  0
VERTEX
  5
63
  8
0
 10
17.49617967454099
 20
67.95286781441979
 30
0.0
 42
0.0326332050711307
  0
VERTEX
  5
64
  8
0
 10
16.878949469741649
 20
67.782914301583304
 30
0.0
 42
0.0324398769001998
 70
     1
  0
VERTEX
  5
65
  8
0
 10
16.285475730349241
 20
67.532843244846305
 30
0.0
 42
0.0519608008286826
 70
     2
 50
206.56505117707829
  0
VERTEX
  5
66
  8
0
 10
15.732247955483549
 20
67.180208612791091
 30
0.0
 42
0.0636622706482253
 70
     1
 50
206.56505117707829
  0
VERTEX
  5
67
  8
0
 10
15.358085261991411
 20
66.796143780302913
 30
0.0
 42
0.074957027878922
 50
206.56505117707829
  0
VERTEX
  5
68
  8
0
 10
15.172183681819639
 20
66.452226239262671
 30
0.0
 42
0.0866957082651648
 70
     1
 50
206.56505117707829
  0
SEQEND
  5
69
  8
0
  0
ARC
  5
6A
  8
0
 10
124.47469582392731
 20
69.618629682473255
 30
0.0
 40
3.0
 50
63.434948822921953
 51
89.999999999999943
  0
ARC
  5
6B
  8
0
 10
62.891103688926421
 20
69.618629682473255
 30
0.0
 40
3.0
 50
90.000000000000014
 51
116.5650511770779
  0
LINE
  5
6C
  8
0
 10
136.6828997564271
 20
99.586388701029023
 30
0.0
 11
138.1828997564271
 21
98.720363297244532
 31
0.0
  0
LINE
  5
6D
  8
0
 10
138.1828997564271
 20
98.720363297244532
 30
0.0
 11
139.68289975642699
 21
99.586388701029023
 31
0.0
  0
LINE
  5
6E
  8
0
 10
139.68289975642699
 20
99.586388701029023
 30
0.0
 11
139.68289975642699
 21
101.3184395085981
 31
0.0
  0
LINE
  5
6F
  8
0
 10
139.68289975642699
 20
101.3184395085981
 30
0.0
 11
138.18289975642699
 21
102.1844649123822
 31
0.0
  0
LINE
  5
70
  8
0
 10
138.18289975642699
 20
102.1844649123822
 30
0.0
 11
136.68289975642679
 21
101.31843950859761
 31
0.0
  0
LINE
  5
71
  8
0
 10
136.68289975642679
 20
101.31843950859761
 30
0.0
 11
136.6828997564271
 21
99.586388701029023
 31
0.0
  0
CIRCLE
  5
72
  8
0
 10
138.18289975642699
 20
100.4524141048133
 30
0.0
 40
3.5
  0
LINE
  5
73
  8
0
 10
47.682899756427211
 20
99.586388701029023
 30
0.0
 11
49.182899756427211
 21
98.720363297244532
 31
0.0
  0
LINE
  5
74
  8
0
 10
49.182899756427211
 20
98.720363297244532
 30
0.0
 11
50.682899756427041
 21
99.586388701029023
 31
0.0
  0
LINE
  5
75
  8
0
 10
50.682899756427041
 20
99.586388701029023
 30
0.0
 11
50.682899756427041
 21
101.3184395085981
 31
0.0
  0
LINE
  5
76
  8
0
 10
50.682899756427041
 20
101.3184395085981
 30
0.0
 11
49.182899756427041
 21
102.1844649123822
 31
0.0
  0
LINE
  5
77
  8
0
 10
49.182899756427041
 20
102.1844649123822
 30
0.0
 11
47.682899756426863
 21
101.31843950859761
 31
0.0
  0
LINE
  5
78
  8
0
 10
47.682899756426863
 20
101.31843950859761
 30
0.0
 11
47.682899756427211
 21
99.586388701029023
 31
0.0
  0
CIRCLE
  5
79
  8
0
 10
49.182899756427041
 20
100.4524141048133
 30
0.0
 40
3.5
  0
LINE
  5
7A
  8
0
 10
15.61390285509542
 20
65.158393959725515
 30
0.0
 11
15.61390285509542
 21
65.318629682473215
 31
0.0
  0
LINE
  5
7B
  8
0
 10
15.613902855095439
 20
65.318629682473244
 30
0.0
 11
16.133518097366039
 21
65.618629682473227
 31
0.0
  0
LINE
  5
7C
  8
0
 10
22.613902855095439
 20
65.318629682473244
 30
0.0
 11
22.613902855095439
 21
65.158393959725458
 31
0.0
  0
LINE
  5
7D
  8
0
 10
22.613902855095429
 20
65.318629682473215
 30
0.0
 11
22.094287612824751
 21
65.618629682473227
 31
0.0
  0
LINE
  5
7E
  8
0
 10
16.133518097366039
 20
65.618629682473227
 30
0.0
 11
22.094287612824751
 21
65.618629682473227
 31
0.0
  0
LINE
  5
7F
  8
0
 10
15.61390285509542
 20
65.318629682473215
 30
0.0
 11
22.613902855095439
 21
65.318629682473244
 31
0.0
  0
LINE
  5
80
  8
3
 10
17.492902855096819
 20
57.618629682473141
 30
0.0
 11
17.492902855096851
 21
53.81862968247318
 31
0.0
  0
LINE
  5
81
  8
3
 10
20.734902855094031
 20
57.618629682473099
 30
0.0
 11
20.734902855094031
 21
53.818629682473158
 31
0.0
  0
LINE
  5
86
  8
1
 10
19.113902855095411
 20
75.618629682473227
 30
0.0
 11
19.113902855095439
 21
48.618629682473141
 31
0.0
  0
LINE
  5
8B
  8
0
 10
140.18289975642691
 20
57.618629682472992
 30
0.0
 11
140.18289975642679
 21
53.818629682473052
 31
0.0
  0
LINE
  5
8C
  8
3
 10
139.80389975642549
 20
57.618629682472992
 30
0.0
 11
139.80389975642549
 21
53.818629682473052
 31
0.0
  0
LINE
  5
8D
  8
3
 10
136.5618997564282
 20
57.618629682473021
 30
0.0
 11
136.56189975642829
 21
53.818629682473073
 31
0.0
  0
LINE
  5
8E
  8
0
 10
136.18289975642691
 20
57.618629682473021
 30
0.0
 11
136.18289975642679
 21
53.818629682473038
 31
0.0
  0
LINE
  5
8F
  8
1
 10
138.18289975642691
 20
69.118629682473056
 30
0.0
 11
138.18289975642691
 21
48.618629682473042
 31
0.0
  0
LINE
  5
90
  8
0
 10
141.68289975642679
 20
65.318629682473045
 30
0.0
 11
141.68289975642679
 21
64.368629682473141
 31
0.0
  0
LINE
  5
91
  8
0
 10
139.7828997564271
 20
65.318629682473045
 30
0.0
 11
141.68289975642679
 21
65.318629682473045
 31
0.0
  0
LINE
  5
92
  8
0
 10
139.1828997564271
 20
65.618629682473028
 30
0.0
 11
141.1632845141562
 21
65.618629682473028
 31
0.0
  0
LINE
  5
93
  8
0
 10
141.68289975642679
 20
65.318629682473016
 30
0.0
 11
141.1632845141562
 21
65.618629682473028
 31
0.0
  0
LINE
  5
98
  8
1
 10
49.182899756427211
 20
69.118629682473056
 30
0.0
 11
49.182899756427183
 21
48.618629682473042
 31
0.0
  0
LINE
  5
99
  8
0
 10
51.182899756427211
 20
57.618629682473021
 30
0.0
 11
51.18289975642724
 21
53.818629682473038
 31
0.0
  0
LINE
  5
9A
  8
3
 10
50.8038997564258
 20
57.618629682473021
 30
0.0
 11
50.803899756425771
 21
53.818629682473073
 31
0.0
  0
LINE
  5
9B
  8
3
 10
47.561899756428588
 20
57.618629682472992
 30
0.0
 11
47.561899756428588
 21
53.818629682473052
 31
0.0
  0
LINE
  5
9C
  8
0
 10
47.182899756427211
 20
57.618629682472992
 30
0.0
 11
47.18289975642724
 21
53.818629682473052
 31
0.0
  0
LINE
  5
9D
  8
0
 10
45.682899756427211
 20
65.318629682473016
 30
0.0
 11
46.202514998697879
 21
65.618629682473028
 31
0.0
  0
LINE
  5
9E
  8
0
 10
48.182899756426949
 20
65.618629682473028
 30
0.0
 11
46.202514998697879
 21
65.618629682473028
 31
0.0
  0
LINE
  5
9F
  8
0
 10
47.582899756426933
 20
65.318629682473045
 30
0.0
 11
45.682899756427183
 21
65.318629682473045
 31
0.0
  0
LINE
  5
A0
  8
0
 10
45.682899756427183
 20
65.318629682473045
 30
0.0
 11
45.682899756427211
 21
64.368629682473141
 31
0.0
  0
LINE
  5
A7
  8
1
 10
165.63760151724961
 20
75.618629682473227
 30
0.0
 11
165.63760151724969
 21
48.618629682473141
 31
0.0
  0
LINE
  5
AC
  8
3
 10
167.2586015172482
 20
57.618629682473099
 30
0.0
 11
167.2586015172482
 21
53.818629682473158
 31
0.0
  0
LINE
  5
AD
  8
3
 10
164.0166015172511
 20
57.618629682473141
 30
0.0
 11
164.0166015172511
 21
53.81862968247318
 31
0.0
  0
LINE
  5
AE
  8
0
 10
162.13760151724969
 20
65.318629682473215
 30
0.0
 11
169.13760151724969
 21
65.318629682473244
 31
0.0
  0
LINE
  5
AF
  8
0
 10
162.65721675952031
 20
65.618629682473227
 30
0.0
 11
168.61798627497899
 21
65.618629682473227
 31
0.0
  0
LINE
  5
B0
  8
0
 10
169.13760151724969
 20
65.318629682473215
 30
0.0
 11
168.61798627497899
 21
65.618629682473227
 31
0.0
  0
LINE
  5
B1
  8
0
 10
169.13760151724969
 20
65.318629682473244
 30
0.0
 11
169.13760151724969
 21
65.158393959725458
 31
0.0
  0
LINE
  5
B2
  8
0
 10
162.13760151724969
 20
65.318629682473244
 30
0.0
 11
162.65721675952031
 21
65.618629682473227
 31
0.0
  0
LINE
  5
B3
  8
0
 10
162.13760151724969
 20
65.158393959725515
 30
0.0
 11
162.13760151724969
 21
65.318629682473215
 31
0.0
  0
POLYLINE
  5
B4
  8
0
 66
     1
 10
0.0
 20
0.0
 30
0.0
 70
     3
  0
VERTEX
  5
B5
  8
0
 10
161.63760151724969
 20
66.11862968247317
 30
0.0
 42
0.0866957082651688
  0
VERTEX
  5
B6
  8
0
 10
161.69588234397389
 20
65.78503312568364
 30
0.0
 42
0.0749570278789067
 70
     1
  0
VERTEX
  5
B7
  8
0
 10
161.88178392414559
 20
65.441115584643427
 30
0.0
 42
0.0636622706482265
  0
VERTEX
  5
B8
  8
0
 10
162.25594661763779
 20
65.057050752155277
 30
0.0
 42
0.051960800828683
 70
     1
  0
VERTEX
  5
B9
  8
0
 10
162.80917439250351
 20
64.704416120100092
 30
0.0
 42
0.0324398769002409
 70
     2
 50
333.43494882292202
  0
VERTEX
  5
BA
  8
0
 10
163.4026481318958
 20
64.454345063363149
 30
0.0
 42
0.0326332050711661
 70
     1
 50
333.43494882292202
  0
VERTEX
  5
BB
  8
0
 10
164.01987833669531
 20
64.284391550526607
 30
0.0
 42
0.0253397441251736
 50
333.43494882292202
  0
VERTEX
  5
BC
  8
0
 10
164.82759745392511
 20
64.160020322265495
 30
0.0
 42
0.0255329928029794
 70
     1
 50
333.43494882292202
  0
VERTEX
  5
BD
  8
0
 10
165.63760151724969
 20
64.11862968247317
 30
0.0
 42
0.0255329928029728
  0
VERTEX
  5
BE
  8
0
 10
166.44760558057391
 20
64.160020322265495
 30
0.0
 42
0.0253397441251873
 70
     1
  0
VERTEX
  5
BF
  8
0
 10
167.2553246978041
 20
64.284391550526635
 30
0.0
 42
0.0326332050711284
  0
VERTEX
  5
C0
  8
0
 10
167.87255490260361
 20
64.454345063363149
 30
0.0
 42
0.0324398769002068
 70
     1
  0
VERTEX
  5
C1
  8
0
 10
168.4660286419959
 20
64.704416120100092
 30
0.0
 42
0.0519608008286687
 70
     2
 50
26.565051177078249
  0
VERTEX
  5
C2
  8
0
 10
169.01925641686151
 20
65.057050752155249
 30
0.0
 42
0.0636622706482217
 70
     1
 50
26.565051177078249
  0
VERTEX
  5
C3
  8
0
 10
169.3934191103537
 20
65.441115584643484
 30
0.0
 42
0.0749570278789041
 50
26.565051177078249
  0
VERTEX
  5
C4
  8
0
 10
169.57932069052541
 20
65.785033125683668
 30
0.0
 42
0.0866957082651639
 70
     1
 50
26.565051177078249
  0
VERTEX
  5
C5
  8
0
 10
169.63760151724969
 20
66.118629682473198
 30
0.0
 42
0.0866957082651697
  0
VERTEX
  5
C6
  8
0
 10
169.57932069052549
 20
66.4522262392627
 30
0.0
 42
0.0749570278789198
 70
     1
  0
VERTEX
  5
C7
  8
0
 10
169.3934191103537
 20
66.796143780302941
 30
0.0
 42
0.0636622706482487
  0
VERTEX
  5
C8
  8
0
 10
169.01925641686159
 20
67.180208612791063
 30
0.0
 42
0.0519608008286984
 70
     1
  0
VERTEX
  5
C9
  8
0
 10
168.4660286419959
 20
67.532843244846305
 30
0.0
 42
0.0324398769002334
 70
     2
 50
153.43494882292191
  0
VERTEX
  5
CA
  8
0
 10
167.87255490260361
 20
67.78291430158319
 30
0.0
 42
0.0326332050711711
 70
     1
 50
153.43494882292191
  0
VERTEX
  5
CB
  8
0
 10
167.2553246978041
 20
67.952867814419761
 30
0.0
 42
0.0253397441251834
 50
153.43494882292191
  0
VERTEX
  5
CC
  8
0
 10
166.44760558057411
 20
68.077239042680873
 30
0.0
 42
0.0255329928029736
 70
     1
 50
153.43494882292191
  0
VERTEX
  5
CD
  8
0
 10
165.63760151724969
 20
68.118629682473198
 30
0.0
 42
0.0255329928029714
  0
VERTEX
  5
CE
  8
0
 10
164.82759745392511
 20
68.077239042680901
 30
0.0
 42
0.0253397441251737
 70
     1
  0
VERTEX
  5
CF
  8
0
 10
164.0198783366952
 20
67.95286781441979
 30
0.0
 42
0.0326332050711307
  0
VERTEX
  5
D0
  8
0
 10
163.40264813189589
 20
67.782914301583304
 30
0.0
 42
0.0324398769001998
 70
     1
  0
VERTEX
  5
D1
  8
0
 10
162.80917439250351
 20
67.532843244846305
 30
0.0
 42
0.0519608008286826
 70
     2
 50
206.56505117707829
  0
VERTEX
  5
D2
  8
0
 10
162.25594661763779
 20
67.180208612791091
 30
0.0
 42
0.0636622706482253
 70
     1
 50
206.56505117707829
  0
VERTEX
  5
D3
  8
0
 10
161.88178392414559
 20
66.796143780302913
 30
0.0
 42
0.074957027878922
 50
206.56505117707829
  0
VERTEX
  5
D4
  8
0
 10
161.69588234397389
 20
66.452226239262671
 30
0.0
 42
0.0866957082651648
 70
     1
 50
206.56505117707829
  0
SEQEND
  5
D5
  8
0
  0
LINE
  5
D6
  8
0
 10
171.13760151724969
 20
63.118629682473227
 30
0.0
 11
160.13760151724961
 21
63.118629682473227
 31
0.0
  0
LINE
  5
D7
  8
0
 10
167.63760151724969
 20
60.118629682473241
 30
0.0
 11
171.13760151724969
 21
60.118629682473241
 31
0.0
  0
LINE
  5
D8
  8
0
 10
160.13760151724961
 20
72.618629682473227
 30
0.0
 11
171.13760151724969
 21
72.618629682473284
 31
0.0
  0
LINE
  5
D9
  8
0
 10
160.13760151724961
 20
72.618629682473227
 30
0.0
 11
160.13760151724961
 21
60.118629682473241
 31
0.0
  0
LINE
  5
DA
  8
0
 10
171.13760151724969
 20
72.618629682473255
 30
0.0
 11
171.13760151724969
 21
60.118629682473241
 31
0.0
  0
LINE
  5
DB
  8
0
 10
160.13760151724961
 20
60.118629682473241
 30
0.0
 11
163.63760151724969
 21
60.118629682473241
 31
0.0
  0
LINE
  5
DC
  8
0
 10
167.63760151724969
 20
60.118629682473241
 30
0.0
 11
167.63760151724969
 21
53.818629682473158
 31
0.0
  0
LINE
  5
DD
  8
0
 10
163.63760151724969
 20
60.118629682473241
 30
0.0
 11
163.63760151724969
 21
53.818629682473158
 31
0.0
  0
LINE
  5
DE
  8
0
 10
163.63760151724969
 20
57.618629682473241
 30
0.0
 11
167.63760151724969
 21
57.618629682473241
 31
0.0
  0
LINE
  5
E6
  8
1
 10
49.182899756427041
 20
37.032849756292123
 30
0.0
 11
49.182899756427041
 21
23.032849756292119
 31
0.0
  0
LINE
  5
E7
  8
0
 10
43.182899756426977
 20
24.532849756292119
 30
0.0
 11
43.182899756427013
 21
35.532849756292123
 31
0.0
  0
LINE
  5
E8
  8
0
 10
43.182899756427013
 20
24.532849756292091
 30
0.0
 11
144.18289975642691
 21
24.532849756292091
 31
0.0
  0
LINE
  5
E9
  8
0
 10
43.182899756427041
 20
35.532849756292087
 30
0.0
 11
144.18289975642691
 21
35.532849756292087
 31
0.0
  0
LINE
  5
EA
  8
0
 10
144.18289975642691
 20
35.532849756292087
 30
0.0
 11
144.18289975642691
 21
24.532849756292091
 31
0.0
  0
LINE
  5
EB
  8
1
 10
38.326493295876041
 20
30.032849756292091
 30
0.0
 11
148.68289975642699
 21
30.032849756292091
 31
0.0
  0
LINE
  5
EC
  8
1
 10
138.18289975642699
 20
37.032849756292123
 30
0.0
 11
138.18289975642699
 21
23.032849756292119
 31
0.0
  0
LINE
  5
ED
  8
0
 10
141.0696510990845
 20
28.032849756292091
 30
0.0
 11
144.18289975642691
 21
28.032849756292091
 31
0.0
  0
LINE
  5
EE
  8
0
 10
141.06965109908569
 20
32.032849756292087
 30
0.0
 11
144.18289975642691
 21
32.032849756292087
 31
0.0
  0
LINE
  5
F5
  8
0
 10
52.069651099084638
 20
28.032849756292091
 30
0.0
 11
135.2961484137675
 21
28.032849756292091
 31
0.0
  0
LINE
  5
F6
  8
0
 10
52.06965109908576
 20
32.032849756292087
 30
0.0
 11
135.29614841376909
 21
32.032849756292102
 31
0.0
  0
LINE
  5
FD
  8
0
 10
46.296148413769203
 20
32.032849756292102
 30
0.0
 11
43.182899756427098
 21
32.032849756292087
 31
0.0
  0
LINE
  5
FE
  8
0
 10
46.296148413767568
 20
28.032849756292091
 30
0.0
 11
43.182899756427098
 21
28.032849756292091
 31
0.0
  0
CIRCLE
  5
1A4
  8
0
 10
49.182899756427041
 20
30.032849756292119
 30
0.0
 40
3.399999999999999
  0
LINE
  5
1A5
  8
0
 10
45.141447875390433
 20
30.0328497562924
 30
0.0
 11
47.162173817553587
 21
33.5328497562924
 31
0.0
  0
LINE
  5
1A6
  8
0
 10
47.162173815907401
 20
26.532849759140941
 30
0.0
 11
45.141447873743331
 21
30.032849759140941
 31
0.0
  0
LINE
  5
1A7
  8
0
 10
51.20362569694452
 20
26.532849759140941
 30
0.0
 11
47.162173812617759
 21
26.532849759140941
 31
0.0
  0
LINE
  5
1A8
  8
0
 10
53.224351637463762
 20
30.0328497562924
 30
0.0
 11
51.203625695300609
 21
26.5328497562924
 31
0.0
  0
LINE
  5
1A9
  8
0
 10
51.203625696946787
 20
33.532849753440232
 30
0.0
 11
53.224351639110857
 21
30.032849753443859
 31
0.0
  0
LINE
  5
1AA
  8
0
 10
47.162173815906939
 20
33.532849753443863
 30
0.0
 11
51.203625700234163
 21
33.532849753443863
 31
0.0
  0
CIRCLE
  5
1AB
  8
3
 10
49.182899756427041
 20
30.032849756292119
 30
0.0
 40
1.6209999999999991
  0
CIRCLE
  5
1AC
  8
0
 10
49.182899756427041
 20
30.032849756292119
 30
0.0
 40
2.0
  0
CIRCLE
  5
1BC
  8
0
 10
138.18289975642699
 20
30.032849756292119
 30
0.0
 40
3.399999999999999
  0
LINE
  5
1BD
  8
0
 10
134.14144787539041
 20
30.0328497562924
 30
0.0
 11
136.16217381755351
 21
33.5328497562924
 31
0.0
  0
LINE
  5
1BE
  8
0
 10
136.16217381590729
 20
26.532849759140941
 30
0.0
 11
134.14144787374329
 21
30.032849759140941
 31
0.0
  0
LINE
  5
1BF
  8
0
 10
140.20362569694441
 20
26.532849759140941
 30
0.0
 11
136.16217381261771
 21
26.532849759140941
 31
0.0
  0
LINE
  5
1C0
  8
0
 10
142.22435163746371
 20
30.0328497562924
 30
0.0
 11
140.2036256953005
 21
26.5328497562924
 31
0.0
  0
LINE
  5
1C1
  8
0
 10
140.20362569694669
 20
33.532849753440232
 30
0.0
 11
142.22435163911081
 21
30.032849753443859
 31
0.0
  0
LINE
  5
1C2
  8
0
 10
136.1621738159069
 20
33.532849753443863
 30
0.0
 11
140.20362570023411
 21
33.532849753443863
 31
0.0
  0
CIRCLE
  5
1C3
  8
3
 10
138.18289975642699
 20
30.032849756292119
 30
0.0
 40
1.6209999999999991
  0
CIRCLE
  5
1C4
  8
0
 10
138.18289975642699
 20
30.032849756292119
 30
0.0
 40
2.0
  0
LINE
  5
218
  8
0
 10
15.613902857943719
 20
53.818629682473158
 30
0.0
 11
22.613902852246589
 21
53.818629682473158
 31
0.0
  0
LINE
  5
219
  8
0
 10
15.71390285509576
 20
50.618629682473177
 30
0.0
 11
22.513902855095122
 21
50.618629682473177
 31
0.0
  0
LINE
  5
21A
  8
0
 10
22.613902852246589
 20
53.818629682473158
 30
0.0
 11
22.6139028522466
 21
50.67636470774756
 31
0.0
  0
LINE
  5
21B
  8
0
 10
15.6139028579437
 20
50.676364707747872
 30
0.0
 11
15.613902857943719
 21
53.818629682473158
 31
0.0
  0
LINE
  5
21C
  8
0
 10
15.713902855095791
 20
50.618629682473177
 30
0.0
 11
15.6139028579437
 21
50.676364707747901
 31
0.0
  0
ARC
  5
21D
  8
0
 10
17.363902856519889
 20
55.73098508414305
 30
0.0
 40
5.054620376395234
 50
249.7438419995384
 51
290.2561580004558
  0
ARC
  5
21E
  8
0
 10
20.863902853671021
 20
55.73098508414305
 30
0.0
 40
5.054620376395234
 50
249.7438419995442
 51
290.25615800046171
  0
LINE
  5
21F
  8
0
 10
22.513902855095122
 20
50.618629682473177
 30
0.0
 11
22.6139028522466
 21
50.67636470774756
 31
0.0
  0
LINE
  5
220
  8
0
 10
19.11390285509545
 20
50.988972098663631
 30
0.0
 11
19.113902855095439
 21
53.818629682473158
 31
0.0
  0
LINE
  5
223
  8
0
 10
53.224351637466548
 20
53.818629682473251
 30
0.0
 11
45.141447875387819
 21
53.818629682473251
 31
0.0
  0
LINE
  5
224
  8
0
 10
45.141447875387819
 20
53.818629682473251
 30
0.0
 11
45.141447875387819
 21
50.988972098663339
 31
0.0
  0
LINE
  5
225
  8
0
 10
52.58289975642748
 20
50.618629682473262
 30
0.0
 11
45.7828997564269
 21
50.618629682473262
 31
0.0
  0
LINE
  5
226
  8
0
 10
51.203625696945267
 20
53.818629682473251
 30
0.0
 11
51.203625696945267
 21
50.988972098663773
 31
0.0
  0
LINE
  5
227
  8
0
 10
47.162173815909568
 20
53.818629682473251
 30
0.0
 11
47.162173815909568
 21
50.988972098663488
 31
0.0
  0
ARC
  5
228
  8
0
 10
49.182899756427389
 20
57.36375731112183
 30
0.0
 40
6.6873926033737083
 50
252.41204622597959
 51
287.58795377402168
  0
ARC
  5
229
  8
0
 10
46.151810845649628
 20
52.465440630191083
 30
0.0
 40
1.7890759224437529
 50
244.38424746777551
 51
304.38424746802241
  0
LINE
  5
22A
  8
0
 10
45.782899756427547
 20
50.618629682472857
 30
0.0
 11
45.141447875387819
 21
50.988972098663339
 31
0.0
  0
LINE
  5
22B
  8
0
 10
52.582899756426819
 20
50.618629682472857
 30
0.0
 11
53.224351637466548
 21
50.988972098663339
 31
0.0
  0
ARC
  5
22C
  8
0
 10
52.213988667204738
 20
52.465440630191083
 30
0.0
 40
1.7890759224437529
 50
235.61575253197751
 51
295.61575253222452
  0
LINE
  5
22D
  8
0
 10
53.224351637466548
 20
53.818629682473251
 30
0.0
 11
53.224351637466548
 21
50.988972098663339
 31
0.0
  0
LINE
  5
22E
  8
0
 10
142.22435163746621
 20
53.818629682473251
 30
0.0
 11
134.14144787538751
 21
53.818629682473251
 31
0.0
  0
LINE
  5
22F
  8
0
 10
134.14144787538751
 20
53.818629682473251
 30
0.0
 11
134.14144787538751
 21
50.988972098663339
 31
0.0
  0
LINE
  5
230
  8
0
 10
141.58289975642711
 20
50.618629682473262
 30
0.0
 11
134.78289975642659
 21
50.618629682473262
 31
0.0
  0
LINE
  5
231
  8
0
 10
140.2036256969449
 20
53.818629682473251
 30
0.0
 11
140.2036256969449
 21
50.988972098663773
 31
0.0
  0
LINE
  5
232
  8
0
 10
136.1621738159092
 20
53.818629682473251
 30
0.0
 11
136.1621738159092
 21
50.988972098663488
 31
0.0
  0
ARC
  5
233
  8
0
 10
138.1828997564271
 20
57.36375731112183
 30
0.0
 40
6.6873926033737083
 50
252.41204622597999
 51
287.58795377402168
  0
ARC
  5
234
  8
0
 10
135.15181084564929
 20
52.465440630191083
 30
0.0
 40
1.7890759224437529
 50
244.38424746777551
 51
304.38424746802241
  0
LINE
  5
235
  8
0
 10
134.78289975642721
 20
50.618629682472857
 30
0.0
 11
134.14144787538751
 21
50.988972098663339
 31
0.0
  0
LINE
  5
236
  8
0
 10
141.58289975642651
 20
50.618629682472857
 30
0.0
 11
142.22435163746621
 21
50.988972098663339
 31
0.0
  0
ARC
  5
237
  8
0
 10
141.2139886672044
 20
52.465440630191083
 30
0.0
 40
1.7890759224437529
 50
235.61575253197751
 51
295.61575253222452
  0
LINE
  5
238
  8
0
 10
142.22435163746621
 20
53.818629682473251
 30
0.0
 11
142.22435163746621
 21
50.988972098663339
 31
0.0
  0
LINE
  5
239
  8
0
 10
162.13760152009829
 20
53.818629682473158
 30
0.0
 11
169.1376015144011
 21
53.818629682473158
 31
0.0
  0
LINE
  5
23A
  8
0
 10
162.23760151725031
 20
50.618629682473177
 30
0.0
 11
169.03760151724961
 21
50.618629682473177
 31
0.0
  0
LINE
  5
23B
  8
0
 10
169.1376015144011
 20
53.818629682473158
 30
0.0
 11
169.1376015144011
 21
50.67636470774756
 31
0.0
  0
LINE
  5
23C
  8
0
 10
162.1376015200982
 20
50.676364707747872
 30
0.0
 11
162.13760152009829
 21
53.818629682473158
 31
0.0
  0
LINE
  5
23D
  8
0
 10
162.23760151725031
 20
50.618629682473177
 30
0.0
 11
162.1376015200982
 21
50.676364707747901
 31
0.0
  0
ARC
  5
23E
  8
0
 10
163.88760151867439
 20
55.73098508414305
 30
0.0
 40
5.054620376395234
 50
249.74384199953809
 51
290.25615800045512
  0
ARC
  5
23F
  8
0
 10
167.38760151582559
 20
55.73098508414305
 30
0.0
 40
5.054620376395234
 50
249.743841999545
 51
290.25615800046182
  0
LINE
  5
240
  8
0
 10
169.03760151724961
 20
50.618629682473177
 30
0.0
 11
169.1376015144011
 21
50.67636470774756
 31
0.0
  0
LINE
  5
241
  8
0
 10
165.63760151725
 20
50.988972098663631
 30
0.0
 11
165.63760151725
 21
53.818629682473158
 31
0.0
  0
TEXT
  5
2AB
  8
0
 62
     3
 10
0.0
 20
0.0
 30
0.0
 40
10.0
  1
MLSD101
  7
STANDARD1
  0
ENDSEC
  0
EOF
