  0
SECTION
  2
HEADER
  9
$ACADVER
  1
AC1009
  9
$INSBASE
 10
0.0
 20
0.0
 30
0.0
  9
$EXTMIN
 10
0.0
 20
-2.960436562073669
 30
0.0
  9
$EXTMAX
 10
702.48885598260551
 20
437.76374548029969
 30
0.0
  9
$LIMMIN
 10
0.0
 20
0.0
  9
$LIMMAX
 10
750.0
 20
540.0
  9
$ORTHOMODE
 70
     1
  9
$REGENMODE
 70
     1
  9
$FILLMODE
 70
     1
  9
$QTEXTMODE
 70
     0
  9
$MIRRTEXT
 70
     0
  9
$DRAGMODE
 70
     2
  9
$LTSCALE
 40
20.0
  9
$OSMODE
 70
  3071
  9
$ATTMODE
 70
     1
  9
$TEXTSIZE
 40
8.0000000000000497
  9
$TRACEWID
 40
0.05
  9
$TEXTSTYLE
  7
STANDARD
  9
$CLAYER
  8
4
  9
$CELTYPE
  6
BYLAYER
  9
$CECOLOR
 62
   256
  9
$DIMSCALE
 40
2.0
  9
$DIMASZ
 40
3.0
  9
$DIMEXO
 40
2.0
  9
$DIMDLI
 40
0.38
  9
$DIMRND
 40
0.0
  9
$DIMDLE
 40
0.0
  9
$DIMEXE
 40
2.0
  9
$DIMTP
 40
0.0
  9
$DIMTM
 40
0.0
  9
$DIMTXT
 40
3.2000000000000002
  9
$DIMCEN
 40
0.0
  9
$DIMTSZ
 40
0.0
  9
$DIMTOL
 70
     0
  9
$DIMLIM
 70
     0
  9
$DIMTIH
 70
     0
  9
$DIMTOH
 70
     0
  9
$DIMSE1
 70
     0
  9
$DIMSE2
 70
     0
  9
$DIMTAD
 70
     1
  9
$DIMZIN
 70
     0
  9
$DIMBLK
  1

  9
$DIMASO
 70
     1
  9
$DIMSHO
 70
     0
  9
$DIMPOST
  1

  9
$DIMAPOST
  1

  9
$DIMALT
 70
     0
  9
$DIMALTD
 70
     2
  9
$DIMALTF
 40
25.399999999999999
  9
$DIMLFAC
 40
1.0
  9
$DIMTOFL
 70
     1
  9
$DIMTVP
 40
1.6000000000000001
  9
$DIMTIX
 70
     1
  9
$DIMSOXD
 70
     0
  9
$DIMSAH
 70
     0
  9
$DIMBLK1
  1

  9
$DIMBLK2
  1

  9
$DIMSTYLE
  2
STANDARD
  9
$DIMCLRD
 70
     0
  9
$DIMCLRE
 70
     0
  9
$DIMCLRT
 70
     0
  9
$DIMTFAC
 40
1.0
  9
$DIMGAP
 40
0.09
  9
$LUNITS
 70
     2
  9
$LUPREC
 70
     4
  9
$SKETCHINC
 40
0.1
  9
$FILLETRAD
 40
20.0
  9
$AUNITS
 70
     0
  9
$AUPREC
 70
     4
  9
$MENU
  1
E:\r13\win\SUPPORT\ACAD
  9
$ELEVATION
 40
0.0
  9
$PELEVATION
 40
0.0
  9
$THICKNESS
 40
0.0
  9
$LIMCHECK
 70
     0
  9
$BLIPMODE
 70
     0
  9
$CHAMFERA
 40
0.0
  9
$CHAMFERB
 40
0.0
  9
$SKPOLY
 70
     0
  9
$TDCREATE
 40
2449840.6449189819
  9
$TDUPDATE
 40
2456597.6546805669
  9
$TDINDWG
 40
0.0002260532
  9
$TDUSRTIMER
 40
0.0002260532
  9
$USRTIMER
 70
     1
  9
$ANGBASE
 50
0.0
  9
$ANGDIR
 70
     0
  9
$PDMODE
 70
    35
  9
$PDSIZE
 40
0.0
  9
$PLINEWID
 40
0.0
  9
$COORDS
 70
     1
  9
$SPLFRAME
 70
     0
  9
$SPLINETYPE
 70
     6
  9
$SPLINESEGS
 70
     8
  9
$ATTDIA
 70
     0
  9
$ATTREQ
 70
     1
  9
$HANDLING
 70
     1
  9
$HANDSEED
  5
35F
  9
$SURFTAB1
 70
     6
  9
$SURFTAB2
 70
     6
  9
$SURFTYPE
 70
     6
  9
$SURFU
 70
     6
  9
$SURFV
 70
     6
  9
$UCSNAME
  2

  9
$UCSORG
 10
0.0
 20
0.0
 30
0.0
  9
$UCSXDIR
 10
1.0
 20
0.0
 30
0.0
  9
$UCSYDIR
 10
0.0
 20
1.0
 30
0.0
  9
$PUCSNAME
  2

  9
$PUCSORG
 10
0.0
 20
0.0
 30
0.0
  9
$PUCSXDIR
 10
1.0
 20
0.0
 30
0.0
  9
$PUCSYDIR
 10
0.0
 20
1.0
 30
0.0
  9
$USERI1
 70
     0
  9
$USERI2
 70
     1
  9
$USERI3
 70
     1
  9
$USERI4
 70
     0
  9
$USERI5
 70
     0
  9
$USERR1
 40
0.0
  9
$USERR2
 40
0.0
  9
$USERR3
 40
0.0
  9
$USERR4
 40
0.0
  9
$USERR5
 40
0.0
  9
$WORLDVIEW
 70
     1
  9
$SHADEDGE
 70
     3
  9
$SHADEDIF
 70
    70
  9
$TILEMODE
 70
     1
  9
$MAXACTVP
 70
    16
  9
$PLIMCHECK
 70
     0
  9
$PEXTMIN
 10
1.0000000000000000E+020
 20
1.0000000000000000E+020
 30
1.0000000000000000E+020
  9
$PEXTMAX
 10
-1.0000000000000000E+020
 20
-1.0000000000000000E+020
 30
-1.0000000000000000E+020
  9
$PLIMMIN
 10
0.0
 20
0.0
  9
$PLIMMAX
 10
12.0
 20
9.0
  9
$UNITMODE
 70
     0
  9
$VISRETAIN
 70
     0
  9
$PLINEGEN
 70
     0
  9
$PSLTSCALE
 70
     0
  0
ENDSEC
  0
SECTION
  2
TABLES
  0
TABLE
  2
VPORT
 70
     1
  0
VPORT
  2
*ACTIVE
 70
     0
 10
0.0
 20
0.0
 11
1.0
 21
1.0
 12
374.98855678130462
 22
269.68405869568772
 13
0.0
 23
0.0
 14
20.0
 24
20.0
 15
20.0
 25
20.0
 16
0.0
 26
0.0
 36
1.0
 17
0.0
 27
0.0
 37
0.0
 40
551.57487251346481
 41
2.304913294797688
 42
50.0
 43
0.0
 44
0.0
 50
0.0
 51
0.0
 71
     0
 72
   500
 73
     1
 74
     0
 75
     0
 76
     0
 77
     0
 78
     0
  0
ENDTAB
  0
TABLE
  2
LTYPE
 70
     4
  0
LTYPE
  2
CONTINUOUS
 70
     0
  3
Solid Line
 72
    65
 73
     0
 40
0.0
  0
LTYPE
  2
CENTER
 70
     0
  3
____ _ ____ _ ____ _ ____ _ ____ _ ____ _ ____
 72
    65
 73
     4
 40
2.0
 49
1.25
 49
-0.25
 49
0.25
 49
-0.25
  0
LTYPE
  2
HIDDEN
 70
     0
  3
_ _ _ _ _ _ _ _ _ _ _ _ _ _ _ _ _ _ _ _ _ _ _
 72
    65
 73
     2
 40
0.375
 49
0.25
 49
-0.125
  0
LTYPE
  2
PHANTOM2
 70
     0
  3
___ _ _ ___ _ _ ___ _ _ ___ _ _
 72
    65
 73
     6
 40
1.25
 49
0.625
 49
-0.125
 49
0.125
 49
-0.125
 49
0.125
 49
-0.125
  0
ENDTAB
  0
TABLE
  2
LAYER
 70
     5
  0
LAYER
  2
0
 70
     0
 62
     7
  6
CONTINUOUS
  0
LAYER
  2
1
 70
     0
 62
     1
  6
CENTER
  0
LAYER
  2
3
 70
     0
 62
     3
  6
CONTINUOUS
  0
LAYER
  2
4
 70
     0
 62
     4
  6
CONTINUOUS
  0
LAYER
  2
2
 70
     0
 62
     2
  6
HIDDEN
  0
ENDTAB
  0
TABLE
  2
STYLE
 70
     2
  0
STYLE
  2
STANDARD
 70
     0
 40
0.0
 41
1.0
 50
0.0
 71
     0
 42
8.0000000000000497
  3
TXT
  4
BIGFONT
  0
STYLE
  2
STANDARD1
 70
     0
 40
0.0
 41
1.0
 50
0.0
 71
     0
 42
3.0
  3
txt
  4

  0
ENDTAB
  0
TABLE
  2
VIEW
 70
     1
  0
VIEW
  2
ALL
 70
     0
 40
540.0
 10
426.51378151260502
 20
270.0
 41
0.0
 11
0.0
 21
0.0
 31
1.0
 12
0.0
 22
0.0
 32
0.0
 42
0.0
 43
0.0
 44
0.0
 50
0.0
 71
     0
  0
ENDTAB
  0
TABLE
  2
UCS
 70
     0
  0
ENDTAB
  0
TABLE
  2
APPID
 70
     3
  0
APPID
  2
ACAD
 70
     0
  0
APPID
  2
ACAD_MLEADERVER
 70
     0
  0
APPID
  2
ACAD_NAV_VCDISPLAY
 70
     0
  0
ENDTAB
  0
TABLE
  2
DIMSTYLE
 70
     1
  0
DIMSTYLE
  2
STANDARD
 70
     0
  3

  4

  5

  6

  7

 40
1.0
 41
0.18
 42
0.0625
 43
0.38
 44
0.18
 45
0.0
 46
0.0
 47
0.0
 48
0.0
140
0.18
141
0.09
142
0.0
143
25.399999999999999
144
1.0
145
0.0
146
1.0
147
0.09
 71
     0
 72
     0
 73
     1
 74
     1
 75
     0
 76
     0
 77
     0
 78
     0
170
     0
171
     2
172
     0
173
     0
174
     0
175
     0
176
     0
177
     0
178
     0
  0
ENDTAB
  0
ENDSEC
  0
SECTION
  2
BLOCKS
  0
BLOCK
  8
0
  2
$MODEL_SPACE
 70
     0
 10
0.0
 20
0.0
 30
0.0
  3
$MODEL_SPACE
  1

  0
ENDBLK
  5
1DA
  8
0
  0
BLOCK
 67
     1
  8
0
  2
$PAPER_SPACE
 70
     0
 10
0.0
 20
0.0
 30
0.0
  3
$PAPER_SPACE
  1

  0
ENDBLK
  5
1D8
 67
     1
  8
0
  0
ENDSEC
  0
SECTION
  2
ENTITIES
  0
LINE
  5
94
  8
1
 10
667.48885598260551
 20
427.2637454803002
 30
0.0
 11
667.48885598260551
 21
400.2637454803002
 31
0.0
  0
LINE
  5
95
  8
0
 10
667.48885598260529
 20
389.99668422329609
 30
0.0
 11
667.48885598260551
 21
393.7637454803002
 31
0.0
  0
POLYLINE
  5
96
  8
0
 66
     1
 10
0.0
 20
0.0
 30
0.0
  0
VERTEX
  5
97
  8
0
 10
667.48885598260529
 20
389.99668422329609
 30
0.0
  0
VERTEX
  5
98
  8
0
 10
667.44420888028424
 20
389.940878310063
 30
0.0
 42
-0.0320998587185313
  0
VERTEX
  5
99
  8
0
 10
666.75662293557173
 20
389.83197165852289
 30
0.0
 42
-0.013583796483866
 70
     2
 50
185.32319350366319
  0
VERTEX
  5
9A
  8
0
 10
666.02346211575411
 20
389.78370313259569
 30
0.0
 42
-0.0096441512384939
  0
VERTEX
  5
9B
  8
0
 10
664.98885598260551
 20
389.76374548030071
 30
0.0
 42
-0.0096441512385256
  0
SEQEND
  5
9C
  8
0
  0
POLYLINE
  5
9D
  8
0
 66
     1
 10
0.0
 20
0.0
 30
0.0
  0
VERTEX
  5
9E
  8
0
 10
667.48885598260529
 20
437.53080673730437
 30
0.0
  0
VERTEX
  5
9F
  8
0
 10
667.44420888028424
 20
437.5866126505374
 30
0.0
 42
0.0320998587185313
  0
VERTEX
  5
A0
  8
0
 10
666.75662293557173
 20
437.69551930207751
 30
0.0
 42
0.013583796483866
 70
     2
 50
174.67680649633681
  0
VERTEX
  5
A1
  8
0
 10
666.02346211575411
 20
437.74378782800471
 30
0.0
 42
0.0096441512384939
 50
174.67680649633681
  0
VERTEX
  5
A2
  8
0
 10
664.98885598260551
 20
437.76374548029969
 30
0.0
 42
0.0096441512385256
  0
SEQEND
  5
A3
  8
0
  0
LINE
  5
A4
  8
3
 10
689.98885598260551
 20
435.26374548029969
 30
0.0
 11
689.98885598260517
 21
392.2637454802998
 31
0.0
  0
LINE
  5
A5
  8
0
 10
667.48885598260529
 20
437.53080673730437
 30
0.0
 11
667.48885598260551
 21
433.7637454803002
 31
0.0
  0
LINE
  5
A6
  8
0
 10
660.48885598260551
 20
431.26375087509689
 30
0.0
 11
660.48885598260551
 21
396.26374548030032
 31
0.0
  0
LINE
  5
A7
  8
0
 10
692.48885598260551
 20
435.26374548029969
 30
0.0
 11
692.48885598260529
 21
392.2637454802998
 31
0.0
  0
LINE
  5
A8
  8
0
 10
655.48885598260529
 20
435.26374548029969
 30
0.0
 11
655.48885598260529
 21
428.7637454803002
 31
0.0
  0
ARC
  5
A9
  8
0
 10
662.98885598260529
 20
396.26374548030032
 30
0.0
 40
2.5
 50
179.9999999999994
 51
270.00000000000011
  0
LINE
  5
AA
  8
0
 10
667.48885598260551
 20
393.7637454803002
 30
0.0
 11
662.98885598260529
 21
393.7637454803002
 31
0.0
  0
LINE
  5
AB
  8
0
 10
667.48885598260551
 20
433.7637454803002
 30
0.0
 11
662.98885598260529
 21
433.7637454803002
 31
0.0
  0
ARC
  5
AC
  8
0
 10
662.98885598260529
 20
431.2637454803002
 30
0.0
 40
2.5
 50
89.999999999999986
 51
180.00000000000071
  0
LINE
  5
AD
  8
3
 10
662.98885598260529
 20
431.2637454803002
 30
0.0
 11
662.98885598260529
 21
396.26374548030032
 31
0.0
  0
LINE
  5
AE
  8
0
 10
655.48885598260529
 20
398.7637454803002
 30
0.0
 11
655.4888559826054
 21
392.2637454802998
 31
0.0
  0
LINE
  5
AF
  8
0
 10
689.98885598260517
 20
389.7637454802998
 30
0.0
 11
657.98885598260551
 21
389.7637454802998
 31
0.0
  0
LINE
  5
B0
  8
0
 10
689.98885598260551
 20
437.76374548029969
 30
0.0
 11
657.98885598260517
 21
437.76374548029969
 31
0.0
  0
ARC
  5
B1
  8
0
 10
689.98885598260551
 20
435.26374548029969
 30
0.0
 40
2.5
 50
0.0000000000000763
 51
90.000000000000099
  0
ARC
  5
B2
  8
0
 10
657.98885598260517
 20
435.26374548029969
 30
0.0
 40
2.5
 50
90.000000000000185
 51
180.0000000000004
  0
ARC
  5
B3
  8
0
 10
657.98885598260551
 20
392.2637454802998
 30
0.0
 40
2.5
 50
180.0
 51
270.00000000000011
  0
ARC
  5
B4
  8
0
 10
689.98885598260517
 20
392.2637454802998
 30
0.0
 40
2.5
 50
270.00000000000011
 51
0.0000000000000254
  0
LINE
  5
B5
  8
0
 10
660.48885598260506
 20
398.7637454803002
 30
0.0
 11
174.4888559826054
 21
398.76374548029997
 31
0.0
  0
LINE
  5
B6
  8
0
 10
174.4888559826054
 20
428.7637454803002
 30
0.0
 11
660.48885598260506
 21
428.7637454803002
 31
0.0
  0
LINE
  5
B7
  8
1
 10
132.4888559826054
 20
413.7637454803002
 30
0.0
 11
702.48885598260551
 21
413.76374548030009
 31
0.0
  0
ARC
  5
B8
  8
0
 10
58.816036634851763
 20
220.4381360272601
 30
0.0
 40
2.5
 50
5.3231935036615834
 51
106.86015253647621
  0
ARC
  5
B9
  8
0
 10
45.76438564136528
 20
220.43813602725871
 30
0.0
 40
2.5
 50
73.139847463524546
 51
174.67680649633959
  0
ARC
  5
BA
  8
0
 10
52.290211138108553
 20
241.97098538785551
 30
0.0
 40
20.00000000000087
 50
253.1398474635248
 51
286.86015253647611
  0
ARC
  5
BB
  8
2
 10
52.290211138108553
 20
241.97098538785551
 30
0.0
 40
20.000000000000401
 50
286.86015253645911
 51
5.3231935036604812
  0
ARC
  5
BC
  8
0
 10
61.235538806495988
 20
194.47098538785559
 30
0.0
 40
2.5
 50
270.00000000000023
 51
5.3231935036608498
  0
ARC
  5
BD
  8
0
 10
43.344883469721381
 20
194.47098538785551
 30
0.0
 40
2.5
 50
174.6768064963394
 51
270.00000000000023
  0
LINE
  5
BE
  8
0
 10
40.855665407941679
 20
194.7029195183963
 30
0.0
 11
43.275167579585641
 21
220.6700701577995
 31
0.0
  0
LINE
  5
BF
  8
0
 10
63.724756868275691
 20
194.7029195183963
 30
0.0
 11
61.305254696631451
 21
220.67007015780089
 31
0.0
  0
ARC
  5
C0
  8
2
 10
52.290211138108553
 20
241.97098538785551
 30
0.0
 40
20.000000000000401
 50
174.67680649633951
 51
253.1398474635408
  0
ARC
  5
C1
  8
0
 10
52.290211138108553
 20
241.97098538785551
 30
0.0
 40
20.0
 50
5.3231935036604741
 51
174.67680649633951
  0
LINE
  5
C2
  8
0
 10
76.290211138108589
 20
199.97098538785571
 30
0.0
 11
72.203955632346151
 21
243.82645843218179
 31
0.0
  0
LINE
  5
C3
  8
0
 10
28.290211138108599
 20
199.97098538785519
 30
0.0
 11
32.376466643870927
 21
243.82645843218179
 31
0.0
  0
LINE
  5
C4
  8
0
 10
76.290211138108475
 20
181.97098538785559
 30
0.0
 11
76.290211138108589
 21
199.97098538785571
 31
0.0
  0
LINE
  5
C5
  8
0
 10
28.290211138108429
 20
181.97098538785539
 30
0.0
 11
28.290211138108599
 21
199.97098538785519
 31
0.0
  0
LINE
  5
C6
  8
0
 10
45.79021113810883
 20
198.92664782055741
 30
0.0
 11
45.79021113810883
 21
193.97098538785551
 31
0.0
  0
LINE
  5
C7
  8
0
 10
52.290211138108603
 20
198.34609123695631
 30
0.0
 11
52.290211138108553
 21
193.97098538785559
 31
0.0
  0
LINE
  5
C8
  8
0
 10
58.790211138108369
 20
198.92664782055741
 30
0.0
 11
58.790211138108369
 21
193.97098538785551
 31
0.0
  0
LINE
  5
C9
  8
0
 10
58.540211138107232
 20
199.0709853878555
 30
0.0
 11
46.04021113810996
 21
199.0709853878555
 31
0.0
  0
LINE
  5
CA
  8
0
 10
58.790211138108369
 20
198.92664782055741
 30
0.0
 11
58.540211138107232
 21
199.0709853878555
 31
0.0
  0
ARC
  5
CB
  8
0
 10
55.540211138108369
 20
189.53949568530871
 30
0.0
 40
9.3871521352487513
 50
69.743841999582841
 51
110.2561580004172
  0
ARC
  5
CC
  8
0
 10
49.04021113810883
 20
189.53949568530871
 30
0.0
 40
9.3871521352487513
 50
69.743841999582841
 51
110.2561580004172
  0
LINE
  5
CD
  8
0
 10
45.79021113810883
 20
198.92664782055741
 30
0.0
 11
46.04021113810996
 21
199.0709853878555
 31
0.0
  0
LINE
  5
CE
  8
0
 10
43.790211138108027
 20
193.5709853878555
 30
0.0
 11
43.790211138108027
 21
191.97098538785559
 31
0.0
  0
LINE
  5
CF
  8
0
 10
60.79021113810888
 20
193.5709853878555
 30
0.0
 11
60.79021113810888
 21
191.97098538785559
 31
0.0
  0
LINE
  5
D0
  8
0
 10
60.79021113810888
 20
193.5709853878555
 30
0.0
 11
43.790211138108027
 21
193.5709853878555
 31
0.0
  0
LINE
  5
D1
  8
0
 10
45.79021113810883
 20
193.97098538785551
 30
0.0
 11
58.790211138108369
 21
193.97098538785551
 31
0.0
  0
LINE
  5
D2
  8
0
 10
46.440211138108459
 20
193.97098538785551
 30
0.0
 11
46.440211138108459
 21
193.5709853878555
 31
0.0
  0
LINE
  5
D3
  8
0
 10
58.140211138108512
 20
193.97098538785539
 30
0.0
 11
58.140211138108512
 21
193.57098538785539
 31
0.0
  0
LINE
  5
D4
  8
0
 10
43.344883469721381
 20
191.97098538785551
 30
0.0
 11
61.235538806495988
 21
191.97098538785559
 31
0.0
  0
LINE
  5
D5
  8
0
 10
28.290211138108429
 20
181.97098538785539
 30
0.0
 11
76.290211138108475
 21
181.97098538785559
 31
0.0
  0
LINE
  5
D6
  8
0
 10
58.790211138108319
 20
177.60224734094109
 30
0.0
 11
58.540211138107182
 21
177.74658490823921
 31
0.0
  0
ARC
  5
D7
  8
0
 10
55.540211138108319
 20
168.21509520569239
 30
0.0
 40
9.3871521352487513
 50
69.743841999582841
 51
110.2561580004172
  0
ARC
  5
D8
  8
0
 10
49.040211138108774
 20
168.21509520569239
 30
0.0
 40
9.3871521352487513
 50
69.743841999582841
 51
110.2561580004172
  0
LINE
  5
D9
  8
0
 10
45.790211138108774
 20
177.60224734094109
 30
0.0
 11
46.04021113810991
 21
177.74658490823921
 31
0.0
  0
LINE
  5
DA
  8
0
 10
45.79021113810883
 20
171.39092247553731
 30
0.0
 11
46.04021113810996
 21
171.24658490823921
 31
0.0
  0
ARC
  5
DB
  8
0
 10
49.04021113810883
 20
180.77807461078601
 30
0.0
 40
9.3871521352487513
 50
249.7438419995828
 51
290.25615800041709
  0
LINE
  5
DC
  8
0
 10
45.79021113810883
 20
171.39092247553731
 30
0.0
 11
45.79021113810883
 21
177.6022473409412
 31
0.0
  0
LINE
  5
DD
  8
0
 10
52.290211138108603
 20
171.9714790591384
 30
0.0
 11
52.290211138108553
 21
177.0216907573429
 31
0.0
  0
LINE
  5
DE
  8
0
 10
58.790211138108369
 20
171.39092247553731
 30
0.0
 11
58.790211138108369
 21
177.60224734094101
 31
0.0
  0
ARC
  5
DF
  8
0
 10
55.540211138108369
 20
180.77807461078601
 30
0.0
 40
9.3871521352487513
 50
249.7438419995828
 51
290.25615800041709
  0
LINE
  5
E0
  8
0
 10
58.790211138108369
 20
171.39092247553731
 30
0.0
 11
58.540211138107232
 21
171.24658490823921
 31
0.0
  0
LINE
  5
E1
  8
0
 10
58.540211138107232
 20
171.24658490823921
 30
0.0
 11
46.04021113810996
 21
171.24658490823921
 31
0.0
  0
LINE
  5
E2
  8
0
 10
55.090211138108778
 20
168.5709853878555
 30
0.0
 11
49.490211138108869
 21
168.5709853878555
 31
0.0
  0
LINE
  5
E3
  8
0
 10
48.29021113810888
 20
181.97098538785551
 30
0.0
 11
48.29021113810883
 21
179.34658490823909
 31
0.0
  0
LINE
  5
E4
  8
3
 10
48.966711138108693
 20
181.97098538785551
 30
0.0
 11
48.966711138108742
 21
179.34658490823909
 31
0.0
  0
LINE
  5
E5
  8
3
 10
55.613711138108847
 20
181.97098538785559
 30
0.0
 11
55.613711138108911
 21
179.34658490823909
 31
0.0
  0
LINE
  5
E6
  8
0
 10
56.290211138108887
 20
181.97098538785559
 30
0.0
 11
56.290211138108887
 21
179.34658490823921
 31
0.0
  0
LINE
  5
E7
  8
0
 10
56.29021113810883
 20
169.77098538785549
 30
0.0
 11
55.090211138108778
 21
168.5709853878555
 31
0.0
  0
LINE
  5
E8
  8
0
 10
49.490211138108869
 20
168.5709853878555
 30
0.0
 11
48.29021113810883
 21
169.77098538785549
 31
0.0
  0
LINE
  5
E9
  8
0
 10
56.29021113810883
 20
169.7709853878554
 30
0.0
 11
48.29021113810883
 21
169.77098538785549
 31
0.0
  0
LINE
  5
EA
  8
0
 10
43.790211138108432
 20
177.74658490823921
 30
0.0
 11
43.790211138108432
 21
179.34658490823909
 31
0.0
  0
LINE
  5
EB
  8
0
 10
60.790211138109278
 20
177.74658490823921
 30
0.0
 11
43.790211138108432
 21
177.74658490823921
 31
0.0
  0
LINE
  5
EC
  8
0
 10
60.790211138109278
 20
177.74658490823921
 30
0.0
 11
60.790211138109278
 21
179.34658490823909
 31
0.0
  0
LINE
  5
ED
  8
0
 10
43.790211138108432
 20
179.34658490823909
 30
0.0
 11
60.790211138109278
 21
179.34658490823909
 31
0.0
  0
LINE
  5
EE
  8
0
 10
56.290211138108937
 20
171.2465849082393
 30
0.0
 11
56.29021113810883
 21
169.77098538785549
 31
0.0
  0
LINE
  5
EF
  8
3
 10
55.613711138108911
 20
171.2465849082393
 30
0.0
 11
55.613711138108911
 21
169.0944853878556
 31
0.0
  0
LINE
  5
F0
  8
0
 10
48.29021113810883
 20
171.2465849082393
 30
0.0
 11
48.29021113810883
 21
169.77098538785549
 31
0.0
  0
LINE
  5
F1
  8
3
 10
48.966711138108742
 20
171.2465849082393
 30
0.0
 11
48.966711138108742
 21
169.0944853878556
 31
0.0
  0
LINE
  5
F2
  8
1
 10
137.4888559826054
 20
241.97098538785551
 30
0.0
 11
697.48885598260551
 21
241.97098538785551
 31
0.0
  0
LINE
  5
F3
  8
3
 10
657.98885598260551
 20
189.47098538785551
 30
0.0
 11
657.98885598260551
 21
184.47098538785571
 31
0.0
  0
ARC
  5
F4
  8
0
 10
657.98885598260551
 20
189.47098538785551
 30
0.0
 40
2.5
 50
90.0
 51
180.00000000000119
  0
LINE
  5
F5
  8
3
 10
689.98885598260551
 20
197.47098538783229
 30
0.0
 11
689.98885598260551
 21
184.47098538785559
 31
0.0
  0
LINE
  5
F6
  8
3
 10
689.98885598260551
 20
259.47098538785548
 30
0.0
 11
689.98885598260551
 21
202.4709853878789
 31
0.0
  0
LINE
  5
F7
  8
3
 10
662.98885598260529
 20
259.47098538785559
 30
0.0
 11
662.98885598260529
 21
224.47098538785559
 31
0.0
  0
LINE
  5
F8
  8
2
 10
660.48885598260517
 20
256.97098538785548
 30
0.0
 11
687.48885598260551
 21
256.97098538785548
 31
0.0
  0
LINE
  5
F9
  8
2
 10
660.48885598260517
 20
226.97098538785551
 30
0.0
 11
687.48885598260551
 21
226.97098538785551
 31
0.0
  0
ARC
  5
FA
  8
0
 10
664.98885598260574
 20
194.47098538785551
 30
0.0
 40
2.5
 50
270.0
 51
0.0000000000002163
  0
LINE
  5
FB
  8
0
 10
692.48885598260551
 20
259.47098538785548
 30
0.0
 11
692.48885598260551
 21
181.97098538785551
 31
0.0
  0
LINE
  5
FC
  8
0
 10
660.48885598260517
 20
259.47098538785548
 30
0.0
 11
660.48885598260517
 21
224.47098538785559
 31
0.0
  0
LINE
  5
FD
  8
0
 10
692.48885598260551
 20
181.97098538785551
 30
0.0
 11
655.4888559826054
 21
181.97098538785559
 31
0.0
  0
LINE
  5
FE
  8
2
 10
687.48885598260551
 20
256.97098538785548
 30
0.0
 11
687.48885598260551
 21
226.97098538785551
 31
0.0
  0
LINE
  5
FF
  8
0
 10
689.98885598260551
 20
261.97098538785548
 30
0.0
 11
662.98885598260529
 21
261.97098538785548
 31
0.0
  0
LINE
  5
100
  8
0
 10
667.48885598260551
 20
221.97098538785551
 30
0.0
 11
662.98885598260529
 21
221.97098538785551
 31
0.0
  0
ARC
  5
101
  8
0
 10
662.98885598260529
 20
259.47098538785559
 30
0.0
 40
2.5
 50
89.999999999999986
 51
180.00000000000071
  0
ARC
  5
102
  8
0
 10
662.98885598260529
 20
224.47098538785559
 30
0.0
 40
2.5
 50
179.9999999999994
 51
270.00000000000011
  0
ARC
  5
103
  8
0
 10
689.98885598260551
 20
259.47098538785548
 30
0.0
 40
2.5
 50
0.0000000000000763
 51
90.000000000000028
  0
LINE
  5
104
  8
0
 10
667.48885598260529
 20
241.97098538785551
 30
0.0
 11
667.48885598260574
 21
194.47098538785551
 31
0.0
  0
LINE
  5
105
  8
0
 10
664.98885598260574
 20
191.97098538785551
 30
0.0
 11
657.98885598260551
 21
191.97098538785551
 31
0.0
  0
LINE
  5
106
  8
0
 10
658.98885598260495
 20
193.5709853878555
 30
0.0
 11
658.98885598260495
 21
191.97098538785559
 31
0.0
  0
LINE
  5
107
  8
0
 10
658.98885598260495
 20
193.5709853878555
 30
0.0
 11
667.32123674054435
 21
193.5709853878555
 31
0.0
  0
ARC
  5
108
  8
0
 10
667.4888559826046
 20
186.50720440416501
 30
0.0
 40
12.41944341639239
 50
89.999999999995296
 51
107.58795377399851
  0
LINE
  5
109
  8
0
 10
663.73607923287489
 20
198.34609123695671
 30
0.0
 11
663.7360792328717
 21
193.97098538785551
 31
0.0
  0
LINE
  5
10A
  8
0
 10
659.98330248314062
 20
198.34609123695671
 30
0.0
 11
659.98330248314062
 21
193.97098538785551
 31
0.0
  0
LINE
  5
10B
  8
0
 10
659.98330248314062
 20
198.34609123695671
 30
0.0
 11
661.23885598260688
 21
199.0709853878555
 31
0.0
  0
ARC
  5
10C
  8
0
 10
661.85969085800696
 20
195.60407824760739
 30
0.0
 40
3.3225695729499738
 50
55.615752531959167
 51
115.61575253217551
  0
LINE
  5
10D
  8
0
 10
667.48885598260551
 20
199.0709853878555
 30
0.0
 11
661.23885598260699
 21
199.0709853878555
 31
0.0
  0
LINE
  5
10E
  8
0
 10
667.43834572537685
 20
193.97098538785551
 30
0.0
 11
659.98330248314062
 21
193.97098538785551
 31
0.0
  0
LINE
  5
10F
  8
0
 10
664.68885598260545
 20
168.5709853878555
 30
0.0
 11
670.28885598260536
 21
168.5709853878555
 31
0.0
  0
LINE
  5
110
  8
0
 10
671.48885598260529
 20
181.97098538785559
 30
0.0
 11
671.48885598260551
 21
179.34658490823909
 31
0.0
  0
LINE
  5
111
  8
3
 10
670.81235598260571
 20
181.97098538785559
 30
0.0
 11
670.81235598260571
 21
179.34658490823909
 31
0.0
  0
LINE
  5
112
  8
3
 10
664.16535598260555
 20
181.97098538785559
 30
0.0
 11
664.16535598260555
 21
179.34658490823909
 31
0.0
  0
LINE
  5
113
  8
0
 10
663.48885598260529
 20
181.97098538785559
 30
0.0
 11
663.4888559826054
 21
179.34658490823921
 31
0.0
  0
LINE
  5
114
  8
0
 10
663.4888559826054
 20
169.77098538785549
 30
0.0
 11
664.68885598260545
 21
168.5709853878555
 31
0.0
  0
LINE
  5
115
  8
0
 10
670.28885598260536
 20
168.5709853878555
 30
0.0
 11
671.48885598260551
 21
169.77098538785549
 31
0.0
  0
LINE
  5
116
  8
0
 10
663.4888559826054
 20
169.7709853878554
 30
0.0
 11
671.48885598260551
 21
169.77098538785549
 31
0.0
  0
LINE
  5
117
  8
0
 10
661.63885598260526
 20
193.97098538785539
 30
0.0
 11
661.63885598260526
 21
193.57098538785539
 31
0.0
  0
LINE
  5
118
  8
0
 10
675.98885598260586
 20
177.74658490823921
 30
0.0
 11
675.98885598260586
 21
179.34658490823909
 31
0.0
  0
LINE
  5
119
  8
0
 10
658.98885598260495
 20
177.74658490823921
 30
0.0
 11
675.98885598260586
 21
177.74658490823921
 31
0.0
  0
LINE
  5
11A
  8
0
 10
658.98885598260495
 20
177.74658490823921
 30
0.0
 11
658.98885598260495
 21
179.34658490823909
 31
0.0
  0
LINE
  5
11B
  8
0
 10
675.98885598260586
 20
179.34658490823909
 30
0.0
 11
658.98885598260495
 21
179.34658490823909
 31
0.0
  0
LINE
  5
11C
  8
0
 10
663.4888559826054
 20
171.2465849082393
 30
0.0
 11
663.4888559826054
 21
169.77098538785549
 31
0.0
  0
LINE
  5
11D
  8
3
 10
664.16535598260555
 20
171.2465849082393
 30
0.0
 11
664.16535598260555
 21
169.0944853878556
 31
0.0
  0
LINE
  5
11E
  8
0
 10
671.48885598260551
 20
171.2465849082393
 30
0.0
 11
671.48885598260551
 21
169.77098538785549
 31
0.0
  0
LINE
  5
11F
  8
3
 10
670.81235598260571
 20
171.2465849082393
 30
0.0
 11
670.81235598260571
 21
169.0944853878556
 31
0.0
  0
ARC
  5
120
  8
0
 10
661.85969085800616
 20
174.2796777679911
 30
0.0
 40
3.3225695729499738
 50
55.615752531959089
 51
115.61575253217551
  0
LINE
  5
121
  8
0
 10
659.98330248313994
 20
177.02169075734039
 30
0.0
 11
661.2388559826062
 21
177.74658490823921
 31
0.0
  0
LINE
  5
122
  8
0
 10
659.98330248313994
 20
177.02169075734039
 30
0.0
 11
659.98330248313994
 21
171.97147905913809
 31
0.0
  0
LINE
  5
123
  8
0
 10
663.7360792328742
 20
177.02169075734039
 30
0.0
 11
663.73607923287136
 21
171.97147905913829
 31
0.0
  0
LINE
  5
124
  8
0
 10
671.24163273233535
 20
177.02169075734039
 30
0.0
 11
671.24163273233796
 21
171.97147905913829
 31
0.0
  0
LINE
  5
125
  8
0
 10
674.99440948206973
 20
177.02169075734039
 30
0.0
 11
674.99440948206973
 21
171.97147905913809
 31
0.0
  0
LINE
  5
126
  8
0
 10
674.99440948206973
 20
177.02169075734039
 30
0.0
 11
673.73885598260335
 21
177.74658490823921
 31
0.0
  0
ARC
  5
127
  8
0
 10
667.48885598260392
 20
165.18280392454881
 30
0.0
 40
12.41944341639239
 50
72.412046225992569
 51
107.58795377399851
  0
ARC
  5
128
  8
0
 10
673.11802110720328
 20
174.2796777679911
 30
0.0
 40
3.3225695729499738
 50
64.384247467824551
 51
124.3842474680409
  0
ARC
  5
129
  8
0
 10
673.11802110720328
 20
174.7134920484873
 30
0.0
 40
3.3225695729499738
 50
235.615752531959
 51
295.61575253217552
  0
ARC
  5
12A
  8
0
 10
667.48885598260392
 20
183.81036589192959
 30
0.0
 40
12.41944341639239
 50
252.41204622600151
 51
287.58795377400747
  0
LINE
  5
12B
  8
0
 10
674.99440948206973
 20
171.97147905913801
 30
0.0
 11
673.73885598260335
 21
171.24658490823921
 31
0.0
  0
LINE
  5
12C
  8
0
 10
659.98330248313994
 20
171.97147905913801
 30
0.0
 11
661.2388559826062
 21
171.24658490823921
 31
0.0
  0
ARC
  5
12D
  8
0
 10
661.85969085800616
 20
174.7134920484873
 30
0.0
 40
3.3225695729499738
 50
244.38424746782459
 51
304.384247468041
  0
LINE
  5
12E
  8
0
 10
673.7388559826046
 20
171.24658490823921
 30
0.0
 11
661.23885598260642
 21
171.24658490823921
 31
0.0
  0
LINE
  5
12F
  8
0
 10
655.4888559826054
 20
189.47098538785539
 30
0.0
 11
655.4888559826054
 21
181.97098538785559
 31
0.0
  0
LINE
  5
130
  8
1
 10
667.48885598260551
 20
191.97098538785551
 30
0.0
 11
667.48885598260586
 21
158.5709853878555
 31
0.0
  0
LINE
  5
131
  8
3
 10
689.98885598260551
 20
199.97098538785551
 30
0.0
 11
669.98885598260551
 21
199.97098538785559
 31
0.0
  0
LINE
  5
132
  8
0
 10
174.4888559826058
 20
256.97098538785548
 30
0.0
 11
660.48885598260517
 21
256.97098538785548
 31
0.0
  0
LINE
  5
133
  8
0
 10
660.48885598260517
 20
226.97098538785551
 30
0.0
 11
174.4888559826058
 21
226.97098538785551
 31
0.0
  0
LINE
  5
134
  8
1
 10
82.290211138108532
 20
241.97098538785551
 30
0.0
 11
22.29021113810855
 21
241.97098538785551
 31
0.0
  0
LINE
  5
135
  8
1
 10
52.290211138108553
 20
271.97098538785548
 30
0.0
 11
52.290211138108553
 21
158.5709853878555
 31
0.0
  0
LINE
  5
13F
  8
3
 10
144.98885598260549
 20
199.97098538785551
 30
0.0
 11
164.98885598260549
 21
199.97098538785559
 31
0.0
  0
LINE
  5
140
  8
0
 10
179.48885598260549
 20
189.47098538785539
 30
0.0
 11
179.48885598260549
 21
181.97098538785559
 31
0.0
  0
LINE
  5
141
  8
0
 10
161.2388559826064
 20
171.24658490823921
 30
0.0
 11
173.7388559826046
 21
171.24658490823921
 31
0.0
  0
ARC
  5
142
  8
0
 10
173.1180211072047
 20
174.7134920484873
 30
0.0
 40
3.3225695729499738
 50
235.615752531959
 51
295.61575253217552
  0
LINE
  5
143
  8
0
 10
174.99440948207109
 20
171.97147905913801
 30
0.0
 11
173.7388559826048
 21
171.24658490823921
 31
0.0
  0
LINE
  5
144
  8
0
 10
159.9833024831413
 20
171.97147905913801
 30
0.0
 11
161.2388559826075
 21
171.24658490823921
 31
0.0
  0
ARC
  5
145
  8
0
 10
167.48885598260711
 20
183.81036589192959
 30
0.0
 40
12.41944341639239
 50
252.41204622599261
 51
287.58795377399861
  0
ARC
  5
146
  8
0
 10
161.85969085800761
 20
174.7134920484873
 30
0.0
 40
3.3225695729499738
 50
244.38424746782451
 51
304.384247468041
  0
ARC
  5
147
  8
0
 10
161.85969085800761
 20
174.2796777679911
 30
0.0
 40
3.3225695729499738
 50
55.615752531959039
 51
115.61575253217551
  0
ARC
  5
148
  8
0
 10
167.48885598260711
 20
165.18280392454881
 30
0.0
 40
12.41944341639239
 50
72.412046226001479
 51
107.5879537740074
  0
LINE
  5
149
  8
0
 10
159.9833024831413
 20
177.02169075734039
 30
0.0
 11
161.2388559826075
 21
177.74658490823921
 31
0.0
  0
LINE
  5
14A
  8
0
 10
159.9833024831413
 20
177.02169075734039
 30
0.0
 11
159.9833024831413
 21
171.97147905913809
 31
0.0
  0
LINE
  5
14B
  8
0
 10
163.73607923287551
 20
177.02169075734039
 30
0.0
 11
163.73607923287301
 21
171.97147905913829
 31
0.0
  0
LINE
  5
14C
  8
0
 10
171.2416327323368
 20
177.02169075734039
 30
0.0
 11
171.2416327323395
 21
171.97147905913829
 31
0.0
  0
LINE
  5
14D
  8
0
 10
174.99440948207109
 20
177.02169075734039
 30
0.0
 11
174.99440948207109
 21
171.97147905913809
 31
0.0
  0
LINE
  5
14E
  8
0
 10
174.99440948207109
 20
177.02169075734039
 30
0.0
 11
173.7388559826048
 21
177.74658490823921
 31
0.0
  0
ARC
  5
14F
  8
0
 10
173.1180211072047
 20
174.2796777679911
 30
0.0
 40
3.3225695729499738
 50
64.384247467824522
 51
124.3842474680409
  0
LINE
  5
150
  8
3
 10
164.16535598260529
 20
171.2465849082393
 30
0.0
 11
164.16535598260529
 21
169.0944853878556
 31
0.0
  0
LINE
  5
151
  8
0
 10
163.48885598260549
 20
171.2465849082393
 30
0.0
 11
163.48885598260549
 21
169.77098538785549
 31
0.0
  0
LINE
  5
152
  8
3
 10
170.81235598260551
 20
171.2465849082393
 30
0.0
 11
170.81235598260551
 21
169.0944853878556
 31
0.0
  0
LINE
  5
153
  8
0
 10
171.48885598260549
 20
171.2465849082393
 30
0.0
 11
171.48885598260549
 21
169.77098538785549
 31
0.0
  0
LINE
  5
154
  8
0
 10
158.988855982605
 20
179.34658490823909
 30
0.0
 11
175.98885598260591
 21
179.34658490823909
 31
0.0
  0
LINE
  5
155
  8
0
 10
175.98885598260591
 20
177.74658490823921
 30
0.0
 11
175.98885598260591
 21
179.34658490823909
 31
0.0
  0
LINE
  5
156
  8
0
 10
175.98885598260591
 20
177.74658490823921
 30
0.0
 11
158.988855982605
 21
177.74658490823921
 31
0.0
  0
LINE
  5
157
  8
0
 10
158.988855982605
 20
177.74658490823921
 30
0.0
 11
158.988855982605
 21
179.34658490823909
 31
0.0
  0
LINE
  5
158
  8
0
 10
173.33885598260559
 20
193.97098538785539
 30
0.0
 11
173.33885598260559
 21
193.57098538785539
 31
0.0
  0
LINE
  5
159
  8
0
 10
171.48885598260549
 20
169.7709853878554
 30
0.0
 11
163.48885598260549
 21
169.77098538785549
 31
0.0
  0
LINE
  5
15A
  8
0
 10
164.6888559826055
 20
168.5709853878555
 30
0.0
 11
163.48885598260549
 21
169.77098538785549
 31
0.0
  0
LINE
  5
15B
  8
0
 10
171.48885598260549
 20
169.77098538785549
 30
0.0
 11
170.2888559826055
 21
168.5709853878555
 31
0.0
  0
LINE
  5
15C
  8
0
 10
171.48885598260571
 20
181.97098538785559
 30
0.0
 11
171.48885598260549
 21
179.34658490823921
 31
0.0
  0
LINE
  5
15D
  8
3
 10
170.81235598260551
 20
181.97098538785559
 30
0.0
 11
170.81235598260551
 21
179.34658490823909
 31
0.0
  0
LINE
  5
15E
  8
3
 10
164.16535598260529
 20
181.97098538785559
 30
0.0
 11
164.16535598260529
 21
179.34658490823909
 31
0.0
  0
LINE
  5
15F
  8
0
 10
163.48885598260571
 20
181.97098538785559
 30
0.0
 11
163.48885598260549
 21
179.34658490823909
 31
0.0
  0
LINE
  5
160
  8
0
 10
170.2888559826055
 20
168.5709853878555
 30
0.0
 11
164.6888559826055
 21
168.5709853878555
 31
0.0
  0
LINE
  5
161
  8
0
 10
167.5393662398341
 20
193.97098538785551
 30
0.0
 11
174.99440948207041
 21
193.97098538785551
 31
0.0
  0
LINE
  5
162
  8
0
 10
167.48885598260549
 20
199.0709853878555
 30
0.0
 11
173.73885598260389
 21
199.0709853878555
 31
0.0
  0
ARC
  5
163
  8
0
 10
173.11802110720399
 20
195.60407824760739
 30
0.0
 40
3.3225695729499738
 50
64.384247467824494
 51
124.3842474680408
  0
LINE
  5
164
  8
0
 10
174.99440948207041
 20
198.34609123695671
 30
0.0
 11
173.73885598260409
 21
199.0709853878555
 31
0.0
  0
LINE
  5
165
  8
0
 10
174.99440948207041
 20
198.34609123695671
 30
0.0
 11
174.99440948207041
 21
193.97098538785551
 31
0.0
  0
LINE
  5
166
  8
0
 10
171.24163273233609
 20
198.34609123695671
 30
0.0
 11
171.2416327323393
 21
193.97098538785551
 31
0.0
  0
ARC
  5
167
  8
0
 10
167.4888559826064
 20
186.50720440416501
 30
0.0
 40
12.41944341639239
 50
72.412046226001479
 51
90.000000000004746
  0
LINE
  5
168
  8
0
 10
175.98885598260591
 20
193.5709853878555
 30
0.0
 11
167.65647522466671
 21
193.5709853878555
 31
0.0
  0
LINE
  5
169
  8
0
 10
175.98885598260591
 20
193.5709853878555
 30
0.0
 11
175.98885598260591
 21
191.97098538785559
 31
0.0
  0
LINE
  5
16A
  8
0
 10
169.98885598260529
 20
191.97098538785551
 30
0.0
 11
176.98885598260549
 21
191.97098538785551
 31
0.0
  0
LINE
  5
16B
  8
0
 10
167.48885598260571
 20
241.97098538785551
 30
0.0
 11
167.48885598260529
 21
194.47098538785551
 31
0.0
  0
ARC
  5
16C
  8
0
 10
144.98885598260549
 20
259.47098538785548
 30
0.0
 40
2.5
 50
90.0
 51
179.99999999999989
  0
ARC
  5
16D
  8
0
 10
171.98885598260571
 20
224.47098538785559
 30
0.0
 40
2.5
 50
270.0
 51
0.0000000000006361
  0
ARC
  5
16E
  8
0
 10
171.98885598260571
 20
259.47098538785559
 30
0.0
 40
2.5
 50
359.9999999999992
 51
90.000000000000057
  0
LINE
  5
16F
  8
0
 10
167.48885598260549
 20
221.97098538785551
 30
0.0
 11
171.98885598260571
 21
221.97098538785551
 31
0.0
  0
LINE
  5
170
  8
0
 10
144.98885598260549
 20
261.97098538785548
 30
0.0
 11
171.98885598260571
 21
261.97098538785548
 31
0.0
  0
LINE
  5
171
  8
2
 10
147.48885598260549
 20
256.97098538785548
 30
0.0
 11
147.48885598260549
 21
226.97098538785551
 31
0.0
  0
LINE
  5
172
  8
0
 10
142.48885598260549
 20
181.97098538785551
 30
0.0
 11
179.48885598260549
 21
181.97098538785559
 31
0.0
  0
LINE
  5
173
  8
0
 10
174.48885598260571
 20
259.47098538785548
 30
0.0
 11
174.48885598260571
 21
224.47098538785559
 31
0.0
  0
LINE
  5
174
  8
0
 10
142.48885598260549
 20
259.47098538785548
 30
0.0
 11
142.48885598260549
 21
181.97098538785551
 31
0.0
  0
ARC
  5
175
  8
0
 10
169.98885598260529
 20
194.47098538785551
 30
0.0
 40
2.5
 50
179.9999999999998
 51
270.00000000000011
  0
LINE
  5
176
  8
2
 10
174.48885598260571
 20
226.97098538785551
 30
0.0
 11
147.48885598260549
 21
226.97098538785551
 31
0.0
  0
LINE
  5
177
  8
2
 10
174.48885598260571
 20
256.97098538785548
 30
0.0
 11
147.48885598260549
 21
256.97098538785548
 31
0.0
  0
LINE
  5
178
  8
3
 10
171.98885598260571
 20
259.47098538785559
 30
0.0
 11
171.98885598260571
 21
224.47098538785559
 31
0.0
  0
LINE
  5
179
  8
3
 10
144.98885598260549
 20
259.47098538785548
 30
0.0
 11
144.98885598260549
 21
202.4709853878789
 31
0.0
  0
LINE
  5
17A
  8
3
 10
144.98885598260549
 20
197.47098538783229
 30
0.0
 11
144.98885598260549
 21
184.47098538785559
 31
0.0
  0
ARC
  5
17B
  8
0
 10
176.98885598260549
 20
189.47098538785551
 30
0.0
 40
2.5
 50
359.99999999999881
 51
90.000000000000028
  0
LINE
  5
17C
  8
3
 10
176.98885598260549
 20
189.47098538785551
 30
0.0
 11
176.98885598260549
 21
184.47098538785571
 31
0.0
  0
ARC
  5
17D
  8
0
 10
144.9888559826056
 20
392.2637454802998
 30
0.0
 40
2.5
 50
180.0
 51
270.0
  0
ARC
  5
17E
  8
0
 10
176.9888559826054
 20
392.2637454802998
 30
0.0
 40
2.5
 50
270.0
 51
0.0
  0
ARC
  5
17F
  8
0
 10
176.9888559826056
 20
435.26374548029969
 30
0.0
 40
2.5
 50
359.9999999999996
 51
89.999999999999815
  0
ARC
  5
180
  8
0
 10
144.9888559826054
 20
435.26374548029969
 30
0.0
 40
2.5
 50
89.999999999999915
 51
179.99999999999989
  0
LINE
  5
181
  8
0
 10
144.9888559826054
 20
437.76374548029969
 30
0.0
 11
176.9888559826056
 21
437.76374548029969
 31
0.0
  0
LINE
  5
182
  8
0
 10
144.9888559826056
 20
389.7637454802998
 30
0.0
 11
176.9888559826054
 21
389.7637454802998
 31
0.0
  0
LINE
  5
183
  8
0
 10
179.4888559826056
 20
398.7637454803002
 30
0.0
 11
179.4888559826054
 21
392.2637454802998
 31
0.0
  0
LINE
  5
184
  8
3
 10
171.9888559826056
 20
431.2637454803002
 30
0.0
 11
171.9888559826056
 21
396.26374548030032
 31
0.0
  0
ARC
  5
185
  8
0
 10
171.9888559826056
 20
431.2637454803002
 30
0.0
 40
2.5
 50
359.9999999999992
 51
90.000000000000057
  0
LINE
  5
186
  8
0
 10
167.4888559826054
 20
433.7637454803002
 30
0.0
 11
171.9888559826056
 21
433.7637454803002
 31
0.0
  0
LINE
  5
187
  8
0
 10
167.4888559826054
 20
393.7637454803002
 30
0.0
 11
171.9888559826056
 21
393.7637454803002
 31
0.0
  0
ARC
  5
188
  8
0
 10
171.9888559826056
 20
396.26374548030032
 30
0.0
 40
2.5
 50
270.0
 51
0.0000000000006361
  0
LINE
  5
189
  8
0
 10
179.4888559826056
 20
435.26374548029969
 30
0.0
 11
179.4888559826056
 21
428.7637454803002
 31
0.0
  0
LINE
  5
18A
  8
0
 10
142.4888559826054
 20
435.26374548029969
 30
0.0
 11
142.4888559826056
 21
392.2637454802998
 31
0.0
  0
LINE
  5
18B
  8
0
 10
174.4888559826054
 20
431.26375087509689
 30
0.0
 11
174.4888559826054
 21
396.26374548030032
 31
0.0
  0
LINE
  5
18C
  8
0
 10
167.4888559826056
 20
437.53080673730437
 30
0.0
 11
167.4888559826054
 21
433.7637454803002
 31
0.0
  0
LINE
  5
18D
  8
3
 10
144.9888559826054
 20
435.26374548029969
 30
0.0
 11
144.9888559826056
 21
392.2637454802998
 31
0.0
  0
POLYLINE
  5
18E
  8
0
 66
     1
 10
0.0
 20
0.0
 30
0.0
  0
VERTEX
  5
18F
  8
0
 10
167.4888559826056
 20
437.53080673730437
 30
0.0
  0
VERTEX
  5
190
  8
0
 10
167.53350308492659
 20
437.5866126505374
 30
0.0
 42
-0.0320998587185313
  0
VERTEX
  5
191
  8
0
 10
168.22108902963919
 20
437.69551930207751
 30
0.0
 42
-0.013583796483866
 70
     2
 50
5.3231935036631777
  0
VERTEX
  5
192
  8
0
 10
168.9542498494568
 20
437.74378782800471
 30
0.0
 42
-0.0096441512384939
  0
VERTEX
  5
193
  8
0
 10
169.9888559826054
 20
437.76374548029969
 30
0.0
 42
-0.0096441512385256
  0
SEQEND
  5
194
  8
0
  0
POLYLINE
  5
195
  8
0
 66
     1
 10
0.0
 20
0.0
 30
0.0
  0
VERTEX
  5
196
  8
0
 10
167.4888559826056
 20
389.99668422329609
 30
0.0
  0
VERTEX
  5
197
  8
0
 10
167.53350308492659
 20
389.940878310063
 30
0.0
 42
0.0320998587185313
  0
VERTEX
  5
198
  8
0
 10
168.22108902963919
 20
389.83197165852289
 30
0.0
 42
0.013583796483866
 70
     2
 50
354.67680649633689
  0
VERTEX
  5
199
  8
0
 10
168.9542498494568
 20
389.78370313259569
 30
0.0
 42
0.0096441512384939
  0
VERTEX
  5
19A
  8
0
 10
169.9888559826054
 20
389.76374548030071
 30
0.0
 42
0.0096441512385256
  0
SEQEND
  5
19B
  8
0
  0
LINE
  5
19C
  8
0
 10
167.4888559826056
 20
389.99668422329609
 30
0.0
 11
167.4888559826054
 21
393.7637454803002
 31
0.0
  0
LINE
  5
19D
  8
1
 10
167.4888559826054
 20
427.2637454803002
 30
0.0
 11
167.4888559826054
 21
400.2637454803002
 31
0.0
  0
LINE
  5
19E
  8
1
 10
167.48885598260549
 20
191.97098538785551
 30
0.0
 11
167.488855982605
 21
158.5709853878555
 31
0.0
  0
TEXT
  5
2D0
  8
0
 62
     3
 10
0.0
 20
0.0
 30
0.0
 40
10.0
  1
MH7-500N
  7
STANDARD1
  0
ENDSEC
  0
EOF
