  0
SECTION
  2
HEADER
  9
$ACADVER
  1
AC1009
  9
$INSBASE
 10
0.0
 20
0.0
 30
0.0
  9
$EXTMIN
 10
0.0
 20
-2.960436562073669
 30
0.0
  9
$EXTMAX
 10
668.07947979484788
 20
437.76374548029969
 30
0.0
  9
$LIMMIN
 10
0.0
 20
0.0
  9
$LIMMAX
 10
750.0
 20
540.0
  9
$ORTHOMODE
 70
     1
  9
$REGENMODE
 70
     1
  9
$FILLMODE
 70
     1
  9
$QTEXTMODE
 70
     0
  9
$MIRRTEXT
 70
     0
  9
$DRAGMODE
 70
     2
  9
$LTSCALE
 40
20.0
  9
$OSMODE
 70
    37
  9
$ATTMODE
 70
     1
  9
$TEXTSIZE
 40
8.0000000000000497
  9
$TRACEWID
 40
0.05
  9
$TEXTSTYLE
  7
STANDARD
  9
$CLAYER
  8
4
  9
$CELTYPE
  6
BYLAYER
  9
$CECOLOR
 62
   256
  9
$DIMSCALE
 40
2.0
  9
$DIMASZ
 40
3.0
  9
$DIMEXO
 40
2.0
  9
$DIMDLI
 40
0.38
  9
$DIMRND
 40
0.0
  9
$DIMDLE
 40
0.0
  9
$DIMEXE
 40
2.0
  9
$DIMTP
 40
0.0
  9
$DIMTM
 40
0.0
  9
$DIMTXT
 40
3.2000000000000002
  9
$DIMCEN
 40
0.0
  9
$DIMTSZ
 40
0.0
  9
$DIMTOL
 70
     0
  9
$DIMLIM
 70
     0
  9
$DIMTIH
 70
     0
  9
$DIMTOH
 70
     0
  9
$DIMSE1
 70
     0
  9
$DIMSE2
 70
     0
  9
$DIMTAD
 70
     1
  9
$DIMZIN
 70
     8
  9
$DIMBLK
  1

  9
$DIMASO
 70
     1
  9
$DIMSHO
 70
     0
  9
$DIMPOST
  1

  9
$DIMAPOST
  1

  9
$DIMALT
 70
     0
  9
$DIMALTD
 70
     2
  9
$DIMALTF
 40
25.399999999999999
  9
$DIMLFAC
 40
1.0
  9
$DIMTOFL
 70
     1
  9
$DIMTVP
 40
1.6000000000000001
  9
$DIMTIX
 70
     1
  9
$DIMSOXD
 70
     0
  9
$DIMSAH
 70
     0
  9
$DIMBLK1
  1

  9
$DIMBLK2
  1

  9
$DIMSTYLE
  2
STANDARD
  9
$DIMCLRD
 70
     0
  9
$DIMCLRE
 70
     0
  9
$DIMCLRT
 70
     0
  9
$DIMTFAC
 40
1.0
  9
$DIMGAP
 40
0.09
  9
$LUNITS
 70
     2
  9
$LUPREC
 70
     1
  9
$SKETCHINC
 40
0.1
  9
$FILLETRAD
 40
20.0
  9
$AUNITS
 70
     0
  9
$AUPREC
 70
     1
  9
$MENU
  1
E:\r13\win\SUPPORT\ACAD
  9
$ELEVATION
 40
0.0
  9
$PELEVATION
 40
0.0
  9
$THICKNESS
 40
0.0
  9
$LIMCHECK
 70
     0
  9
$BLIPMODE
 70
     0
  9
$CHAMFERA
 40
0.0
  9
$CHAMFERB
 40
0.0
  9
$SKPOLY
 70
     0
  9
$TDCREATE
 40
2449840.644872685
  9
$TDUPDATE
 40
2457869.5562540861
  9
$TDINDWG
 40
0.0496129398
  9
$TDUSRTIMER
 40
0.0496129398
  9
$USRTIMER
 70
     1
  9
$ANGBASE
 50
0.0
  9
$ANGDIR
 70
     0
  9
$PDMODE
 70
    35
  9
$PDSIZE
 40
0.0
  9
$PLINEWID
 40
0.0
  9
$COORDS
 70
     1
  9
$SPLFRAME
 70
     0
  9
$SPLINETYPE
 70
     6
  9
$SPLINESEGS
 70
     8
  9
$ATTDIA
 70
     0
  9
$ATTREQ
 70
     1
  9
$HANDLING
 70
     1
  9
$HANDSEED
  5
49E
  9
$SURFTAB1
 70
     6
  9
$SURFTAB2
 70
     6
  9
$SURFTYPE
 70
     6
  9
$SURFU
 70
     6
  9
$SURFV
 70
     6
  9
$UCSNAME
  2

  9
$UCSORG
 10
0.0
 20
0.0
 30
0.0
  9
$UCSXDIR
 10
1.0
 20
0.0
 30
0.0
  9
$UCSYDIR
 10
0.0
 20
1.0
 30
0.0
  9
$PUCSNAME
  2

  9
$PUCSORG
 10
0.0
 20
0.0
 30
0.0
  9
$PUCSXDIR
 10
1.0
 20
0.0
 30
0.0
  9
$PUCSYDIR
 10
0.0
 20
1.0
 30
0.0
  9
$USERI1
 70
     0
  9
$USERI2
 70
     1
  9
$USERI3
 70
     1
  9
$USERI4
 70
     0
  9
$USERI5
 70
     0
  9
$USERR1
 40
0.0
  9
$USERR2
 40
0.0
  9
$USERR3
 40
0.0
  9
$USERR4
 40
0.0
  9
$USERR5
 40
0.0
  9
$WORLDVIEW
 70
     1
  9
$SHADEDGE
 70
     3
  9
$SHADEDIF
 70
    70
  9
$TILEMODE
 70
     1
  9
$MAXACTVP
 70
    16
  9
$PLIMCHECK
 70
     0
  9
$PEXTMIN
 10
1.0000000000000000E+020
 20
1.0000000000000000E+020
 30
1.0000000000000000E+020
  9
$PEXTMAX
 10
-1.0000000000000000E+020
 20
-1.0000000000000000E+020
 30
-1.0000000000000000E+020
  9
$PLIMMIN
 10
0.0
 20
0.0
  9
$PLIMMAX
 10
12.0
 20
9.0
  9
$UNITMODE
 70
     0
  9
$VISRETAIN
 70
     0
  9
$PLINEGEN
 70
     0
  9
$PSLTSCALE
 70
     0
  0
ENDSEC
  0
SECTION
  2
TABLES
  0
TABLE
  2
VPORT
 70
     1
  0
VPORT
  2
*ACTIVE
 70
     0
 10
0.0
 20
0.0
 11
1.0
 21
1.0
 12
454.05982905982899
 22
250.0
 13
0.0
 23
0.0
 14
20.0
 24
20.0
 15
20.0
 25
20.0
 16
0.0
 26
0.0
 36
1.0
 17
0.0
 27
0.0
 37
0.0
 40
500.0
 41
1.816239316239316
 42
50.0
 43
0.0
 44
0.0
 50
0.0
 51
0.0
 71
     0
 72
   500
 73
     1
 74
     0
 75
     0
 76
     0
 77
     0
 78
     0
  0
ENDTAB
  0
TABLE
  2
LTYPE
 70
     4
  0
LTYPE
  2
CONTINUOUS
 70
     0
  3
Solid Line
 72
    65
 73
     0
 40
0.0
  0
LTYPE
  2
CENTER
 70
     0
  3
____ _ ____ _ ____ _ ____ _ ____ _ ____ _ ____
 72
    65
 73
     4
 40
2.0
 49
1.25
 49
-0.25
 49
0.25
 49
-0.25
  0
LTYPE
  2
HIDDEN
 70
     0
  3
_ _ _ _ _ _ _ _ _ _ _ _ _ _ _ _ _ _ _ _ _ _ _
 72
    65
 73
     2
 40
0.375
 49
0.25
 49
-0.125
  0
LTYPE
  2
PHANTOM2
 70
     0
  3
___ _ _ ___ _ _ ___ _ _ ___ _ _
 72
    65
 73
     6
 40
1.25
 49
0.625
 49
-0.125
 49
0.125
 49
-0.125
 49
0.125
 49
-0.125
  0
ENDTAB
  0
TABLE
  2
LAYER
 70
     5
  0
LAYER
  2
0
 70
     0
 62
     7
  6
CONTINUOUS
  0
LAYER
  2
1
 70
     0
 62
     1
  6
CENTER
  0
LAYER
  2
3
 70
     0
 62
     3
  6
CONTINUOUS
  0
LAYER
  2
4
 70
     0
 62
     4
  6
CONTINUOUS
  0
LAYER
  2
2
 70
     0
 62
     2
  6
HIDDEN
  0
ENDTAB
  0
TABLE
  2
STYLE
 70
     2
  0
STYLE
  2
STANDARD
 70
     0
 40
0.0
 41
1.0
 50
0.0
 71
     0
 42
8.0000000000000497
  3
TXT
  4
BIGFONT
  0
STYLE
  2
STANDARD1
 70
     0
 40
0.0
 41
1.0
 50
0.0
 71
     0
 42
3.0
  3
txt
  4

  0
ENDTAB
  0
TABLE
  2
VIEW
 70
     1
  0
VIEW
  2
ALL
 70
     0
 40
540.0
 10
426.51378151260502
 20
270.0
 41
0.0
 11
0.0
 21
0.0
 31
1.0
 12
0.0
 22
0.0
 32
0.0
 42
0.0
 43
0.0
 44
0.0
 50
0.0
 71
     0
  0
ENDTAB
  0
TABLE
  2
UCS
 70
     0
  0
ENDTAB
  0
TABLE
  2
APPID
 70
     6
  0
APPID
  2
ACAD
 70
     0
  0
APPID
  2
ACAD_MLEADERVER
 70
     0
  0
APPID
  2
ACAD_NAV_VCDISPLAY
 70
     0
  0
APPID
  2
ACAD_EXEMPT_FROM_CAD_STANDARDS
 70
     0
  0
APPID
  2
ACAD_DSTYLE_DIMJAG
 70
     0
  0
APPID
  2
ACAD_DSTYLE_DIMTALN
 70
     0
  0
ENDTAB
  0
TABLE
  2
DIMSTYLE
 70
     1
  0
DIMSTYLE
  2
STANDARD
 70
     0
  3

  4

  5

  6

  7

 40
1.0
 41
0.18
 42
0.0625
 43
0.38
 44
0.18
 45
0.0
 46
0.0
 47
0.0
 48
0.0
140
0.18
141
0.09
142
0.0
143
25.399999999999999
144
1.0
145
0.0
146
1.0
147
0.09
 71
     0
 72
     0
 73
     1
 74
     1
 75
     0
 76
     0
 77
     0
 78
     0
170
     0
171
     2
172
     0
173
     0
174
     0
175
     0
176
     0
177
     0
178
     0
  0
ENDTAB
  0
ENDSEC
  0
SECTION
  2
BLOCKS
  0
BLOCK
  8
0
  2
$MODEL_SPACE
 70
     0
 10
0.0
 20
0.0
 30
0.0
  3
$MODEL_SPACE
  1

  0
ENDBLK
  5
1DA
  8
0
  0
BLOCK
 67
     1
  8
0
  2
$PAPER_SPACE
 70
     0
 10
0.0
 20
0.0
 30
0.0
  3
$PAPER_SPACE
  1

  0
ENDBLK
  5
1D8
 67
     1
  8
0
  0
ENDSEC
  0
SECTION
  2
ENTITIES
  0
LINE
  5
94
  8
1
 10
633.07947979484777
 20
427.2637454803002
 30
0.0
 11
633.07947979484777
 21
400.2637454803002
 31
0.0
  0
LINE
  5
95
  8
0
 10
633.07947979484766
 20
389.99668422329609
 30
0.0
 11
633.07947979484777
 21
393.7637454803002
 31
0.0
  0
POLYLINE
  5
96
  8
0
 66
     1
 10
0.0
 20
0.0
 30
0.0
  0
VERTEX
  5
97
  8
0
 10
633.07947979484766
 20
389.99668422329609
 30
0.0
  0
VERTEX
  5
98
  8
0
 10
633.03483269252661
 20
389.940878310063
 30
0.0
 42
-0.0320998587185313
  0
VERTEX
  5
99
  8
0
 10
632.3472467478141
 20
389.83197165852289
 30
0.0
 42
-0.013583796483866
 70
     2
 50
185.32319350366319
  0
VERTEX
  5
9A
  8
0
 10
631.61408592799648
 20
389.78370313259569
 30
0.0
 42
-0.0096441512384939
  0
VERTEX
  5
9B
  8
0
 10
630.57947979484788
 20
389.76374548030071
 30
0.0
 42
-0.0096441512385256
  0
SEQEND
  5
9C
  8
0
  0
POLYLINE
  5
9D
  8
0
 66
     1
 10
0.0
 20
0.0
 30
0.0
  0
VERTEX
  5
9E
  8
0
 10
633.07947979484766
 20
437.53080673730437
 30
0.0
  0
VERTEX
  5
9F
  8
0
 10
633.03483269252661
 20
437.5866126505374
 30
0.0
 42
0.0320998587185313
  0
VERTEX
  5
A0
  8
0
 10
632.3472467478141
 20
437.69551930207751
 30
0.0
 42
0.013583796483866
 70
     2
 50
174.67680649633681
  0
VERTEX
  5
A1
  8
0
 10
631.61408592799648
 20
437.74378782800471
 30
0.0
 42
0.0096441512384939
 50
174.67680649633681
  0
VERTEX
  5
A2
  8
0
 10
630.57947979484788
 20
437.76374548029969
 30
0.0
 42
0.0096441512385256
  0
SEQEND
  5
A3
  8
0
  0
LINE
  5
A4
  8
3
 10
655.57947979484788
 20
435.26374548029969
 30
0.0
 11
655.57947979484754
 21
392.2637454802998
 31
0.0
  0
LINE
  5
A5
  8
0
 10
633.07947979484766
 20
437.53080673730437
 30
0.0
 11
633.07947979484777
 21
433.7637454803002
 31
0.0
  0
LINE
  5
A6
  8
0
 10
626.07947979484777
 20
431.26375087509689
 30
0.0
 11
626.07947979484777
 21
396.26374548030032
 31
0.0
  0
LINE
  5
A7
  8
0
 10
658.07947979484777
 20
435.26374548029969
 30
0.0
 11
658.07947979484766
 21
392.2637454802998
 31
0.0
  0
LINE
  5
A8
  8
0
 10
621.07947979484754
 20
435.26374548029969
 30
0.0
 11
621.07947979484754
 21
429.7637454803002
 31
0.0
  0
ARC
  5
A9
  8
0
 10
628.57947979484754
 20
396.26374548030032
 30
0.0
 40
2.5
 50
179.9999999999994
 51
270.00000000000011
  0
LINE
  5
AA
  8
0
 10
633.07947979484777
 20
393.7637454803002
 30
0.0
 11
628.57947979484754
 21
393.7637454803002
 31
0.0
  0
LINE
  5
AB
  8
0
 10
633.07947979484777
 20
433.7637454803002
 30
0.0
 11
628.57947979484754
 21
433.7637454803002
 31
0.0
  0
ARC
  5
AC
  8
0
 10
628.57947979484754
 20
431.2637454803002
 30
0.0
 40
2.5
 50
89.999999999999986
 51
180.00000000000071
  0
LINE
  5
AD
  8
3
 10
628.57947979484754
 20
431.2637454803002
 30
0.0
 11
628.57947979484754
 21
396.26374548030032
 31
0.0
  0
LINE
  5
AE
  8
0
 10
621.07947979484754
 20
397.7637454803002
 30
0.0
 11
621.07947979484777
 21
392.2637454802998
 31
0.0
  0
LINE
  5
AF
  8
0
 10
655.57947979484754
 20
389.7637454802998
 30
0.0
 11
623.57947979484788
 21
389.7637454802998
 31
0.0
  0
LINE
  5
B0
  8
0
 10
655.57947979484788
 20
437.76374548029969
 30
0.0
 11
623.57947979484754
 21
437.76374548029969
 31
0.0
  0
ARC
  5
B1
  8
0
 10
655.57947979484788
 20
435.26374548029969
 30
0.0
 40
2.5
 50
0.0000000000000763
 51
90.000000000000099
  0
ARC
  5
B2
  8
0
 10
623.57947979484754
 20
435.26374548029969
 30
0.0
 40
2.5
 50
90.000000000000185
 51
180.0000000000004
  0
ARC
  5
B3
  8
0
 10
623.57947979484788
 20
392.2637454802998
 30
0.0
 40
2.5
 50
180.0
 51
270.00000000000011
  0
ARC
  5
B4
  8
0
 10
655.57947979484754
 20
392.2637454802998
 30
0.0
 40
2.5
 50
270.00000000000011
 51
0.0000000000000254
  0
LINE
  5
B7
  8
1
 10
248.0794797948478
 20
413.7637454803002
 30
0.0
 11
668.07947979484788
 21
413.76374548030009
 31
0.0
  0
ARC
  5
B8
  8
0
 10
122.7553546715336
 20
220.4381360272601
 30
0.0
 40
2.5
 50
5.3231935036615834
 51
106.86015253647621
  0
ARC
  5
B9
  8
0
 10
109.70370367804711
 20
220.43813602725871
 30
0.0
 40
2.5
 50
73.139847463524546
 51
174.67680649633959
  0
ARC
  5
BA
  8
0
 10
116.2295291747903
 20
241.97098538785551
 30
0.0
 40
20.00000000000087
 50
253.1398474635248
 51
286.86015253647611
  0
ARC
  5
BB
  8
2
 10
116.2295291747903
 20
241.97098538785551
 30
0.0
 40
20.000000000000401
 50
286.86015253645911
 51
5.3231935036604812
  0
ARC
  5
BC
  8
0
 10
125.17485684317781
 20
194.47098538785559
 30
0.0
 40
2.5
 50
270.00000000000023
 51
5.3231935036608498
  0
ARC
  5
BD
  8
0
 10
107.28420150640321
 20
194.47098538785551
 30
0.0
 40
2.5
 50
174.6768064963394
 51
270.00000000000023
  0
LINE
  5
BE
  8
0
 10
104.7949834446235
 20
194.7029195183963
 30
0.0
 11
107.2144856162674
 21
220.6700701577995
 31
0.0
  0
LINE
  5
BF
  8
0
 10
127.6640749049575
 20
194.7029195183963
 30
0.0
 11
125.24457273331321
 21
220.67007015780089
 31
0.0
  0
ARC
  5
C0
  8
2
 10
116.2295291747903
 20
241.97098538785551
 30
0.0
 40
20.000000000000401
 50
174.67680649633951
 51
253.1398474635408
  0
ARC
  5
C1
  8
0
 10
116.2295291747903
 20
241.97098538785551
 30
0.0
 40
20.0
 50
5.3231935036604741
 51
174.67680649633951
  0
LINE
  5
C2
  8
0
 10
140.2295291747904
 20
199.97098538785571
 30
0.0
 11
136.14327366902791
 21
243.82645843218179
 31
0.0
  0
LINE
  5
C3
  8
0
 10
92.229529174790414
 20
199.97098538785519
 30
0.0
 11
96.315784680552724
 21
243.82645843218179
 31
0.0
  0
LINE
  5
C4
  8
0
 10
140.2295291747902
 20
181.97098538785559
 30
0.0
 11
140.2295291747904
 21
199.97098538785571
 31
0.0
  0
LINE
  5
C5
  8
0
 10
92.229529174790244
 20
181.97098538785539
 30
0.0
 11
92.229529174790414
 21
199.97098538785519
 31
0.0
  0
LINE
  5
C6
  8
0
 10
109.7295291747906
 20
198.92664782055741
 30
0.0
 11
109.7295291747906
 21
193.97098538785551
 31
0.0
  0
LINE
  5
C7
  8
0
 10
116.2295291747904
 20
198.34609123695631
 30
0.0
 11
116.2295291747903
 21
193.97098538785559
 31
0.0
  0
LINE
  5
C8
  8
0
 10
122.7295291747902
 20
198.92664782055741
 30
0.0
 11
122.7295291747902
 21
193.97098538785551
 31
0.0
  0
LINE
  5
C9
  8
0
 10
122.47952917478899
 20
199.0709853878555
 30
0.0
 11
109.97952917479179
 21
199.0709853878555
 31
0.0
  0
LINE
  5
CA
  8
0
 10
122.7295291747902
 20
198.92664782055741
 30
0.0
 11
122.47952917478899
 21
199.0709853878555
 31
0.0
  0
ARC
  5
CB
  8
0
 10
119.4795291747902
 20
189.53949568530871
 30
0.0
 40
9.3871521352487513
 50
69.743841999582841
 51
110.2561580004172
  0
ARC
  5
CC
  8
0
 10
112.9795291747906
 20
189.53949568530871
 30
0.0
 40
9.3871521352487513
 50
69.743841999582841
 51
110.2561580004172
  0
LINE
  5
CD
  8
0
 10
109.7295291747906
 20
198.92664782055741
 30
0.0
 11
109.97952917479179
 21
199.0709853878555
 31
0.0
  0
LINE
  5
CE
  8
0
 10
107.7295291747898
 20
193.5709853878555
 30
0.0
 11
107.7295291747898
 21
191.97098538785559
 31
0.0
  0
LINE
  5
CF
  8
0
 10
124.7295291747907
 20
193.5709853878555
 30
0.0
 11
124.7295291747907
 21
191.97098538785559
 31
0.0
  0
LINE
  5
D0
  8
0
 10
124.7295291747907
 20
193.5709853878555
 30
0.0
 11
107.7295291747898
 21
193.5709853878555
 31
0.0
  0
LINE
  5
D1
  8
0
 10
109.7295291747906
 20
193.97098538785551
 30
0.0
 11
122.7295291747902
 21
193.97098538785551
 31
0.0
  0
LINE
  5
D2
  8
0
 10
110.37952917479031
 20
193.97098538785551
 30
0.0
 11
110.37952917479031
 21
193.5709853878555
 31
0.0
  0
LINE
  5
D3
  8
0
 10
122.0795291747903
 20
193.97098538785539
 30
0.0
 11
122.0795291747903
 21
193.57098538785539
 31
0.0
  0
LINE
  5
D4
  8
0
 10
107.28420150640321
 20
191.97098538785551
 30
0.0
 11
125.17485684317781
 21
191.97098538785559
 31
0.0
  0
LINE
  5
D5
  8
0
 10
92.229529174790244
 20
181.97098538785539
 30
0.0
 11
140.2295291747902
 21
181.97098538785559
 31
0.0
  0
LINE
  5
D6
  8
0
 10
122.7295291747901
 20
177.60224734094109
 30
0.0
 11
122.47952917478899
 21
177.74658490823921
 31
0.0
  0
ARC
  5
D7
  8
0
 10
119.4795291747901
 20
168.21509520569239
 30
0.0
 40
9.3871521352487513
 50
69.743841999582841
 51
110.2561580004172
  0
ARC
  5
D8
  8
0
 10
112.9795291747906
 20
168.21509520569239
 30
0.0
 40
9.3871521352487513
 50
69.743841999582841
 51
110.2561580004172
  0
LINE
  5
D9
  8
0
 10
109.7295291747906
 20
177.60224734094109
 30
0.0
 11
109.97952917479169
 21
177.74658490823921
 31
0.0
  0
LINE
  5
DA
  8
0
 10
109.7295291747906
 20
171.39092247553731
 30
0.0
 11
109.97952917479179
 21
171.24658490823921
 31
0.0
  0
ARC
  5
DB
  8
0
 10
112.9795291747906
 20
180.77807461078601
 30
0.0
 40
9.3871521352487513
 50
249.7438419995828
 51
290.25615800041709
  0
LINE
  5
DC
  8
0
 10
109.7295291747906
 20
171.39092247553731
 30
0.0
 11
109.7295291747906
 21
177.6022473409412
 31
0.0
  0
LINE
  5
DD
  8
0
 10
116.2295291747904
 20
171.9714790591384
 30
0.0
 11
116.2295291747903
 21
177.0216907573429
 31
0.0
  0
LINE
  5
DE
  8
0
 10
122.7295291747902
 20
171.39092247553731
 30
0.0
 11
122.7295291747902
 21
177.60224734094101
 31
0.0
  0
ARC
  5
DF
  8
0
 10
119.4795291747902
 20
180.77807461078601
 30
0.0
 40
9.3871521352487513
 50
249.7438419995828
 51
290.25615800041709
  0
LINE
  5
E0
  8
0
 10
122.7295291747902
 20
171.39092247553731
 30
0.0
 11
122.47952917478899
 21
171.24658490823921
 31
0.0
  0
LINE
  5
E1
  8
0
 10
122.47952917478899
 20
171.24658490823921
 30
0.0
 11
109.97952917479179
 21
171.24658490823921
 31
0.0
  0
LINE
  5
E2
  8
0
 10
119.0295291747906
 20
168.5709853878555
 30
0.0
 11
113.4295291747907
 21
168.5709853878555
 31
0.0
  0
LINE
  5
E3
  8
0
 10
112.2295291747907
 20
181.97098538785551
 30
0.0
 11
112.2295291747906
 21
179.34658490823909
 31
0.0
  0
LINE
  5
E4
  8
3
 10
112.9060291747905
 20
181.97098538785551
 30
0.0
 11
112.9060291747905
 21
179.34658490823909
 31
0.0
  0
LINE
  5
E5
  8
3
 10
119.55302917479059
 20
181.97098538785559
 30
0.0
 11
119.55302917479069
 21
179.34658490823909
 31
0.0
  0
LINE
  5
E6
  8
0
 10
120.2295291747907
 20
181.97098538785559
 30
0.0
 11
120.2295291747907
 21
179.34658490823921
 31
0.0
  0
LINE
  5
E7
  8
0
 10
120.2295291747906
 20
169.77098538785549
 30
0.0
 11
119.0295291747906
 21
168.5709853878555
 31
0.0
  0
LINE
  5
E8
  8
0
 10
113.4295291747907
 20
168.5709853878555
 30
0.0
 11
112.2295291747906
 21
169.77098538785549
 31
0.0
  0
LINE
  5
E9
  8
0
 10
120.2295291747906
 20
169.7709853878554
 30
0.0
 11
112.2295291747906
 21
169.77098538785549
 31
0.0
  0
LINE
  5
EA
  8
0
 10
107.7295291747902
 20
177.74658490823921
 30
0.0
 11
107.7295291747902
 21
179.34658490823909
 31
0.0
  0
LINE
  5
EB
  8
0
 10
124.7295291747911
 20
177.74658490823921
 30
0.0
 11
107.7295291747902
 21
177.74658490823921
 31
0.0
  0
LINE
  5
EC
  8
0
 10
124.7295291747911
 20
177.74658490823921
 30
0.0
 11
124.7295291747911
 21
179.34658490823909
 31
0.0
  0
LINE
  5
ED
  8
0
 10
107.7295291747902
 20
179.34658490823909
 30
0.0
 11
124.7295291747911
 21
179.34658490823909
 31
0.0
  0
LINE
  5
EE
  8
0
 10
120.2295291747907
 20
171.2465849082393
 30
0.0
 11
120.2295291747906
 21
169.77098538785549
 31
0.0
  0
LINE
  5
EF
  8
3
 10
119.55302917479069
 20
171.2465849082393
 30
0.0
 11
119.55302917479069
 21
169.0944853878556
 31
0.0
  0
LINE
  5
F0
  8
0
 10
112.2295291747906
 20
171.2465849082393
 30
0.0
 11
112.2295291747906
 21
169.77098538785549
 31
0.0
  0
LINE
  5
F1
  8
3
 10
112.9060291747905
 20
171.2465849082393
 30
0.0
 11
112.9060291747905
 21
169.0944853878556
 31
0.0
  0
LINE
  5
F2
  8
1
 10
248.07947979484791
 20
241.97098538785551
 30
0.0
 11
668.07947979484788
 21
241.97098538785551
 31
0.0
  0
LINE
  5
F3
  8
3
 10
623.57947979484788
 20
189.47098538785551
 30
0.0
 11
623.57947979484788
 21
184.47098538785571
 31
0.0
  0
ARC
  5
F4
  8
0
 10
623.57947979484788
 20
189.47098538785551
 30
0.0
 40
2.5
 50
90.0
 51
180.00000000000119
  0
LINE
  5
F5
  8
3
 10
655.57947979484788
 20
197.47098538783229
 30
0.0
 11
655.57947979484788
 21
184.47098538785559
 31
0.0
  0
LINE
  5
F6
  8
3
 10
655.57947979484788
 20
259.47098538785548
 30
0.0
 11
655.57947979484788
 21
202.4709853878789
 31
0.0
  0
LINE
  5
F7
  8
3
 10
628.57947979484754
 20
259.47098538785559
 30
0.0
 11
628.57947979484754
 21
224.47098538785559
 31
0.0
  0
LINE
  5
F8
  8
2
 10
626.07947979484754
 20
256.97098538785548
 30
0.0
 11
653.07947979484788
 21
256.97098538785548
 31
0.0
  0
LINE
  5
F9
  8
2
 10
626.07947979484754
 20
226.97098538785551
 30
0.0
 11
653.07947979484788
 21
226.97098538785551
 31
0.0
  0
ARC
  5
FA
  8
0
 10
630.57947979484811
 20
194.47098538785551
 30
0.0
 40
2.5
 50
270.0
 51
0.0000000000002163
  0
LINE
  5
FB
  8
0
 10
658.07947979484777
 20
259.47098538785548
 30
0.0
 11
658.07947979484777
 21
181.97098538785551
 31
0.0
  0
LINE
  5
FC
  8
0
 10
626.07947979484754
 20
259.47098538785548
 30
0.0
 11
626.07947979484754
 21
224.47098538785559
 31
0.0
  0
LINE
  5
FD
  8
0
 10
658.07947979484777
 20
181.97098538785551
 30
0.0
 11
621.07947979484777
 21
181.97098538785559
 31
0.0
  0
LINE
  5
FE
  8
2
 10
653.07947979484777
 20
256.97098538785548
 30
0.0
 11
653.07947979484788
 21
226.97098538785551
 31
0.0
  0
LINE
  5
FF
  8
0
 10
655.57947979484788
 20
261.97098538785548
 30
0.0
 11
628.57947979484754
 21
261.97098538785548
 31
0.0
  0
LINE
  5
100
  8
0
 10
633.07947979484777
 20
221.97098538785551
 30
0.0
 11
628.57947979484754
 21
221.97098538785551
 31
0.0
  0
ARC
  5
101
  8
0
 10
628.57947979484754
 20
259.47098538785559
 30
0.0
 40
2.5
 50
89.999999999999986
 51
180.00000000000071
  0
ARC
  5
102
  8
0
 10
628.57947979484754
 20
224.47098538785559
 30
0.0
 40
2.5
 50
179.9999999999994
 51
270.00000000000011
  0
ARC
  5
103
  8
0
 10
655.57947979484788
 20
259.47098538785548
 30
0.0
 40
2.5
 50
0.0000000000000763
 51
90.000000000000028
  0
LINE
  5
104
  8
0
 10
633.07947979484766
 20
241.97098538785551
 30
0.0
 11
633.07947979484811
 21
194.47098538785551
 31
0.0
  0
LINE
  5
105
  8
0
 10
630.57947979484811
 20
191.97098538785551
 30
0.0
 11
623.57947979484788
 21
191.97098538785551
 31
0.0
  0
LINE
  5
106
  8
0
 10
624.57947979484743
 20
193.5709853878555
 30
0.0
 11
624.57947979484743
 21
191.97098538785559
 31
0.0
  0
LINE
  5
107
  8
0
 10
624.57947979484743
 20
193.5709853878555
 30
0.0
 11
632.91186055278672
 21
193.5709853878555
 31
0.0
  0
ARC
  5
108
  8
0
 10
633.07947979484686
 20
186.50720440416501
 30
0.0
 40
12.41944341639239
 50
89.999999999995296
 51
107.58795377399851
  0
LINE
  5
109
  8
0
 10
629.32670304511726
 20
198.34609123695671
 30
0.0
 11
629.32670304511396
 21
193.97098538785551
 31
0.0
  0
LINE
  5
10A
  8
0
 10
625.57392629538299
 20
198.34609123695671
 30
0.0
 11
625.57392629538299
 21
193.97098538785551
 31
0.0
  0
LINE
  5
10B
  8
0
 10
625.57392629538299
 20
198.34609123695671
 30
0.0
 11
626.82947979484925
 21
199.0709853878555
 31
0.0
  0
ARC
  5
10C
  8
0
 10
627.45031467024921
 20
195.60407824760739
 30
0.0
 40
3.3225695729499738
 50
55.615752531959167
 51
115.61575253217551
  0
LINE
  5
10D
  8
0
 10
633.07947979484777
 20
199.0709853878555
 30
0.0
 11
626.82947979484936
 21
199.0709853878555
 31
0.0
  0
LINE
  5
10E
  8
0
 10
633.02896953761933
 20
193.97098538785551
 30
0.0
 11
625.57392629538299
 21
193.97098538785551
 31
0.0
  0
LINE
  5
10F
  8
0
 10
630.27947979484793
 20
168.5709853878555
 30
0.0
 11
635.87947979484784
 21
168.5709853878555
 31
0.0
  0
LINE
  5
110
  8
0
 10
637.07947979484766
 20
181.97098538785559
 30
0.0
 11
637.07947979484777
 21
179.34658490823909
 31
0.0
  0
LINE
  5
111
  8
3
 10
636.40297979484808
 20
181.97098538785559
 30
0.0
 11
636.40297979484808
 21
179.34658490823909
 31
0.0
  0
LINE
  5
112
  8
3
 10
629.75597979484792
 20
181.97098538785559
 30
0.0
 11
629.75597979484792
 21
179.34658490823909
 31
0.0
  0
LINE
  5
113
  8
0
 10
629.07947979484766
 20
181.97098538785559
 30
0.0
 11
629.07947979484777
 21
179.34658490823921
 31
0.0
  0
LINE
  5
114
  8
0
 10
629.07947979484777
 20
169.77098538785549
 30
0.0
 11
630.27947979484793
 21
168.5709853878555
 31
0.0
  0
LINE
  5
115
  8
0
 10
635.87947979484784
 20
168.5709853878555
 30
0.0
 11
637.07947979484777
 21
169.77098538785549
 31
0.0
  0
LINE
  5
116
  8
0
 10
629.07947979484777
 20
169.7709853878554
 30
0.0
 11
637.07947979484777
 21
169.77098538785549
 31
0.0
  0
LINE
  5
117
  8
0
 10
627.22947979484775
 20
193.97098538785539
 30
0.0
 11
627.22947979484775
 21
193.57098538785539
 31
0.0
  0
LINE
  5
118
  8
0
 10
641.57947979484834
 20
177.74658490823921
 30
0.0
 11
641.57947979484834
 21
179.34658490823909
 31
0.0
  0
LINE
  5
119
  8
0
 10
624.57947979484743
 20
177.74658490823921
 30
0.0
 11
641.57947979484834
 21
177.74658490823921
 31
0.0
  0
LINE
  5
11A
  8
0
 10
624.57947979484743
 20
177.74658490823921
 30
0.0
 11
624.57947979484743
 21
179.34658490823909
 31
0.0
  0
LINE
  5
11B
  8
0
 10
641.57947979484834
 20
179.34658490823909
 30
0.0
 11
624.57947979484743
 21
179.34658490823909
 31
0.0
  0
LINE
  5
11C
  8
0
 10
629.07947979484777
 20
171.2465849082393
 30
0.0
 11
629.07947979484777
 21
169.77098538785549
 31
0.0
  0
LINE
  5
11D
  8
3
 10
629.75597979484792
 20
171.2465849082393
 30
0.0
 11
629.75597979484792
 21
169.0944853878556
 31
0.0
  0
LINE
  5
11E
  8
0
 10
637.07947979484777
 20
171.2465849082393
 30
0.0
 11
637.07947979484777
 21
169.77098538785549
 31
0.0
  0
LINE
  5
11F
  8
3
 10
636.40297979484808
 20
171.2465849082393
 30
0.0
 11
636.40297979484808
 21
169.0944853878556
 31
0.0
  0
ARC
  5
120
  8
0
 10
627.45031467024864
 20
174.2796777679911
 30
0.0
 40
3.3225695729499738
 50
55.615752531959089
 51
115.61575253217551
  0
LINE
  5
121
  8
0
 10
625.57392629538231
 20
177.02169075734039
 30
0.0
 11
626.82947979484845
 21
177.74658490823921
 31
0.0
  0
LINE
  5
122
  8
0
 10
625.57392629538231
 20
177.02169075734039
 30
0.0
 11
625.57392629538231
 21
171.97147905913809
 31
0.0
  0
LINE
  5
123
  8
0
 10
629.32670304511657
 20
177.02169075734039
 30
0.0
 11
629.32670304511385
 21
171.97147905913829
 31
0.0
  0
LINE
  5
124
  8
0
 10
636.83225654457783
 20
177.02169075734039
 30
0.0
 11
636.83225654458033
 21
171.97147905913829
 31
0.0
  0
LINE
  5
125
  8
0
 10
640.5850332943121
 20
177.02169075734039
 30
0.0
 11
640.5850332943121
 21
171.97147905913809
 31
0.0
  0
LINE
  5
126
  8
0
 10
640.5850332943121
 20
177.02169075734039
 30
0.0
 11
639.32947979484584
 21
177.74658490823921
 31
0.0
  0
ARC
  5
127
  8
0
 10
633.07947979484618
 20
165.18280392454881
 30
0.0
 40
12.41944341639239
 50
72.412046225992569
 51
107.58795377399851
  0
ARC
  5
128
  8
0
 10
638.70864491944565
 20
174.2796777679911
 30
0.0
 40
3.3225695729499738
 50
64.384247467824551
 51
124.3842474680409
  0
ARC
  5
129
  8
0
 10
638.70864491944565
 20
174.7134920484873
 30
0.0
 40
3.3225695729499738
 50
235.615752531959
 51
295.61575253217552
  0
ARC
  5
12A
  8
0
 10
633.07947979484618
 20
183.81036589192959
 30
0.0
 40
12.41944341639239
 50
252.41204622600151
 51
287.58795377400747
  0
LINE
  5
12B
  8
0
 10
640.5850332943121
 20
171.97147905913801
 30
0.0
 11
639.32947979484584
 21
171.24658490823921
 31
0.0
  0
LINE
  5
12C
  8
0
 10
625.57392629538231
 20
171.97147905913801
 30
0.0
 11
626.82947979484845
 21
171.24658490823921
 31
0.0
  0
ARC
  5
12D
  8
0
 10
627.45031467024864
 20
174.7134920484873
 30
0.0
 40
3.3225695729499738
 50
244.38424746782459
 51
304.384247468041
  0
LINE
  5
12E
  8
0
 10
639.32947979484686
 20
171.24658490823921
 30
0.0
 11
626.82947979484868
 21
171.24658490823921
 31
0.0
  0
LINE
  5
12F
  8
0
 10
621.07947979484777
 20
189.47098538785539
 30
0.0
 11
621.07947979484777
 21
181.97098538785559
 31
0.0
  0
LINE
  5
130
  8
1
 10
633.07947979484777
 20
191.97098538785551
 30
0.0
 11
633.07947979484834
 21
158.5709853878555
 31
0.0
  0
LINE
  5
131
  8
3
 10
655.57947979484788
 20
199.97098538785551
 30
0.0
 11
635.57947979484788
 21
199.97098538785559
 31
0.0
  0
LINE
  5
132
  8
0
 10
290.07947979484823
 20
257.97098538785548
 30
0.0
 11
626.07947979484754
 21
257.97098538785548
 31
0.0
  0
LINE
  5
133
  8
0
 10
626.07947979484754
 20
225.97098538785551
 30
0.0
 11
290.07947979484823
 21
225.97098538785551
 31
0.0
  0
LINE
  5
134
  8
1
 10
146.22952917479029
 20
241.97098538785551
 30
0.0
 11
86.229529174790358
 21
241.97098538785551
 31
0.0
  0
LINE
  5
135
  8
1
 10
116.2295291747903
 20
271.97098538785548
 30
0.0
 11
116.2295291747903
 21
158.5709853878555
 31
0.0
  0
LINE
  5
13F
  8
3
 10
260.57947979484788
 20
199.97098538785551
 30
0.0
 11
280.57947979484788
 21
199.97098538785559
 31
0.0
  0
LINE
  5
140
  8
0
 10
295.07947979484788
 20
189.47098538785539
 30
0.0
 11
295.07947979484788
 21
181.97098538785559
 31
0.0
  0
LINE
  5
141
  8
0
 10
276.82947979484879
 20
171.24658490823921
 30
0.0
 11
289.32947979484697
 21
171.24658490823921
 31
0.0
  0
ARC
  5
142
  8
0
 10
288.70864491944712
 20
174.7134920484873
 30
0.0
 40
3.3225695729499738
 50
235.615752531959
 51
295.61575253217552
  0
LINE
  5
143
  8
0
 10
290.58503329431352
 20
171.97147905913801
 30
0.0
 11
289.3294797948472
 21
171.24658490823921
 31
0.0
  0
LINE
  5
144
  8
0
 10
275.57392629538373
 20
171.97147905913801
 30
0.0
 11
276.82947979484987
 21
171.24658490823921
 31
0.0
  0
ARC
  5
145
  8
0
 10
283.07947979484948
 20
183.81036589192959
 30
0.0
 40
12.41944341639239
 50
252.41204622599261
 51
287.58795377399861
  0
ARC
  5
146
  8
0
 10
277.45031467025001
 20
174.7134920484873
 30
0.0
 40
3.3225695729499738
 50
244.38424746782451
 51
304.384247468041
  0
ARC
  5
147
  8
0
 10
277.45031467025001
 20
174.2796777679911
 30
0.0
 40
3.3225695729499738
 50
55.615752531959039
 51
115.61575253217551
  0
ARC
  5
148
  8
0
 10
283.07947979484948
 20
165.18280392454881
 30
0.0
 40
12.41944341639239
 50
72.412046226001479
 51
107.5879537740074
  0
LINE
  5
149
  8
0
 10
275.57392629538373
 20
177.02169075734039
 30
0.0
 11
276.82947979484987
 21
177.74658490823921
 31
0.0
  0
LINE
  5
14A
  8
0
 10
275.57392629538373
 20
177.02169075734039
 30
0.0
 11
275.57392629538373
 21
171.97147905913809
 31
0.0
  0
LINE
  5
14B
  8
0
 10
279.32670304511788
 20
177.02169075734039
 30
0.0
 11
279.32670304511538
 21
171.97147905913829
 31
0.0
  0
LINE
  5
14C
  8
0
 10
286.8322565445792
 20
177.02169075734039
 30
0.0
 11
286.83225654458192
 21
171.97147905913829
 31
0.0
  0
LINE
  5
14D
  8
0
 10
290.58503329431352
 20
177.02169075734039
 30
0.0
 11
290.58503329431352
 21
171.97147905913809
 31
0.0
  0
LINE
  5
14E
  8
0
 10
290.58503329431352
 20
177.02169075734039
 30
0.0
 11
289.3294797948472
 21
177.74658490823921
 31
0.0
  0
ARC
  5
14F
  8
0
 10
288.70864491944712
 20
174.2796777679911
 30
0.0
 40
3.3225695729499738
 50
64.384247467824522
 51
124.3842474680409
  0
LINE
  5
150
  8
3
 10
279.75597979484769
 20
171.2465849082393
 30
0.0
 11
279.75597979484769
 21
169.0944853878556
 31
0.0
  0
LINE
  5
151
  8
0
 10
279.07947979484788
 20
171.2465849082393
 30
0.0
 11
279.07947979484788
 21
169.77098538785549
 31
0.0
  0
LINE
  5
152
  8
3
 10
286.40297979484791
 20
171.2465849082393
 30
0.0
 11
286.40297979484791
 21
169.0944853878556
 31
0.0
  0
LINE
  5
153
  8
0
 10
287.07947979484788
 20
171.2465849082393
 30
0.0
 11
287.07947979484788
 21
169.77098538785549
 31
0.0
  0
LINE
  5
154
  8
0
 10
274.57947979484737
 20
179.34658490823909
 30
0.0
 11
291.57947979484828
 21
179.34658490823909
 31
0.0
  0
LINE
  5
155
  8
0
 10
291.57947979484828
 20
177.74658490823921
 30
0.0
 11
291.57947979484828
 21
179.34658490823909
 31
0.0
  0
LINE
  5
156
  8
0
 10
291.57947979484828
 20
177.74658490823921
 30
0.0
 11
274.57947979484737
 21
177.74658490823921
 31
0.0
  0
LINE
  5
157
  8
0
 10
274.57947979484737
 20
177.74658490823921
 30
0.0
 11
274.57947979484737
 21
179.34658490823909
 31
0.0
  0
LINE
  5
158
  8
0
 10
288.92947979484802
 20
193.97098538785539
 30
0.0
 11
288.92947979484802
 21
193.57098538785539
 31
0.0
  0
LINE
  5
159
  8
0
 10
287.07947979484788
 20
169.7709853878554
 30
0.0
 11
279.07947979484788
 21
169.77098538785549
 31
0.0
  0
LINE
  5
15A
  8
0
 10
280.27947979484787
 20
168.5709853878555
 30
0.0
 11
279.07947979484788
 21
169.77098538785549
 31
0.0
  0
LINE
  5
15B
  8
0
 10
287.07947979484788
 20
169.77098538785549
 30
0.0
 11
285.87947979484778
 21
168.5709853878555
 31
0.0
  0
LINE
  5
15C
  8
0
 10
287.07947979484811
 20
181.97098538785559
 30
0.0
 11
287.07947979484788
 21
179.34658490823921
 31
0.0
  0
LINE
  5
15D
  8
3
 10
286.40297979484791
 20
181.97098538785559
 30
0.0
 11
286.40297979484791
 21
179.34658490823909
 31
0.0
  0
LINE
  5
15E
  8
3
 10
279.75597979484769
 20
181.97098538785559
 30
0.0
 11
279.75597979484769
 21
179.34658490823909
 31
0.0
  0
LINE
  5
15F
  8
0
 10
279.07947979484811
 20
181.97098538785559
 30
0.0
 11
279.07947979484788
 21
179.34658490823909
 31
0.0
  0
LINE
  5
160
  8
0
 10
285.87947979484778
 20
168.5709853878555
 30
0.0
 11
280.27947979484787
 21
168.5709853878555
 31
0.0
  0
LINE
  5
161
  8
0
 10
283.12999005207649
 20
193.97098538785551
 30
0.0
 11
290.58503329431278
 21
193.97098538785551
 31
0.0
  0
LINE
  5
162
  8
0
 10
283.07947979484788
 20
199.0709853878555
 30
0.0
 11
289.32947979484629
 21
199.0709853878555
 31
0.0
  0
ARC
  5
163
  8
0
 10
288.70864491944639
 20
195.60407824760739
 30
0.0
 40
3.3225695729499738
 50
64.384247467824494
 51
124.3842474680408
  0
LINE
  5
164
  8
0
 10
290.58503329431278
 20
198.34609123695671
 30
0.0
 11
289.32947979484652
 21
199.0709853878555
 31
0.0
  0
LINE
  5
165
  8
0
 10
290.58503329431278
 20
198.34609123695671
 30
0.0
 11
290.58503329431278
 21
193.97098538785551
 31
0.0
  0
LINE
  5
166
  8
0
 10
286.83225654457851
 20
198.34609123695671
 30
0.0
 11
286.8322565445817
 21
193.97098538785551
 31
0.0
  0
ARC
  5
167
  8
0
 10
283.07947979484879
 20
186.50720440416501
 30
0.0
 40
12.41944341639239
 50
72.412046226001479
 51
90.000000000004746
  0
LINE
  5
168
  8
0
 10
291.57947979484828
 20
193.5709853878555
 30
0.0
 11
283.24709903690899
 21
193.5709853878555
 31
0.0
  0
LINE
  5
169
  8
0
 10
291.57947979484828
 20
193.5709853878555
 30
0.0
 11
291.57947979484828
 21
191.97098538785559
 31
0.0
  0
LINE
  5
16A
  8
0
 10
285.5794797948476
 20
191.97098538785551
 30
0.0
 11
292.57947979484788
 21
191.97098538785551
 31
0.0
  0
LINE
  5
16B
  8
0
 10
283.07947979484811
 20
241.97098538785551
 30
0.0
 11
283.07947979484771
 21
194.47098538785551
 31
0.0
  0
ARC
  5
16C
  8
0
 10
260.57947979484788
 20
259.47098538785548
 30
0.0
 40
2.5
 50
90.0
 51
179.99999999999989
  0
ARC
  5
16D
  8
0
 10
287.57947979484811
 20
224.47098538785559
 30
0.0
 40
2.5
 50
270.0
 51
0.0000000000006361
  0
ARC
  5
16E
  8
0
 10
287.57947979484811
 20
259.47098538785559
 30
0.0
 40
2.5
 50
359.9999999999992
 51
90.000000000000057
  0
LINE
  5
16F
  8
0
 10
283.07947979484788
 20
221.97098538785551
 30
0.0
 11
287.57947979484811
 21
221.97098538785551
 31
0.0
  0
LINE
  5
170
  8
0
 10
260.57947979484788
 20
261.97098538785548
 30
0.0
 11
287.57947979484811
 21
261.97098538785548
 31
0.0
  0
LINE
  5
171
  8
2
 10
263.07947979484788
 20
256.97098538785548
 30
0.0
 11
263.07947979484788
 21
226.97098538785551
 31
0.0
  0
LINE
  5
172
  8
0
 10
258.07947979484788
 20
181.97098538785551
 30
0.0
 11
295.07947979484788
 21
181.97098538785559
 31
0.0
  0
LINE
  5
173
  8
0
 10
290.07947979484811
 20
259.47098538785548
 30
0.0
 11
290.07947979484811
 21
224.47098538785559
 31
0.0
  0
LINE
  5
174
  8
0
 10
258.07947979484788
 20
259.47098538785548
 30
0.0
 11
258.07947979484788
 21
181.97098538785551
 31
0.0
  0
ARC
  5
175
  8
0
 10
285.5794797948476
 20
194.47098538785551
 30
0.0
 40
2.5
 50
179.9999999999998
 51
270.00000000000011
  0
LINE
  5
176
  8
2
 10
290.07947979484811
 20
226.97098538785551
 30
0.0
 11
263.07947979484788
 21
226.97098538785551
 31
0.0
  0
LINE
  5
177
  8
2
 10
290.07947979484811
 20
256.97098538785548
 30
0.0
 11
263.07947979484788
 21
256.97098538785548
 31
0.0
  0
LINE
  5
178
  8
3
 10
287.57947979484811
 20
259.47098538785559
 30
0.0
 11
287.57947979484811
 21
224.47098538785559
 31
0.0
  0
LINE
  5
179
  8
3
 10
260.57947979484788
 20
259.47098538785548
 30
0.0
 11
260.57947979484788
 21
202.4709853878789
 31
0.0
  0
LINE
  5
17A
  8
3
 10
260.57947979484788
 20
197.47098538783229
 30
0.0
 11
260.57947979484788
 21
184.47098538785559
 31
0.0
  0
ARC
  5
17B
  8
0
 10
292.57947979484788
 20
189.47098538785551
 30
0.0
 40
2.5
 50
359.99999999999881
 51
90.000000000000028
  0
LINE
  5
17C
  8
3
 10
292.57947979484788
 20
189.47098538785551
 30
0.0
 11
292.57947979484788
 21
184.47098538785571
 31
0.0
  0
ARC
  5
17D
  8
0
 10
260.579479794848
 20
392.2637454802998
 30
0.0
 40
2.5
 50
180.0
 51
270.0
  0
ARC
  5
17E
  8
0
 10
292.57947979484783
 20
392.2637454802998
 30
0.0
 40
2.5
 50
270.0
 51
0.0
  0
ARC
  5
17F
  8
0
 10
292.579479794848
 20
435.26374548029969
 30
0.0
 40
2.5
 50
359.9999999999996
 51
89.999999999999815
  0
ARC
  5
180
  8
0
 10
260.57947979484783
 20
435.26374548029969
 30
0.0
 40
2.5
 50
89.999999999999915
 51
179.99999999999989
  0
LINE
  5
181
  8
0
 10
260.57947979484783
 20
437.76374548029969
 30
0.0
 11
292.579479794848
 21
437.76374548029969
 31
0.0
  0
LINE
  5
182
  8
0
 10
260.579479794848
 20
389.7637454802998
 30
0.0
 11
292.57947979484783
 21
389.7637454802998
 31
0.0
  0
LINE
  5
183
  8
0
 10
295.07947979484788
 20
397.76374548030009
 30
0.0
 11
295.07947979484783
 21
392.2637454802998
 31
0.0
  0
LINE
  5
184
  8
3
 10
287.579479794848
 20
431.2637454803002
 30
0.0
 11
287.579479794848
 21
396.26374548030032
 31
0.0
  0
ARC
  5
185
  8
0
 10
287.579479794848
 20
431.2637454803002
 30
0.0
 40
2.5
 50
359.9999999999992
 51
90.000000000000057
  0
LINE
  5
186
  8
0
 10
283.07947979484771
 20
433.7637454803002
 30
0.0
 11
287.579479794848
 21
433.7637454803002
 31
0.0
  0
LINE
  5
187
  8
0
 10
283.07947979484771
 20
393.7637454803002
 30
0.0
 11
287.579479794848
 21
393.7637454803002
 31
0.0
  0
ARC
  5
188
  8
0
 10
287.579479794848
 20
396.26374548030032
 30
0.0
 40
2.5
 50
270.0
 51
0.0000000000006361
  0
LINE
  5
189
  8
0
 10
295.079479794848
 20
435.26374548029969
 30
0.0
 11
295.07947979484811
 21
429.7637454803002
 31
0.0
  0
LINE
  5
18A
  8
0
 10
258.07947979484771
 20
435.26374548029969
 30
0.0
 11
258.079479794848
 21
392.2637454802998
 31
0.0
  0
LINE
  5
18B
  8
0
 10
290.07947979484783
 20
431.26375087509689
 30
0.0
 11
290.07947979484783
 21
396.26374548030032
 31
0.0
  0
LINE
  5
18C
  8
0
 10
283.079479794848
 20
437.53080673730437
 30
0.0
 11
283.07947979484771
 21
433.7637454803002
 31
0.0
  0
LINE
  5
18D
  8
3
 10
260.57947979484783
 20
435.26374548029969
 30
0.0
 11
260.579479794848
 21
392.2637454802998
 31
0.0
  0
POLYLINE
  5
18E
  8
0
 66
     1
 10
0.0
 20
0.0
 30
0.0
  0
VERTEX
  5
18F
  8
0
 10
283.079479794848
 20
437.53080673730437
 30
0.0
  0
VERTEX
  5
190
  8
0
 10
283.12412689716911
 20
437.5866126505374
 30
0.0
 42
-0.0320998587185313
  0
VERTEX
  5
191
  8
0
 10
283.8117128418815
 20
437.69551930207751
 30
0.0
 42
-0.013583796483866
 70
     2
 50
5.3231935036631777
  0
VERTEX
  5
192
  8
0
 10
284.54487366169923
 20
437.74378782800471
 30
0.0
 42
-0.0096441512384939
  0
VERTEX
  5
193
  8
0
 10
285.57947979484783
 20
437.76374548029969
 30
0.0
 42
-0.0096441512385256
  0
SEQEND
  5
194
  8
0
  0
POLYLINE
  5
195
  8
0
 66
     1
 10
0.0
 20
0.0
 30
0.0
  0
VERTEX
  5
196
  8
0
 10
283.079479794848
 20
389.99668422329609
 30
0.0
  0
VERTEX
  5
197
  8
0
 10
283.12412689716911
 20
389.940878310063
 30
0.0
 42
0.0320998587185313
  0
VERTEX
  5
198
  8
0
 10
283.8117128418815
 20
389.83197165852289
 30
0.0
 42
0.013583796483866
 70
     2
 50
354.67680649633689
  0
VERTEX
  5
199
  8
0
 10
284.54487366169923
 20
389.78370313259569
 30
0.0
 42
0.0096441512384939
  0
VERTEX
  5
19A
  8
0
 10
285.57947979484783
 20
389.76374548030071
 30
0.0
 42
0.0096441512385256
  0
SEQEND
  5
19B
  8
0
  0
LINE
  5
19C
  8
0
 10
283.079479794848
 20
389.99668422329609
 30
0.0
 11
283.07947979484771
 21
393.7637454803002
 31
0.0
  0
LINE
  5
19D
  8
1
 10
283.07947979484771
 20
427.2637454803002
 30
0.0
 11
283.07947979484771
 21
400.2637454803002
 31
0.0
  0
LINE
  5
19E
  8
1
 10
283.07947979484788
 20
191.97098538785551
 30
0.0
 11
283.07947979484737
 21
158.5709853878555
 31
0.0
  0
TEXT
  5
2D0
  8
0
 62
     3
 10
0.0
 20
0.0
 30
0.0
 40
10.0
  1
MH7-350BP
  7
STANDARD1
  0
LINE
  5
3AF
  8
0
 10
290.07947979484783
 20
429.7637454803002
 30
0.0
 11
626.07947979484743
 21
429.7637454803002
 31
0.0
  0
LINE
  5
3B0
  8
0
 10
626.07947979484743
 20
397.7637454803002
 30
0.0
 11
290.07947979484783
 21
397.76374548029997
 31
0.0
  0
ENDSEC
  0
EOF
