  0
SECTION
  2
HEADER
  9
$ACADVER
  1
AC1009
  9
$INSBASE
 10
0.0
 20
0.0
 30
0.0
  9
$EXTMIN
 10
0.0
 20
-2.960436562073669
 30
0.0
  9
$EXTMAX
 10
384.27726019474778
 20
193.37473327487899
 30
0.0
  9
$LIMMIN
 10
0.0
 20
0.0
  9
$LIMMAX
 10
375.0
 20
270.0
  9
$ORTHOMODE
 70
     0
  9
$REGENMODE
 70
     1
  9
$FILLMODE
 70
     1
  9
$QTEXTMODE
 70
     0
  9
$MIRRTEXT
 70
     0
  9
$DRAGMODE
 70
     2
  9
$LTSCALE
 40
10.0
  9
$OSMODE
 70
  3071
  9
$ATTMODE
 70
     1
  9
$TEXTSIZE
 40
2.0
  9
$TRACEWID
 40
0.05
  9
$TEXTSTYLE
  7
STANDARD
  9
$CLAYER
  8
0
  9
$CELTYPE
  6
BYLAYER
  9
$CECOLOR
 62
   256
  9
$DIMSCALE
 40
1.0
  9
$DIMASZ
 40
2.5
  9
$DIMEXO
 40
2.0
  9
$DIMDLI
 40
0.38
  9
$DIMRND
 40
0.0
  9
$DIMDLE
 40
0.0
  9
$DIMEXE
 40
2.0
  9
$DIMTP
 40
0.0
  9
$DIMTM
 40
0.0
  9
$DIMTXT
 40
3.0
  9
$DIMCEN
 40
0.09
  9
$DIMTSZ
 40
0.0
  9
$DIMTOL
 70
     0
  9
$DIMLIM
 70
     0
  9
$DIMTIH
 70
     0
  9
$DIMTOH
 70
     0
  9
$DIMSE1
 70
     0
  9
$DIMSE2
 70
     0
  9
$DIMTAD
 70
     1
  9
$DIMZIN
 70
     0
  9
$DIMBLK
  1

  9
$DIMASO
 70
     1
  9
$DIMSHO
 70
     0
  9
$DIMPOST
  1

  9
$DIMAPOST
  1

  9
$DIMALT
 70
     0
  9
$DIMALTD
 70
     2
  9
$DIMALTF
 40
25.399999999999999
  9
$DIMLFAC
 40
1.0
  9
$DIMTOFL
 70
     0
  9
$DIMTVP
 40
1.6000000000000001
  9
$DIMTIX
 70
     1
  9
$DIMSOXD
 70
     0
  9
$DIMSAH
 70
     0
  9
$DIMBLK1
  1

  9
$DIMBLK2
  1

  9
$DIMSTYLE
  2
STANDARD
  9
$DIMCLRD
 70
     0
  9
$DIMCLRE
 70
     0
  9
$DIMCLRT
 70
     0
  9
$DIMTFAC
 40
1.0
  9
$DIMGAP
 40
0.09
  9
$LUNITS
 70
     2
  9
$LUPREC
 70
     4
  9
$SKETCHINC
 40
0.1
  9
$FILLETRAD
 40
2.5
  9
$AUNITS
 70
     0
  9
$AUPREC
 70
     0
  9
$MENU
  1
E:\r13\win\SUPPORT\ACAD
  9
$ELEVATION
 40
0.0
  9
$PELEVATION
 40
0.0
  9
$THICKNESS
 40
0.0
  9
$LIMCHECK
 70
     0
  9
$BLIPMODE
 70
     0
  9
$CHAMFERA
 40
0.0
  9
$CHAMFERB
 40
0.0
  9
$SKPOLY
 70
     0
  9
$TDCREATE
 40
2448650.5678784722
  9
$TDUPDATE
 40
2456597.6542634261
  9
$TDINDWG
 40
0.0251601273
  9
$TDUSRTIMER
 40
0.0251601273
  9
$USRTIMER
 70
     1
  9
$ANGBASE
 50
0.0
  9
$ANGDIR
 70
     0
  9
$PDMODE
 70
     0
  9
$PDSIZE
 40
0.0
  9
$PLINEWID
 40
0.0
  9
$COORDS
 70
     1
  9
$SPLFRAME
 70
     0
  9
$SPLINETYPE
 70
     6
  9
$SPLINESEGS
 70
     8
  9
$ATTDIA
 70
     0
  9
$ATTREQ
 70
     1
  9
$HANDLING
 70
     1
  9
$HANDSEED
  5
780
  9
$SURFTAB1
 70
     6
  9
$SURFTAB2
 70
     6
  9
$SURFTYPE
 70
     6
  9
$SURFU
 70
     6
  9
$SURFV
 70
     6
  9
$UCSNAME
  2

  9
$UCSORG
 10
0.0
 20
0.0
 30
0.0
  9
$UCSXDIR
 10
1.0
 20
0.0
 30
0.0
  9
$UCSYDIR
 10
0.0
 20
1.0
 30
0.0
  9
$PUCSNAME
  2

  9
$PUCSORG
 10
0.0
 20
0.0
 30
0.0
  9
$PUCSXDIR
 10
1.0
 20
0.0
 30
0.0
  9
$PUCSYDIR
 10
0.0
 20
1.0
 30
0.0
  9
$USERI1
 70
     0
  9
$USERI2
 70
     1
  9
$USERI3
 70
     1
  9
$USERI4
 70
     0
  9
$USERI5
 70
     0
  9
$USERR1
 40
0.0
  9
$USERR2
 40
0.0
  9
$USERR3
 40
0.0
  9
$USERR4
 40
0.0
  9
$USERR5
 40
0.0
  9
$WORLDVIEW
 70
     1
  9
$SHADEDGE
 70
     3
  9
$SHADEDIF
 70
    70
  9
$TILEMODE
 70
     1
  9
$MAXACTVP
 70
    16
  9
$PLIMCHECK
 70
     0
  9
$PEXTMIN
 10
1.0000000000000000E+020
 20
1.0000000000000000E+020
 30
1.0000000000000000E+020
  9
$PEXTMAX
 10
-1.0000000000000000E+020
 20
-1.0000000000000000E+020
 30
-1.0000000000000000E+020
  9
$PLIMMIN
 10
0.0
 20
0.0
  9
$PLIMMAX
 10
12.0
 20
9.0
  9
$UNITMODE
 70
     0
  9
$VISRETAIN
 70
     0
  9
$PLINEGEN
 70
     1
  9
$PSLTSCALE
 70
     0
  0
ENDSEC
  0
SECTION
  2
TABLES
  0
TABLE
  2
VPORT
 70
     1
  0
VPORT
  2
*ACTIVE
 70
     0
 10
0.0
 20
0.0
 11
1.0
 21
1.0
 12
192.13863099208911
 22
134.10366293909439
 13
0.0
 23
0.0
 14
10.0
 24
10.0
 15
10.0
 25
10.0
 16
0.0
 26
0.0
 36
1.0
 17
0.0
 27
0.0
 37
0.0
 40
277.29405978699532
 41
2.304913294797688
 42
50.0
 43
0.0
 44
0.0
 50
0.0
 51
0.0
 71
     0
 72
   500
 73
     1
 74
     0
 75
     0
 76
     0
 77
     0
 78
     2
  0
ENDTAB
  0
TABLE
  2
LTYPE
 70
     4
  0
LTYPE
  2
CONTINUOUS
 70
     0
  3
Solid Line
 72
    65
 73
     0
 40
0.0
  0
LTYPE
  2
CENTER
 70
     0
  3
____ _ ____ _ ____ _ ____ _ ____ _ ____ _ ____
 72
    65
 73
     4
 40
2.0
 49
1.25
 49
-0.25
 49
0.25
 49
-0.25
  0
LTYPE
  2
HIDDEN
 70
     0
  3
_ _ _ _ _ _ _ _ _ _ _ _ _ _ _ _ _ _ _ _ _ _ _
 72
    65
 73
     2
 40
0.375
 49
0.25
 49
-0.125
  0
LTYPE
  2
PHANTOM2
 70
     0
  3
___ _ _ ___ _ _ ___ _ _ ___ _ _
 72
    65
 73
     6
 40
1.25
 49
0.625
 49
-0.125
 49
0.125
 49
-0.125
 49
0.125
 49
-0.125
  0
ENDTAB
  0
TABLE
  2
LAYER
 70
     3
  0
LAYER
  2
0
 70
     0
 62
     7
  6
CONTINUOUS
  0
LAYER
  2
1
 70
     0
 62
     1
  6
CENTER
  0
LAYER
  2
2
 70
     0
 62
     2
  6
HIDDEN
  0
ENDTAB
  0
TABLE
  2
STYLE
 70
     2
  0
STYLE
  2
STANDARD
 70
     0
 40
0.0
 41
1.0
 50
0.0
 71
     0
 42
2.0
  3
TXT
  4
BIGFONT
  0
STYLE
  2
STANDARD1
 70
     0
 40
0.0
 41
1.0
 50
0.0
 71
     0
 42
3.0
  3
txt
  4

  0
ENDTAB
  0
TABLE
  2
VIEW
 70
     1
  0
VIEW
  2
ALL
 70
     0
 40
270.0
 10
220.99159663865549
 20
135.0
 41
0.0
 11
0.0
 21
0.0
 31
1.0
 12
0.0
 22
0.0
 32
0.0
 42
0.0
 43
0.0
 44
0.0
 50
0.0
 71
     0
  0
ENDTAB
  0
TABLE
  2
UCS
 70
     0
  0
ENDTAB
  0
TABLE
  2
APPID
 70
     3
  0
APPID
  2
ACAD
 70
     0
  0
APPID
  2
ACAD_MLEADERVER
 70
     0
  0
APPID
  2
ACAD_NAV_VCDISPLAY
 70
     0
  0
ENDTAB
  0
TABLE
  2
DIMSTYLE
 70
     1
  0
DIMSTYLE
  2
STANDARD
 70
     0
  3

  4

  5

  6

  7

 40
1.0
 41
0.18
 42
0.0625
 43
0.38
 44
0.18
 45
0.0
 46
0.0
 47
0.0
 48
0.0
140
0.18
141
0.09
142
0.0
143
25.399999999999999
144
1.0
145
0.0
146
1.0
147
0.09
 71
     0
 72
     0
 73
     1
 74
     1
 75
     0
 76
     0
 77
     0
 78
     0
170
     0
171
     2
172
     0
173
     0
174
     0
175
     0
176
     0
177
     0
178
     0
  0
ENDTAB
  0
ENDSEC
  0
SECTION
  2
BLOCKS
  0
BLOCK
  8
0
  2
$MODEL_SPACE
 70
     0
 10
0.0
 20
0.0
 30
0.0
  3
$MODEL_SPACE
  1

  0
ENDBLK
  5
217
  8
0
  0
BLOCK
 67
     1
  8
0
  2
$PAPER_SPACE
 70
     0
 10
0.0
 20
0.0
 30
0.0
  3
$PAPER_SPACE
  1

  0
ENDBLK
  5
215
 67
     1
  8
0
  0
ENDSEC
  0
SECTION
  2
ENTITIES
  0
LINE
  5
5DF
  8
0
 10
45.648824145199278
 20
65.96762004083655
 30
0.0
 11
59.648824145199278
 21
65.96762004083655
 31
0.0
  0
ARC
  5
5E0
  8
0
 10
62.648824145199278
 20
101.96762004083649
 30
0.0
 40
10.0
 50
351.05155500706292
 51
220.43226918747089
  0
LINE
  5
5E1
  8
0
 10
59.648824145199278
 20
65.96762004083655
 30
0.0
 11
72.527111157102183
 21
100.41216328783059
 31
0.0
  0
LINE
  5
5E2
  8
1
 10
47.648824145199278
 20
101.96762004083649
 30
0.0
 11
77.648824145199285
 21
101.96762004083649
 31
0.0
  0
LINE
  5
5E3
  8
1
 10
62.648824145199278
 20
86.96762004083655
 30
0.0
 11
62.648824145199278
 21
116.96762004083649
 31
0.0
  0
LINE
  5
5E4
  8
0
 10
45.648824145199278
 20
65.96762004083655
 30
0.0
 11
55.563589589579863
 21
92.485864805619713
 31
0.0
  0
ARC
  5
5E5
  8
0
 10
52.753573021834598
 20
93.536486949398054
 30
0.0
 40
3.0
 50
339.50000000000102
 51
40.432269187470887
  0
LINE
  5
5E6
  8
1
 10
52.648824145199278
 20
60.96762004083655
 30
0.0
 11
52.648824145199278
 21
79.967620040836493
 31
0.0
  0
LINE
  5
5E7
  8
0
 10
119.2772601947478
 20
111.96762004083649
 30
0.0
 11
119.2772601947478
 21
65.96762004083655
 31
0.0
  0
LINE
  5
5E8
  8
0
 10
129.27726019474781
 20
111.96762004083649
 30
0.0
 11
129.27726019474781
 21
65.96762004083655
 31
0.0
  0
LINE
  5
5E9
  8
0
 10
129.27726019474781
 20
65.96762004083655
 30
0.0
 11
119.2772601947478
 21
65.96762004083655
 31
0.0
  0
LINE
  5
5EA
  8
0
 10
119.2772601947478
 20
111.96762004083649
 30
0.0
 11
379.27726019474778
 21
111.96762004083649
 31
0.0
  0
LINE
  5
5EB
  8
0
 10
129.27726019474781
 20
91.96762004083655
 30
0.0
 11
369.27726019474778
 21
91.96762004083655
 31
0.0
  0
LINE
  5
5EC
  8
0
 10
369.27726019474778
 20
65.96762004083655
 30
0.0
 11
379.27726019474778
 21
65.96762004083655
 31
0.0
  0
LINE
  5
5ED
  8
0
 10
369.27726019474778
 20
111.96762004083649
 30
0.0
 11
369.27726019474778
 21
65.96762004083655
 31
0.0
  0
LINE
  5
5EE
  8
0
 10
379.27726019474778
 20
111.96762004083649
 30
0.0
 11
379.27726019474778
 21
65.96762004083655
 31
0.0
  0
LINE
  5
5EF
  8
1
 10
124.2772601947478
 20
60.96762004083655
 30
0.0
 11
124.2772601947478
 21
79.96762004083655
 31
0.0
  0
LINE
  5
5F1
  8
2
 10
121.7772601947478
 20
74.96762004083655
 30
0.0
 11
126.7772601947478
 21
74.96762004083655
 31
0.0
  0
LINE
  5
5F2
  8
2
 10
126.7772601947478
 20
66.467620040836493
 30
0.0
 11
127.2772601947478
 21
65.967620040836493
 31
0.0
  0
LINE
  5
5F3
  8
2
 10
126.7772601947478
 20
74.96762004083655
 30
0.0
 11
127.2772601947478
 21
74.46762004083655
 31
0.0
  0
LINE
  5
5F4
  8
2
 10
126.7772601947478
 20
72.067620040836573
 30
0.0
 11
127.2772601947478
 21
72.567620040836573
 31
0.0
  0
LINE
  5
5F5
  8
2
 10
127.2772601947478
 20
72.567620040836459
 30
0.0
 11
127.2772601947478
 21
74.46762004083655
 31
0.0
  0
LINE
  5
5F6
  8
2
 10
126.7772601947478
 20
67.767620040836505
 30
0.0
 11
127.2772601947478
 21
68.267620040836505
 31
0.0
  0
LINE
  5
5F7
  8
2
 10
126.7772601947478
 20
70.767620040836505
 30
0.0
 11
126.7772601947478
 21
72.067620040836459
 31
0.0
  0
LINE
  5
5F8
  8
2
 10
126.7772601947478
 20
70.767620040836505
 30
0.0
 11
127.2772601947478
 21
70.267620040836505
 31
0.0
  0
LINE
  5
5F9
  8
2
 10
127.2772601947478
 20
70.267620040836505
 30
0.0
 11
127.2772601947478
 21
68.267620040836505
 31
0.0
  0
LINE
  5
5FA
  8
2
 10
126.7772601947478
 20
67.767620040836505
 30
0.0
 11
126.7772601947478
 21
66.467620040836493
 31
0.0
  0
LINE
  5
5FB
  8
2
 10
121.7772601947478
 20
67.767620040836505
 30
0.0
 11
121.7772601947478
 21
66.467620040836493
 31
0.0
  0
LINE
  5
5FC
  8
2
 10
121.2772601947478
 20
70.267620040836505
 30
0.0
 11
121.2772601947478
 21
68.267620040836505
 31
0.0
  0
LINE
  5
5FD
  8
2
 10
121.7772601947478
 20
70.767620040836505
 30
0.0
 11
121.2772601947478
 21
70.267620040836505
 31
0.0
  0
LINE
  5
5FE
  8
2
 10
121.7772601947478
 20
66.467620040836493
 30
0.0
 11
121.2772601947478
 21
65.967620040836493
 31
0.0
  0
LINE
  5
5FF
  8
2
 10
121.7772601947478
 20
70.767620040836505
 30
0.0
 11
121.7772601947478
 21
72.067620040836459
 31
0.0
  0
LINE
  5
600
  8
2
 10
121.7772601947478
 20
67.767620040836505
 30
0.0
 11
121.2772601947478
 21
68.267620040836505
 31
0.0
  0
LINE
  5
601
  8
2
 10
121.2772601947478
 20
72.567620040836459
 30
0.0
 11
121.2772601947478
 21
74.46762004083655
 31
0.0
  0
LINE
  5
602
  8
2
 10
121.7772601947478
 20
72.067620040836573
 30
0.0
 11
121.2772601947478
 21
72.567620040836573
 31
0.0
  0
LINE
  5
603
  8
2
 10
121.7772601947478
 20
74.96762004083655
 30
0.0
 11
121.2772601947478
 21
74.46762004083655
 31
0.0
  0
LINE
  5
604
  8
2
 10
122.6562601947481
 20
66.767620040836505
 30
0.0
 11
121.856260194748
 21
65.967620040836493
 31
0.0
  0
LINE
  5
605
  8
2
 10
125.89826019474761
 20
66.767620040836505
 30
0.0
 11
122.6562601947481
 21
66.767620040836505
 31
0.0
  0
LINE
  5
606
  8
2
 10
126.6982601947476
 20
65.967620040836493
 30
0.0
 11
125.89826019474761
 21
66.767620040836505
 31
0.0
  0
LINE
  5
607
  8
2
 10
122.2772601947478
 20
66.388620040836258
 30
0.0
 11
122.2772601947478
 21
71.96762004083655
 31
0.0
  0
LINE
  5
608
  8
2
 10
122.6562601947481
 20
66.767620040836505
 30
0.0
 11
122.6562601947481
 21
72.96762004083655
 31
0.0
  0
LINE
  5
609
  8
2
 10
126.2772601947478
 20
66.388620040836258
 30
0.0
 11
126.2772601947478
 21
71.96762004083655
 31
0.0
  0
LINE
  5
60A
  8
2
 10
125.89826019474761
 20
66.767620040836505
 30
0.0
 11
125.89826019474761
 21
72.96762004083655
 31
0.0
  0
LINE
  5
60B
  8
2
 10
122.2772601947478
 20
71.96762004083655
 30
0.0
 11
126.2772601947478
 21
71.96762004083655
 31
0.0
  0
LINE
  5
60C
  8
2
 10
122.6562601947481
 20
72.96762004083655
 30
0.0
 11
125.89826019474761
 21
72.96762004083655
 31
0.0
  0
LINE
  5
60D
  8
2
 10
122.6562601947482
 20
72.96762004083655
 30
0.0
 11
124.2772601947478
 21
73.941615104280004
 31
0.0
  0
LINE
  5
60E
  8
2
 10
125.89826019474761
 20
72.967620040836437
 30
0.0
 11
124.2772601947478
 21
73.941615104280004
 31
0.0
  0
LINE
  5
60F
  8
2
 10
126.2772601947478
 20
71.96762004083655
 30
0.0
 11
125.89826019474761
 21
72.624067296905537
 31
0.0
  0
LINE
  5
610
  8
2
 10
122.2772601947479
 20
71.96762004083655
 30
0.0
 11
122.6562601947481
 21
72.624067296905537
 31
0.0
  0
LINE
  5
611
  8
1
 10
374.27726019474778
 20
60.96762004083655
 30
0.0
 11
374.27726019474778
 21
79.96762004083655
 31
0.0
  0
LINE
  5
612
  8
2
 10
372.27726019474778
 20
71.96762004083655
 30
0.0
 11
372.6562601947482
 21
72.624067296905537
 31
0.0
  0
LINE
  5
613
  8
2
 10
376.27726019474778
 20
71.96762004083655
 30
0.0
 11
375.89826019474759
 21
72.624067296905537
 31
0.0
  0
LINE
  5
614
  8
2
 10
375.89826019474759
 20
72.967620040836437
 30
0.0
 11
374.27726019474778
 21
73.941615104280004
 31
0.0
  0
LINE
  5
615
  8
2
 10
372.6562601947482
 20
72.96762004083655
 30
0.0
 11
374.27726019474778
 21
73.941615104280004
 31
0.0
  0
LINE
  5
616
  8
2
 10
372.65626019474809
 20
72.96762004083655
 30
0.0
 11
375.89826019474759
 21
72.96762004083655
 31
0.0
  0
LINE
  5
617
  8
2
 10
372.27726019474778
 20
71.96762004083655
 30
0.0
 11
376.27726019474778
 21
71.96762004083655
 31
0.0
  0
LINE
  5
618
  8
2
 10
375.89826019474759
 20
66.767620040836505
 30
0.0
 11
375.89826019474759
 21
72.96762004083655
 31
0.0
  0
LINE
  5
619
  8
2
 10
376.27726019474778
 20
66.388620040836258
 30
0.0
 11
376.27726019474778
 21
71.96762004083655
 31
0.0
  0
LINE
  5
61A
  8
2
 10
372.6562601947482
 20
66.767620040836505
 30
0.0
 11
372.65626019474809
 21
72.96762004083655
 31
0.0
  0
LINE
  5
61B
  8
2
 10
372.27726019474778
 20
66.388620040836258
 30
0.0
 11
372.27726019474778
 21
71.96762004083655
 31
0.0
  0
LINE
  5
61C
  8
2
 10
376.69826019474772
 20
65.967620040836493
 30
0.0
 11
375.89826019474759
 21
66.767620040836505
 31
0.0
  0
LINE
  5
61D
  8
2
 10
375.89826019474759
 20
66.767620040836505
 30
0.0
 11
372.6562601947482
 21
66.767620040836505
 31
0.0
  0
LINE
  5
61E
  8
2
 10
372.6562601947482
 20
66.767620040836505
 30
0.0
 11
371.85626019474802
 21
65.967620040836493
 31
0.0
  0
LINE
  5
61F
  8
2
 10
371.7772601947479
 20
74.96762004083655
 30
0.0
 11
371.27726019474778
 21
74.46762004083655
 31
0.0
  0
LINE
  5
620
  8
2
 10
371.7772601947479
 20
72.067620040836573
 30
0.0
 11
371.27726019474778
 21
72.567620040836573
 31
0.0
  0
LINE
  5
621
  8
2
 10
371.27726019474778
 20
72.567620040836459
 30
0.0
 11
371.27726019474778
 21
74.46762004083655
 31
0.0
  0
LINE
  5
622
  8
2
 10
371.7772601947479
 20
67.767620040836505
 30
0.0
 11
371.27726019474778
 21
68.267620040836505
 31
0.0
  0
LINE
  5
623
  8
2
 10
371.7772601947479
 20
70.767620040836505
 30
0.0
 11
371.7772601947479
 21
72.067620040836459
 31
0.0
  0
LINE
  5
624
  8
2
 10
371.7772601947479
 20
66.467620040836493
 30
0.0
 11
371.27726019474778
 21
65.967620040836493
 31
0.0
  0
LINE
  5
625
  8
2
 10
371.7772601947479
 20
70.767620040836505
 30
0.0
 11
371.27726019474778
 21
70.267620040836505
 31
0.0
  0
LINE
  5
626
  8
2
 10
371.27726019474778
 20
70.267620040836505
 30
0.0
 11
371.27726019474778
 21
68.267620040836505
 31
0.0
  0
LINE
  5
627
  8
2
 10
371.7772601947479
 20
67.767620040836505
 30
0.0
 11
371.7772601947479
 21
66.467620040836493
 31
0.0
  0
LINE
  5
628
  8
2
 10
376.77726019474778
 20
67.767620040836505
 30
0.0
 11
376.77726019474778
 21
66.467620040836493
 31
0.0
  0
LINE
  5
629
  8
2
 10
377.27726019474778
 20
70.267620040836505
 30
0.0
 11
377.27726019474778
 21
68.267620040836505
 31
0.0
  0
LINE
  5
62A
  8
2
 10
376.77726019474778
 20
70.767620040836505
 30
0.0
 11
377.27726019474778
 21
70.267620040836505
 31
0.0
  0
LINE
  5
62B
  8
2
 10
376.77726019474778
 20
70.767620040836505
 30
0.0
 11
376.77726019474778
 21
72.067620040836459
 31
0.0
  0
LINE
  5
62C
  8
2
 10
376.77726019474778
 20
67.767620040836505
 30
0.0
 11
377.27726019474778
 21
68.267620040836505
 31
0.0
  0
LINE
  5
62D
  8
2
 10
377.27726019474778
 20
72.567620040836459
 30
0.0
 11
377.27726019474778
 21
74.46762004083655
 31
0.0
  0
LINE
  5
62E
  8
2
 10
376.77726019474778
 20
72.067620040836573
 30
0.0
 11
377.27726019474778
 21
72.567620040836573
 31
0.0
  0
LINE
  5
62F
  8
2
 10
376.77726019474778
 20
74.96762004083655
 30
0.0
 11
377.27726019474778
 21
74.46762004083655
 31
0.0
  0
LINE
  5
630
  8
2
 10
376.77726019474778
 20
66.467620040836493
 30
0.0
 11
377.27726019474778
 21
65.967620040836493
 31
0.0
  0
LINE
  5
631
  8
2
 10
371.7772601947479
 20
74.96762004083655
 30
0.0
 11
376.77726019474778
 21
74.96762004083655
 31
0.0
  0
LINE
  5
632
  8
0
 10
119.2772601947479
 20
166.37473327487911
 30
0.0
 11
379.27726019474773
 21
166.37473327487891
 31
0.0
  0
LINE
  5
633
  8
0
 10
119.2772601947479
 20
186.37473327487891
 30
0.0
 11
379.27726019474778
 21
186.37473327487899
 31
0.0
  0
LINE
  5
634
  8
0
 10
119.2772601947479
 20
193.37473327487899
 30
0.0
 11
129.27726019474781
 21
193.37473327487899
 31
0.0
  0
LINE
  5
635
  8
0
 10
119.2772601947479
 20
166.37473327487899
 30
0.0
 11
119.2772601947479
 21
193.37473327487899
 31
0.0
  0
LINE
  5
636
  8
0
 10
129.2772601947479
 20
166.37473327487911
 30
0.0
 11
129.2772601947479
 21
193.37473327487899
 31
0.0
  0
LINE
  5
637
  8
0
 10
369.27726019474778
 20
166.37473327487911
 30
0.0
 11
369.27726019474778
 21
193.37473327487899
 31
0.0
  0
LINE
  5
638
  8
0
 10
379.27726019474773
 20
166.37473327487899
 30
0.0
 11
379.27726019474778
 21
193.37473327487899
 31
0.0
  0
LINE
  5
639
  8
0
 10
369.27726019474773
 20
193.37473327487899
 30
0.0
 11
379.27726019474778
 21
193.37473327487899
 31
0.0
  0
LINE
  5
63A
  8
1
 10
114.2772601947478
 20
176.37473327487891
 30
0.0
 11
384.27726019474778
 21
176.37473327487891
 31
0.0
  0
LINE
  5
63B
  8
1
 10
114.2772601947478
 20
101.96762004083649
 30
0.0
 11
384.27726019474778
 21
101.96762004083649
 31
0.0
  0
TEXT
  5
6F1
  8
0
 62
     3
 10
0.0
 20
0.0
 30
0.0
 40
10.0
  1
MH17-250-SUS
  7
STANDARD1
  0
ENDSEC
  0
EOF
