  0
SECTION
  2
HEADER
  9
$ACADVER
  1
AC1009
  9
$INSBASE
 10
0.0
 20
0.0
 30
0.0
  9
$EXTMIN
 10
0.0
 20
-2.960436562073669
 30
0.0
  9
$EXTMAX
 10
537.14698943668634
 20
297.0157981283914
 30
0.0
  9
$LIMMIN
 10
0.0
 20
0.0
  9
$LIMMAX
 10
385.0
 20
270.0
  9
$ORTHOMODE
 70
     1
  9
$REGENMODE
 70
     1
  9
$FILLMODE
 70
     1
  9
$QTEXTMODE
 70
     0
  9
$MIRRTEXT
 70
     0
  9
$DRAGMODE
 70
     2
  9
$LTSCALE
 40
10.0
  9
$OSMODE
 70
  3071
  9
$ATTMODE
 70
     1
  9
$TEXTSIZE
 40
4.0
  9
$TRACEWID
 40
0.05
  9
$TEXTSTYLE
  7
STANDARD
  9
$CLAYER
  8
0
  9
$CELTYPE
  6
BYLAYER
  9
$CECOLOR
 62
   256
  9
$DIMSCALE
 40
1.0
  9
$DIMASZ
 40
3.0
  9
$DIMEXO
 40
1.0
  9
$DIMDLI
 40
6.0
  9
$DIMRND
 40
0.0
  9
$DIMDLE
 40
0.0
  9
$DIMEXE
 40
1.0
  9
$DIMTP
 40
495.0
  9
$DIMTM
 40
0.0
  9
$DIMTXT
 40
3.0
  9
$DIMCEN
 40
0.0
  9
$DIMTSZ
 40
0.0
  9
$DIMTOL
 70
     0
  9
$DIMLIM
 70
     0
  9
$DIMTIH
 70
     0
  9
$DIMTOH
 70
     0
  9
$DIMSE1
 70
     0
  9
$DIMSE2
 70
     0
  9
$DIMTAD
 70
     1
  9
$DIMZIN
 70
     0
  9
$DIMBLK
  1

  9
$DIMASO
 70
     0
  9
$DIMSHO
 70
     0
  9
$DIMPOST
  1

  9
$DIMAPOST
  1

  9
$DIMALT
 70
     0
  9
$DIMALTD
 70
     2
  9
$DIMALTF
 40
25.399999999999999
  9
$DIMLFAC
 40
1.0
  9
$DIMTOFL
 70
     1
  9
$DIMTVP
 40
0.0
  9
$DIMTIX
 70
     1
  9
$DIMSOXD
 70
     0
  9
$DIMSAH
 70
     0
  9
$DIMBLK1
  1

  9
$DIMBLK2
  1

  9
$DIMSTYLE
  2
STANDARD
  9
$DIMCLRD
 70
     0
  9
$DIMCLRE
 70
     0
  9
$DIMCLRT
 70
     4
  9
$DIMTFAC
 40
1.0
  9
$DIMGAP
 40
1.0
  9
$LUNITS
 70
     2
  9
$LUPREC
 70
     4
  9
$SKETCHINC
 40
0.1
  9
$FILLETRAD
 40
1.5
  9
$AUNITS
 70
     0
  9
$AUPREC
 70
     0
  9
$MENU
  1
E:\r13\win\SUPPORT\ACAD
  9
$ELEVATION
 40
0.0
  9
$PELEVATION
 40
0.0
  9
$THICKNESS
 40
0.0
  9
$LIMCHECK
 70
     0
  9
$BLIPMODE
 70
     0
  9
$CHAMFERA
 40
2.0
  9
$CHAMFERB
 40
2.0
  9
$SKPOLY
 70
     0
  9
$TDCREATE
 40
2450462.5309673608
  9
$TDUPDATE
 40
2456597.6541846991
  9
$TDINDWG
 40
0.1629939931
  9
$TDUSRTIMER
 40
0.1629939931
  9
$USRTIMER
 70
     1
  9
$ANGBASE
 50
0.0
  9
$ANGDIR
 70
     0
  9
$PDMODE
 70
     0
  9
$PDSIZE
 40
0.0
  9
$PLINEWID
 40
0.0
  9
$COORDS
 70
     1
  9
$SPLFRAME
 70
     0
  9
$SPLINETYPE
 70
     6
  9
$SPLINESEGS
 70
     8
  9
$ATTDIA
 70
     0
  9
$ATTREQ
 70
     1
  9
$HANDLING
 70
     1
  9
$HANDSEED
  5
D9E
  9
$SURFTAB1
 70
     6
  9
$SURFTAB2
 70
     6
  9
$SURFTYPE
 70
     6
  9
$SURFU
 70
     6
  9
$SURFV
 70
     6
  9
$UCSNAME
  2

  9
$UCSORG
 10
0.0
 20
0.0
 30
0.0
  9
$UCSXDIR
 10
1.0
 20
0.0
 30
0.0
  9
$UCSYDIR
 10
0.0
 20
1.0
 30
0.0
  9
$PUCSNAME
  2

  9
$PUCSORG
 10
0.0
 20
0.0
 30
0.0
  9
$PUCSXDIR
 10
1.0
 20
0.0
 30
0.0
  9
$PUCSYDIR
 10
0.0
 20
1.0
 30
0.0
  9
$USERI1
 70
     3
  9
$USERI2
 70
     1
  9
$USERI3
 70
     0
  9
$USERI4
 70
     0
  9
$USERI5
 70
     0
  9
$USERR1
 40
1.0
  9
$USERR2
 40
3.0
  9
$USERR3
 40
3.0
  9
$USERR4
 40
3.0
  9
$USERR5
 40
10.0
  9
$WORLDVIEW
 70
     1
  9
$SHADEDGE
 70
     3
  9
$SHADEDIF
 70
    70
  9
$TILEMODE
 70
     1
  9
$MAXACTVP
 70
    16
  9
$PLIMCHECK
 70
     0
  9
$PEXTMIN
 10
1.0000000000000000E+020
 20
1.0000000000000000E+020
 30
1.0000000000000000E+020
  9
$PEXTMAX
 10
-1.0000000000000000E+020
 20
-1.0000000000000000E+020
 30
-1.0000000000000000E+020
  9
$PLIMMIN
 10
0.0
 20
0.0
  9
$PLIMMAX
 10
12.0
 20
9.0
  9
$UNITMODE
 70
     0
  9
$VISRETAIN
 70
     0
  9
$PLINEGEN
 70
     0
  9
$PSLTSCALE
 70
     0
  0
ENDSEC
  0
SECTION
  2
TABLES
  0
TABLE
  2
VPORT
 70
     1
  0
VPORT
  2
*ACTIVE
 70
     0
 10
0.0
 20
0.0
 11
1.0
 21
1.0
 12
268.57349596898598
 22
147.6730834954067
 13
0.0
 23
0.0
 14
5.0
 24
5.0
 15
10.0
 25
10.0
 16
0.0
 26
0.0
 36
1.0
 17
0.0
 27
0.0
 37
0.0
 40
304.74965092689519
 41
2.304913294797688
 42
50.0
 43
0.0
 44
0.0
 50
0.0
 51
0.0
 71
     0
 72
   100
 73
     1
 74
     0
 75
     0
 76
     0
 77
     0
 78
     0
  0
ENDTAB
  0
TABLE
  2
LTYPE
 70
     4
  0
LTYPE
  2
CONTINUOUS
 70
     0
  3
Solid Line
 72
    65
 73
     0
 40
0.0
  0
LTYPE
  2
CENTER
 70
     0
  3
____ _ ____ _ ____ _ ____ _ ____ _ ____ _ ____
 72
    65
 73
     4
 40
2.0
 49
1.25
 49
-0.25
 49
0.25
 49
-0.25
  0
LTYPE
  2
HIDDEN
 70
     0
  3
_ _ _ _ _ _ _ _ _ _ _ _ _ _ _ _ _ _ _ _ _ _ _
 72
    65
 73
     2
 40
0.375
 49
0.25
 49
-0.125
  0
LTYPE
  2
PHANTOM2
 70
     0
  3
___ _ _ ___ _ _ ___ _ _ ___ _ _
 72
    65
 73
     6
 40
1.25
 49
0.625
 49
-0.125
 49
0.125
 49
-0.125
 49
0.125
 49
-0.125
  0
ENDTAB
  0
TABLE
  2
LAYER
 70
     3
  0
LAYER
  2
0
 70
     0
 62
     7
  6
CONTINUOUS
  0
LAYER
  2
1
 70
     0
 62
     1
  6
CENTER
  0
LAYER
  2
2
 70
     0
 62
     2
  6
HIDDEN
  0
ENDTAB
  0
TABLE
  2
STYLE
 70
     2
  0
STYLE
  2
STANDARD
 70
     0
 40
0.0
 41
1.0
 50
0.0
 71
     0
 42
4.0
  3
simplex
  4
bigfont
  0
STYLE
  2
STANDARD1
 70
     0
 40
0.0
 41
1.0
 50
0.0
 71
     0
 42
3.0
  3
txt
  4

  0
ENDTAB
  0
TABLE
  2
VIEW
 70
     0
  0
ENDTAB
  0
TABLE
  2
UCS
 70
     0
  0
ENDTAB
  0
TABLE
  2
APPID
 70
     3
  0
APPID
  2
ACAD
 70
     0
  0
APPID
  2
ACAD_MLEADERVER
 70
     0
  0
APPID
  2
ACAD_NAV_VCDISPLAY
 70
     0
  0
ENDTAB
  0
TABLE
  2
DIMSTYLE
 70
     1
  0
DIMSTYLE
  2
STANDARD
 70
     0
  3

  4

  5

  6

  7

 40
1.0
 41
0.18
 42
0.0625
 43
0.38
 44
0.18
 45
0.0
 46
0.0
 47
0.0
 48
0.0
140
0.18
141
0.09
142
0.0
143
25.399999999999999
144
1.0
145
0.0
146
1.0
147
0.09
 71
     0
 72
     0
 73
     1
 74
     1
 75
     0
 76
     0
 77
     0
 78
     0
170
     0
171
     2
172
     0
173
     0
174
     0
175
     0
176
     0
177
     0
178
     0
  0
ENDTAB
  0
ENDSEC
  0
SECTION
  2
BLOCKS
  0
BLOCK
  8
0
  2
$MODEL_SPACE
 70
     0
 10
0.0
 20
0.0
 30
0.0
  3
$MODEL_SPACE
  1

  0
ENDBLK
  5
A27
  8
0
  0
BLOCK
 67
     1
  8
0
  2
$PAPER_SPACE
 70
     0
 10
0.0
 20
0.0
 30
0.0
  3
$PAPER_SPACE
  1

  0
ENDBLK
  5
A25
 67
     1
  8
0
  0
ENDSEC
  0
SECTION
  2
ENTITIES
  0
LINE
  5
A49
  8
0
  6
CONTINUOUS
 62
     7
 10
523.14698943668645
 20
197.0157981283914
 30
0.0
 11
193.14698943668651
 21
197.01579812839131
 31
0.0
  0
LINE
  5
A4A
  8
1
 10
537.14698943668634
 20
182.0157981283914
 30
0.0
 11
179.14698943668651
 21
182.01579812839131
 31
0.0
  0
LINE
  5
A4B
  8
0
  6
CONTINUOUS
 62
     7
 10
466.14698943668628
 20
167.0157981283914
 30
0.0
 11
250.1469894366866
 21
167.0157981283914
 31
0.0
  0
LINE
  5
A4C
  8
0
  6
CONTINUOUS
 62
     7
 10
250.1469894366866
 20
171.01579812839131
 30
0.0
 11
250.1469894366866
 21
122.0157981283914
 31
0.0
  0
LINE
  5
A4D
  8
0
  6
CONTINUOUS
 62
     7
 10
216.1469894366864
 20
171.01579812839131
 30
0.0
 11
216.1469894366866
 21
122.0157981283914
 31
0.0
  0
LINE
  5
A4E
  8
1
 10
233.1469894366866
 20
181.0157981283914
 30
0.0
 11
233.1469894366866
 21
112.0157981283914
 31
0.0
  0
LINE
  5
A4F
  8
0
  6
CONTINUOUS
 62
     7
 10
216.1469894366864
 20
122.0157981283914
 30
0.0
 11
250.14698943668631
 21
122.0157981283914
 31
0.0
  0
LINE
  5
A50
  8
0
  6
CONTINUOUS
 62
     7
 10
193.1469894366864
 20
167.0157981283914
 30
0.0
 11
216.1469894366864
 21
167.0157981283914
 31
0.0
  0
LINE
  5
A51
  8
0
  6
CONTINUOUS
 62
     7
 10
198.1469894366864
 20
197.01579812839131
 30
0.0
 11
198.1469894366864
 21
167.0157981283914
 31
0.0
  0
LINE
  5
A54
  8
0
  6
CONTINUOUS
 62
     7
 10
216.1469894366864
 20
171.0157981283914
 30
0.0
 11
250.1469894366866
 21
171.0157981283914
 31
0.0
  0
LINE
  5
A55
  8
1
 10
78.146989436686553
 20
182.0157981283914
 30
0.0
 11
128.14698943668651
 21
182.0157981283914
 31
0.0
  0
CIRCLE
  5
A56
  8
0
  6
CONTINUOUS
 62
     7
 10
103.1469894366865
 20
182.0157981283914
 30
0.0
 40
15.0
  0
LINE
  5
A57
  8
0
  6
CONTINUOUS
 62
     7
 10
93.146989436686567
 20
122.0157981283914
 30
0.0
 11
113.1469894366867
 21
122.0157981283914
 31
0.0
  0
LINE
  5
A58
  8
0
  6
CONTINUOUS
 62
     7
 10
93.146989436686567
 20
122.0157981283914
 30
0.0
 11
93.146989436686567
 21
170.83545824089251
 31
0.0
  0
LINE
  5
A59
  8
1
 10
483.1469894366864
 20
181.0157981283914
 30
0.0
 11
483.14698943668662
 21
112.0157981283914
 31
0.0
  0
LINE
  5
A5A
  8
0
  6
CONTINUOUS
 62
     7
 10
500.14698943668662
 20
171.01579812839131
 30
0.0
 11
500.1469894366864
 21
122.0157981283914
 31
0.0
  0
LINE
  5
A5B
  8
0
  6
CONTINUOUS
 62
     7
 10
466.14698943668628
 20
171.01579812839131
 30
0.0
 11
466.14698943668628
 21
122.0157981283914
 31
0.0
  0
LINE
  5
A5C
  8
0
  6
CONTINUOUS
 62
     7
 10
500.14698943668662
 20
122.0157981283914
 30
0.0
 11
466.14698943668662
 21
122.0157981283914
 31
0.0
  0
LINE
  5
A5D
  8
0
  6
CONTINUOUS
 62
     7
 10
523.14698943668645
 20
167.0157981283914
 30
0.0
 11
500.14698943668662
 21
167.0157981283914
 31
0.0
  0
LINE
  5
A5E
  8
0
  6
CONTINUOUS
 62
     7
 10
500.14698943668662
 20
171.0157981283914
 30
0.0
 11
466.14698943668628
 21
171.0157981283914
 31
0.0
  0
LINE
  5
A62
  8
0
  6
CONTINUOUS
 62
     7
 10
113.1469894366867
 20
122.0157981283914
 30
0.0
 11
113.1469894366865
 21
170.83545824089239
 31
0.0
  0
LINE
  5
A63
  8
1
 10
103.1469894366865
 20
112.0157981283914
 30
0.0
 11
103.1469894366865
 21
207.0157981283914
 31
0.0
  0
LINE
  5
A6B
  8
2
 10
230.1469894366864
 20
125.9742981283915
 30
0.0
 11
230.1469894366864
 21
139.0157981283914
 31
0.0
  0
LINE
  5
A6C
  8
2
 10
230.6884894366863
 20
126.5157981283914
 30
0.0
 11
230.6884894366863
 21
144.0157981283914
 31
0.0
  0
LINE
  5
A6D
  8
2
 10
235.60548943668641
 20
126.5157981283914
 30
0.0
 11
235.60548943668641
 21
144.0157981283914
 31
0.0
  0
LINE
  5
A6E
  8
2
 10
236.14698943668631
 20
125.9742981283915
 30
0.0
 11
236.14698943668631
 21
139.0157981283914
 31
0.0
  0
LINE
  5
A6F
  8
2
 10
230.1469894366864
 20
139.0157981283914
 30
0.0
 11
236.14698943668631
 21
139.0157981283914
 31
0.0
  0
LINE
  5
A70
  8
2
 10
230.6884894366863
 20
144.0157981283914
 30
0.0
 11
235.60548943668641
 21
144.0157981283914
 31
0.0
  0
LINE
  5
A71
  8
2
 10
230.6884894366863
 20
144.01579812839131
 30
0.0
 11
233.14698943668631
 21
145.4930139602707
 31
0.0
  0
LINE
  5
A72
  8
2
 10
235.60548943668641
 20
144.0157981283914
 30
0.0
 11
233.14698943668631
 21
145.4930139602707
 31
0.0
  0
LINE
  5
A73
  8
2
 10
236.14698943668631
 20
139.0157981283914
 30
0.0
 11
235.60548943668641
 21
139.9537036406897
 31
0.0
  0
LINE
  5
A74
  8
2
 10
230.1469894366864
 20
139.0157981283914
 30
0.0
 11
230.68848943668641
 21
139.9537036406897
 31
0.0
  0
LINE
  5
A75
  8
2
 10
229.6884894366863
 20
125.5157981283914
 30
0.0
 11
230.6884894366863
 21
126.5157981283914
 31
0.0
  0
LINE
  5
A76
  8
2
 10
235.60548943668641
 20
126.5157981283914
 30
0.0
 11
236.6054894366865
 21
125.5157981283914
 31
0.0
  0
LINE
  5
A77
  8
2
 10
230.6884894366863
 20
126.5157981283914
 30
0.0
 11
235.60548943668641
 21
126.5157981283914
 31
0.0
  0
LINE
  5
A79
  8
2
 10
220.1469894366864
 20
154.0157981283914
 30
0.0
 11
220.1469894366866
 21
122.0157981283914
 31
0.0
  0
LINE
  5
A7A
  8
2
 10
246.1469894366866
 20
154.0157981283914
 30
0.0
 11
246.1469894366866
 21
122.0157981283914
 31
0.0
  0
LINE
  5
A7B
  8
2
 10
241.1469894366866
 20
152.01579812839131
 30
0.0
 11
241.1469894366866
 21
129.5157981283914
 31
0.0
  0
LINE
  5
A7C
  8
2
 10
225.14698943668651
 20
152.0157981283914
 30
0.0
 11
225.1469894366866
 21
129.5157981283914
 31
0.0
  0
LINE
  5
A7D
  8
2
 10
225.14698943668651
 20
129.5157981283914
 30
0.0
 11
241.1469894366866
 21
129.5157981283914
 31
0.0
  0
LINE
  5
A7E
  8
2
 10
220.1469894366864
 20
154.0157981283914
 30
0.0
 11
223.14698943668651
 21
154.0157981283914
 31
0.0
  0
LINE
  5
A7F
  8
2
 10
243.1469894366866
 20
154.0157981283914
 30
0.0
 11
246.1469894366866
 21
154.0157981283914
 31
0.0
  0
LINE
  5
A88
  8
2
 10
227.3734867447919
 20
149.5157981283914
 30
0.0
 11
227.37348674479011
 21
125.5157981283914
 31
0.0
  0
LINE
  5
A89
  8
2
 10
230.26023809073891
 20
149.51579812839131
 30
0.0
 11
230.26023809073851
 21
139.2119505510984
 31
0.0
  0
LINE
  5
A8A
  8
2
 10
236.0337407826346
 20
149.51579812839131
 30
0.0
 11
236.0337407826346
 21
139.2119505510976
 31
0.0
  0
LINE
  5
A8B
  8
2
 10
238.92049212858259
 20
149.51579812839131
 30
0.0
 11
238.92049212858259
 21
125.5157981283914
 31
0.0
  0
LINE
  5
A91
  8
2
 10
227.37348674479011
 20
125.5157981283914
 30
0.0
 11
238.92049212858259
 21
125.5157981283914
 31
0.0
  0
LINE
  5
A95
  8
2
 10
243.1469894366866
 20
154.0157981283914
 30
0.0
 11
241.1469894366866
 21
152.01579812839131
 31
0.0
  0
LINE
  5
A96
  8
2
 10
225.14698943668651
 20
152.0157981283914
 30
0.0
 11
223.14698943668651
 21
154.0157981283914
 31
0.0
  0
LINE
  5
A98
  8
2
 10
227.37348674479011
 20
149.5157981283914
 30
0.0
 11
238.92049212858259
 21
149.51579812839131
 31
0.0
  0
LINE
  5
BF7
  8
2
 10
477.37348674479023
 20
149.5157981283914
 30
0.0
 11
488.92049212858268
 21
149.51579812839131
 31
0.0
  0
LINE
  5
BF8
  8
2
 10
475.14698943668662
 20
152.0157981283914
 30
0.0
 11
473.14698943668651
 21
154.0157981283914
 31
0.0
  0
LINE
  5
BF9
  8
2
 10
493.14698943668662
 20
154.0157981283914
 30
0.0
 11
491.14698943668668
 21
152.01579812839131
 31
0.0
  0
LINE
  5
BFA
  8
2
 10
477.37348674479023
 20
125.5157981283914
 30
0.0
 11
488.92049212858268
 21
125.5157981283914
 31
0.0
  0
LINE
  5
BFB
  8
2
 10
488.92049212858268
 20
149.51579812839131
 30
0.0
 11
488.92049212858268
 21
125.5157981283914
 31
0.0
  0
LINE
  5
BFC
  8
2
 10
486.03374078263471
 20
149.51579812839131
 30
0.0
 11
486.03374078263471
 21
139.2119505510976
 31
0.0
  0
LINE
  5
BFD
  8
2
 10
480.26023809073899
 20
149.51579812839131
 30
0.0
 11
480.2602380907386
 21
139.2119505510984
 31
0.0
  0
LINE
  5
BFE
  8
2
 10
477.37348674479188
 20
149.5157981283914
 30
0.0
 11
477.37348674479023
 21
125.5157981283914
 31
0.0
  0
LINE
  5
BFF
  8
2
 10
493.14698943668662
 20
154.0157981283914
 30
0.0
 11
496.14698943668662
 21
154.0157981283914
 31
0.0
  0
LINE
  5
C00
  8
2
 10
470.14698943668651
 20
154.0157981283914
 30
0.0
 11
473.14698943668651
 21
154.0157981283914
 31
0.0
  0
LINE
  5
C01
  8
2
 10
475.14698943668662
 20
129.5157981283914
 30
0.0
 11
491.14698943668668
 21
129.5157981283914
 31
0.0
  0
LINE
  5
C02
  8
2
 10
475.14698943668662
 20
152.0157981283914
 30
0.0
 11
475.14698943668662
 21
129.5157981283914
 31
0.0
  0
LINE
  5
C03
  8
2
 10
491.14698943668668
 20
152.01579812839131
 30
0.0
 11
491.14698943668668
 21
129.5157981283914
 31
0.0
  0
LINE
  5
C04
  8
2
 10
496.14698943668662
 20
154.0157981283914
 30
0.0
 11
496.14698943668662
 21
122.0157981283914
 31
0.0
  0
LINE
  5
C05
  8
2
 10
470.14698943668651
 20
154.0157981283914
 30
0.0
 11
470.14698943668668
 21
122.0157981283914
 31
0.0
  0
LINE
  5
C06
  8
2
 10
480.68848943668638
 20
126.5157981283914
 30
0.0
 11
485.60548943668653
 21
126.5157981283914
 31
0.0
  0
LINE
  5
C07
  8
2
 10
485.60548943668653
 20
126.5157981283914
 30
0.0
 11
486.60548943668658
 21
125.5157981283914
 31
0.0
  0
LINE
  5
C08
  8
2
 10
479.68848943668633
 20
125.5157981283914
 30
0.0
 11
480.68848943668638
 21
126.5157981283914
 31
0.0
  0
LINE
  5
C09
  8
2
 10
480.14698943668651
 20
139.0157981283914
 30
0.0
 11
480.6884894366865
 21
139.9537036406897
 31
0.0
  0
LINE
  5
C0A
  8
2
 10
486.1469894366864
 20
139.0157981283914
 30
0.0
 11
485.60548943668653
 21
139.9537036406897
 31
0.0
  0
LINE
  5
C0B
  8
2
 10
485.60548943668653
 20
144.0157981283914
 30
0.0
 11
483.1469894366864
 21
145.4930139602707
 31
0.0
  0
LINE
  5
C0C
  8
2
 10
480.68848943668638
 20
144.01579812839131
 30
0.0
 11
483.1469894366864
 21
145.4930139602707
 31
0.0
  0
LINE
  5
C0D
  8
2
 10
480.68848943668638
 20
144.0157981283914
 30
0.0
 11
485.60548943668653
 21
144.0157981283914
 31
0.0
  0
LINE
  5
C0E
  8
2
 10
480.1469894366864
 20
139.0157981283914
 30
0.0
 11
486.1469894366864
 21
139.0157981283914
 31
0.0
  0
LINE
  5
C0F
  8
2
 10
486.1469894366864
 20
125.9742981283915
 30
0.0
 11
486.1469894366864
 21
139.0157981283914
 31
0.0
  0
LINE
  5
C10
  8
2
 10
485.60548943668653
 20
126.5157981283914
 30
0.0
 11
485.60548943668653
 21
144.0157981283914
 31
0.0
  0
LINE
  5
C11
  8
2
 10
480.68848943668638
 20
126.5157981283914
 30
0.0
 11
480.68848943668638
 21
144.0157981283914
 31
0.0
  0
LINE
  5
C12
  8
2
 10
480.1469894366864
 20
125.9742981283915
 30
0.0
 11
480.1469894366864
 21
139.0157981283914
 31
0.0
  0
LINE
  5
C20
  8
1
 10
537.14698943668634
 20
282.0157981283914
 30
0.0
 11
179.14698943668651
 21
282.01579812839128
 31
0.0
  0
LINE
  5
C2F
  8
0
  6
CONTINUOUS
 62
     7
 10
193.1469894366864
 20
197.01579812839131
 30
0.0
 11
193.1469894366864
 21
167.0157981283914
 31
0.0
  0
ARC
  5
C31
  8
0
  6
CONTINUOUS
 62
     7
 10
219.2719894366864
 20
182.01579812839131
 30
0.0
 40
30.125
 50
150.1371656437249
 51
209.8628343562751
  0
ARC
  5
C3B
  8
0
  6
CONTINUOUS
 62
     7
 10
497.0219894366864
 20
182.0157981283914
 30
0.0
 40
30.125
 50
330.13716564372493
 51
29.862834356275119
  0
LINE
  5
C3C
  8
0
  6
CONTINUOUS
 62
     7
 10
523.14698943668645
 20
197.0157981283914
 30
0.0
 11
523.14698943668645
 21
167.0157981283914
 31
0.0
  0
LINE
  5
C3D
  8
0
  6
CONTINUOUS
 62
     7
 10
518.14698943668645
 20
197.0157981283914
 30
0.0
 11
518.14698943668645
 21
167.0157981283914
 31
0.0
  0
LINE
  5
C48
  8
0
  6
CONTINUOUS
 62
     7
 10
518.14698943668645
 20
297.0157981283914
 30
0.0
 11
518.14698943668645
 21
267.0157981283914
 31
0.0
  0
LINE
  5
C49
  8
0
  6
CONTINUOUS
 62
     7
 10
523.14698943668645
 20
297.0157981283914
 30
0.0
 11
523.14698943668645
 21
267.0157981283914
 31
0.0
  0
ARC
  5
C4A
  8
0
  6
CONTINUOUS
 62
     7
 10
497.0219894366864
 20
282.0157981283914
 30
0.0
 40
30.125
 50
330.13716564372493
 51
29.862834356275119
  0
LINE
  5
C4B
  8
0
  6
CONTINUOUS
 62
     7
 10
523.14698943668645
 20
267.01579812839151
 30
0.0
 11
193.1469894366864
 21
267.0157981283914
 31
0.0
  0
LINE
  5
C4C
  8
0
  6
CONTINUOUS
 62
     7
 10
523.14698943668645
 20
297.0157981283914
 30
0.0
 11
193.1469894366864
 21
297.0157981283914
 31
0.0
  0
ARC
  5
C4D
  8
0
  6
CONTINUOUS
 62
     7
 10
219.2719894366864
 20
282.01579812839128
 30
0.0
 40
30.125
 50
150.1371656437249
 51
209.8628343562751
  0
LINE
  5
C4E
  8
0
  6
CONTINUOUS
 62
     7
 10
193.1469894366864
 20
297.0157981283914
 30
0.0
 11
193.1469894366864
 21
267.01579812839128
 31
0.0
  0
LINE
  5
C4F
  8
0
  6
CONTINUOUS
 62
     7
 10
198.1469894366864
 20
297.0157981283914
 30
0.0
 11
198.1469894366864
 21
267.01579812839128
 31
0.0
  0
TEXT
  5
D10
  8
0
 62
     3
 10
0.0
 20
0.0
 30
0.0
 40
10.0
  1
MH16-250-SUS
  7
STANDARD1
  0
ENDSEC
  0
EOF
