  0
SECTION
  2
HEADER
  9
$ACADVER
  1
AC1009
  9
$INSBASE
 10
0.0
 20
0.0
 30
0.0
  9
$EXTMIN
 10
0.0
 20
-2.960436562073669
 30
0.0
  9
$EXTMAX
 10
302.09569467656871
 20
207.4262955502636
 30
0.0
  9
$LIMMIN
 10
0.0
 20
0.0
  9
$LIMMAX
 10
375.0
 20
270.0
  9
$ORTHOMODE
 70
     1
  9
$REGENMODE
 70
     1
  9
$FILLMODE
 70
     1
  9
$QTEXTMODE
 70
     0
  9
$MIRRTEXT
 70
     0
  9
$DRAGMODE
 70
     2
  9
$LTSCALE
 40
6.0
  9
$OSMODE
 70
  3071
  9
$ATTMODE
 70
     1
  9
$TEXTSIZE
 40
4.0
  9
$TRACEWID
 40
0.05
  9
$TEXTSTYLE
  7
STANDARD
  9
$CLAYER
  8
0
  9
$CELTYPE
  6
BYLAYER
  9
$CECOLOR
 62
   256
  9
$DIMSCALE
 40
1.0
  9
$DIMASZ
 40
3.0
  9
$DIMEXO
 40
2.0
  9
$DIMDLI
 40
0.38
  9
$DIMRND
 40
0.0
  9
$DIMDLE
 40
0.0
  9
$DIMEXE
 40
2.0
  9
$DIMTP
 40
0.0
  9
$DIMTM
 40
0.0
  9
$DIMTXT
 40
3.2000000000000002
  9
$DIMCEN
 40
0.0
  9
$DIMTSZ
 40
0.0
  9
$DIMTOL
 70
     0
  9
$DIMLIM
 70
     0
  9
$DIMTIH
 70
     0
  9
$DIMTOH
 70
     0
  9
$DIMSE1
 70
     0
  9
$DIMSE2
 70
     0
  9
$DIMTAD
 70
     1
  9
$DIMZIN
 70
     0
  9
$DIMBLK
  1

  9
$DIMASO
 70
     1
  9
$DIMSHO
 70
     0
  9
$DIMPOST
  1

  9
$DIMAPOST
  1

  9
$DIMALT
 70
     0
  9
$DIMALTD
 70
     2
  9
$DIMALTF
 40
25.399999999999999
  9
$DIMLFAC
 40
1.0
  9
$DIMTOFL
 70
     0
  9
$DIMTVP
 40
1.6000000000000001
  9
$DIMTIX
 70
     1
  9
$DIMSOXD
 70
     0
  9
$DIMSAH
 70
     0
  9
$DIMBLK1
  1

  9
$DIMBLK2
  1

  9
$DIMSTYLE
  2
STANDARD
  9
$DIMCLRD
 70
     4
  9
$DIMCLRE
 70
     4
  9
$DIMCLRT
 70
     4
  9
$DIMTFAC
 40
1.0
  9
$DIMGAP
 40
0.09
  9
$LUNITS
 70
     2
  9
$LUPREC
 70
     1
  9
$SKETCHINC
 40
0.1
  9
$FILLETRAD
 40
0.0
  9
$AUNITS
 70
     0
  9
$AUPREC
 70
     0
  9
$MENU
  1
E:\r13\win\SUPPORT\ACAD
  9
$ELEVATION
 40
0.0
  9
$PELEVATION
 40
0.0
  9
$THICKNESS
 40
0.0
  9
$LIMCHECK
 70
     0
  9
$BLIPMODE
 70
     0
  9
$CHAMFERA
 40
3.0
  9
$CHAMFERB
 40
3.0
  9
$SKPOLY
 70
     0
  9
$TDCREATE
 40
2449930.6500925929
  9
$TDUPDATE
 40
2456597.654016424
  9
$TDINDWG
 40
0.0005879167
  9
$TDUSRTIMER
 40
0.0005879167
  9
$USRTIMER
 70
     1
  9
$ANGBASE
 50
0.0
  9
$ANGDIR
 70
     0
  9
$PDMODE
 70
     0
  9
$PDSIZE
 40
0.0
  9
$PLINEWID
 40
0.0
  9
$COORDS
 70
     1
  9
$SPLFRAME
 70
     0
  9
$SPLINETYPE
 70
     6
  9
$SPLINESEGS
 70
     8
  9
$ATTDIA
 70
     0
  9
$ATTREQ
 70
     1
  9
$HANDLING
 70
     1
  9
$HANDSEED
  5
264
  9
$SURFTAB1
 70
     6
  9
$SURFTAB2
 70
     6
  9
$SURFTYPE
 70
     6
  9
$SURFU
 70
     6
  9
$SURFV
 70
     6
  9
$UCSNAME
  2

  9
$UCSORG
 10
0.0
 20
0.0
 30
0.0
  9
$UCSXDIR
 10
1.0
 20
0.0
 30
0.0
  9
$UCSYDIR
 10
0.0
 20
1.0
 30
0.0
  9
$PUCSNAME
  2

  9
$PUCSORG
 10
0.0
 20
0.0
 30
0.0
  9
$PUCSXDIR
 10
1.0
 20
0.0
 30
0.0
  9
$PUCSYDIR
 10
0.0
 20
1.0
 30
0.0
  9
$USERI1
 70
     0
  9
$USERI2
 70
     1
  9
$USERI3
 70
     1
  9
$USERI4
 70
     0
  9
$USERI5
 70
     0
  9
$USERR1
 40
0.0
  9
$USERR2
 40
0.0
  9
$USERR3
 40
0.0
  9
$USERR4
 40
0.0
  9
$USERR5
 40
0.0
  9
$WORLDVIEW
 70
     1
  9
$SHADEDGE
 70
     3
  9
$SHADEDIF
 70
    70
  9
$TILEMODE
 70
     1
  9
$MAXACTVP
 70
    16
  9
$PLIMCHECK
 70
     0
  9
$PEXTMIN
 10
1.0000000000000000E+020
 20
1.0000000000000000E+020
 30
1.0000000000000000E+020
  9
$PEXTMAX
 10
-1.0000000000000000E+020
 20
-1.0000000000000000E+020
 30
-1.0000000000000000E+020
  9
$PLIMMIN
 10
0.0
 20
0.0
  9
$PLIMMAX
 10
12.0
 20
9.0
  9
$UNITMODE
 70
     0
  9
$VISRETAIN
 70
     0
  9
$PLINEGEN
 70
     0
  9
$PSLTSCALE
 70
     0
  0
ENDSEC
  0
SECTION
  2
TABLES
  0
TABLE
  2
VPORT
 70
     1
  0
VPORT
  2
*ACTIVE
 70
     0
 10
0.0
 20
0.0
 11
1.0
 21
1.0
 12
187.49427839065231
 22
134.10366293909439
 13
0.0
 23
0.0
 14
10.0
 24
10.0
 15
10.0
 25
10.0
 16
0.0
 26
0.0
 36
1.0
 17
0.0
 27
0.0
 37
0.0
 40
277.29405978699532
 41
2.304913294797688
 42
50.0
 43
0.0
 44
0.0
 50
0.0
 51
0.0
 71
     0
 72
   500
 73
     1
 74
     0
 75
     0
 76
     0
 77
     0
 78
     2
  0
ENDTAB
  0
TABLE
  2
LTYPE
 70
     4
  0
LTYPE
  2
CONTINUOUS
 70
     0
  3
Solid Line
 72
    65
 73
     0
 40
0.0
  0
LTYPE
  2
CENTER
 70
     0
  3
____ _ ____ _ ____ _ ____ _ ____ _ ____ _ ____
 72
    65
 73
     4
 40
2.0
 49
1.25
 49
-0.25
 49
0.25
 49
-0.25
  0
LTYPE
  2
HIDDEN
 70
     0
  3
_ _ _ _ _ _ _ _ _ _ _ _ _ _ _ _ _ _ _ _ _ _ _
 72
    65
 73
     2
 40
0.375
 49
0.25
 49
-0.125
  0
LTYPE
  2
PHANTOM2
 70
     0
  3
___ _ _ ___ _ _ ___ _ _ ___ _ _
 72
    65
 73
     6
 40
1.25
 49
0.625
 49
-0.125
 49
0.125
 49
-0.125
 49
0.125
 49
-0.125
  0
ENDTAB
  0
TABLE
  2
LAYER
 70
     3
  0
LAYER
  2
0
 70
     0
 62
     7
  6
CONTINUOUS
  0
LAYER
  2
1
 70
     0
 62
     1
  6
CENTER
  0
LAYER
  2
2
 70
     0
 62
     2
  6
HIDDEN
  0
ENDTAB
  0
TABLE
  2
STYLE
 70
     2
  0
STYLE
  2
STANDARD
 70
     0
 40
0.0
 41
1.0
 50
0.0
 71
     0
 42
4.0
  3
SIMPLEX
  4
BIGFONT
  0
STYLE
  2
STANDARD1
 70
     0
 40
0.0
 41
1.0
 50
0.0
 71
     0
 42
3.0
  3
txt
  4

  0
ENDTAB
  0
TABLE
  2
VIEW
 70
     1
  0
VIEW
  2
ALL
 70
     0
 40
270.0
 10
220.78595317725751
 20
135.0
 41
441.57190635451502
 11
0.0
 21
0.0
 31
1.0
 12
0.0
 22
0.0
 32
0.0
 42
50.0
 43
0.0
 44
0.0
 50
0.0
 71
     0
  0
ENDTAB
  0
TABLE
  2
UCS
 70
     0
  0
ENDTAB
  0
TABLE
  2
APPID
 70
     3
  0
APPID
  2
ACAD
 70
     0
  0
APPID
  2
ACAD_MLEADERVER
 70
     0
  0
APPID
  2
ACAD_NAV_VCDISPLAY
 70
     0
  0
ENDTAB
  0
TABLE
  2
DIMSTYLE
 70
     1
  0
DIMSTYLE
  2
STANDARD
 70
     0
  3

  4

  5

  6

  7

 40
1.0
 41
0.18
 42
0.0625
 43
0.38
 44
0.18
 45
0.0
 46
0.0
 47
0.0
 48
0.0
140
0.18
141
0.09
142
0.0
143
25.399999999999999
144
1.0
145
0.0
146
1.0
147
0.09
 71
     0
 72
     0
 73
     1
 74
     1
 75
     0
 76
     0
 77
     0
 78
     0
170
     0
171
     2
172
     0
173
     0
174
     0
175
     0
176
     0
177
     0
178
     0
  0
ENDTAB
  0
ENDSEC
  0
SECTION
  2
BLOCKS
  0
BLOCK
  8
0
  2
$MODEL_SPACE
 70
     0
 10
0.0
 20
0.0
 30
0.0
  3
$MODEL_SPACE
  1

  0
ENDBLK
  5
EA
  8
0
  0
BLOCK
 67
     1
  8
0
  2
$PAPER_SPACE
 70
     0
 10
0.0
 20
0.0
 30
0.0
  3
$PAPER_SPACE
  1

  0
ENDBLK
  5
E8
 67
     1
  8
0
  0
ENDSEC
  0
SECTION
  2
ENTITIES
  0
LINE
  5
29
  8
0
 10
124.0956946765687
 20
89.659403039732709
 30
0.0
 11
124.0956946765687
 21
109.1594030397326
 31
0.0
  0
LINE
  5
2A
  8
0
 10
154.5956946765686
 20
139.65940303973269
 30
0.0
 11
266.59569467656871
 21
139.65940303973261
 31
0.0
  0
LINE
  5
2B
  8
0
 10
297.0956946765686
 20
109.15940303973269
 30
0.0
 11
297.0956946765686
 21
89.659403039732709
 31
0.0
  0
LINE
  5
2C
  8
0
 10
297.0956946765686
 20
89.659403039732709
 30
0.0
 11
284.0956946765686
 21
89.659403039732709
 31
0.0
  0
LINE
  5
2D
  8
0
 10
154.5956946765686
 20
126.6594030397326
 30
0.0
 11
266.59569467656871
 21
126.65940303973269
 31
0.0
  0
LINE
  5
2E
  8
0
 10
137.09569467656871
 20
89.659403039732709
 30
0.0
 11
137.09569467656871
 21
109.1594030397326
 31
0.0
  0
LINE
  5
2F
  8
0
 10
284.0956946765686
 20
109.15940303973269
 30
0.0
 11
284.0956946765686
 21
89.659403039732709
 31
0.0
  0
LINE
  5
30
  8
0
 10
137.0956946765686
 20
89.659403039732709
 30
0.0
 11
124.0956946765687
 21
89.659403039732709
 31
0.0
  0
LINE
  5
31
  8
2
 10
127.5956946765687
 20
90.117903039732781
 30
0.0
 11
127.5956946765687
 21
101.65940303973269
 31
0.0
  0
LINE
  5
32
  8
2
 10
128.13719467656861
 20
90.659403039732695
 30
0.0
 11
128.13719467656861
 21
105.65940303973269
 31
0.0
  0
LINE
  5
33
  8
2
 10
133.0541946765687
 20
90.659403039732695
 30
0.0
 11
133.0541946765687
 21
105.65940303973269
 31
0.0
  0
LINE
  5
34
  8
2
 10
133.59569467656871
 20
90.117903039732781
 30
0.0
 11
133.59569467656871
 21
101.65940303973269
 31
0.0
  0
LINE
  5
35
  8
2
 10
127.5956946765687
 20
101.65940303973269
 30
0.0
 11
133.59569467656871
 21
101.65940303973269
 31
0.0
  0
LINE
  5
36
  8
2
 10
128.13719467656861
 20
105.65940303973269
 30
0.0
 11
133.0541946765687
 21
105.65940303973269
 31
0.0
  0
LINE
  5
37
  8
2
 10
128.13719467656861
 20
105.65940303973269
 30
0.0
 11
130.59569467656871
 21
107.136618871612
 31
0.0
  0
LINE
  5
38
  8
2
 10
133.0541946765687
 20
105.65940303973269
 30
0.0
 11
130.59569467656871
 21
107.136618871612
 31
0.0
  0
LINE
  5
39
  8
2
 10
133.59569467656871
 20
101.65940303973269
 30
0.0
 11
133.0541946765687
 21
102.597308552031
 31
0.0
  0
LINE
  5
3A
  8
2
 10
127.5956946765688
 20
101.65940303973269
 30
0.0
 11
128.1371946765687
 21
102.597308552031
 31
0.0
  0
LINE
  5
3B
  8
2
 10
127.1371946765685
 20
89.659403039732709
 30
0.0
 11
128.13719467656861
 21
90.659403039732695
 31
0.0
  0
LINE
  5
3C
  8
2
 10
133.0541946765687
 20
90.659403039732695
 30
0.0
 11
134.05419467656881
 21
89.659403039732709
 31
0.0
  0
LINE
  5
3D
  8
2
 10
128.13719467656861
 20
90.659403039732695
 30
0.0
 11
133.0541946765687
 21
90.659403039732695
 31
0.0
  0
ARC
  5
3E
  8
0
 10
154.5956946765686
 20
109.1594030397326
 30
0.0
 40
17.5
 50
90.000000000000071
 51
180.0
  0
ARC
  5
3F
  8
0
 10
266.59569467656871
 20
109.15940303973269
 30
0.0
 40
17.5
 50
0.0
 51
90.000000000000171
  0
ARC
  5
40
  8
0
 10
266.59569467656871
 20
109.15940303973269
 30
0.0
 40
30.5
 50
0.0
 51
90.000000000000171
  0
ARC
  5
41
  8
0
 10
154.5956946765686
 20
109.1594030397326
 30
0.0
 40
30.5
 50
90.000000000000071
 51
180.0
  0
LINE
  5
42
  8
0
 10
130.59569467656871
 20
182.4262955502636
 30
0.0
 11
290.5956946765686
 21
182.4262955502636
 31
0.0
  0
LINE
  5
43
  8
0
 10
130.59569467656871
 20
202.4262955502636
 30
0.0
 11
290.5956946765686
 21
202.4262955502636
 31
0.0
  0
LINE
  5
44
  8
1
 10
119.0956946765687
 20
192.4262955502636
 30
0.0
 11
302.09569467656871
 21
192.4262955502636
 31
0.0
  0
POLYLINE
  5
45
  8
0
 66
     1
 10
0.0
 20
0.0
 30
0.0
  0
VERTEX
  5
46
  8
0
 10
124.0956946765687
 20
192.4262955502636
 30
0.0
 42
0.065845472207122
  0
VERTEX
  5
47
  8
0
 10
124.6228815439183
 20
188.44043923732841
 30
0.0
 42
0.0785039226056693
  0
VERTEX
  5
48
  8
0
 10
125.9995005988561
 20
185.3552277383981
 30
0.0
 42
0.1071725458326262
 70
     2
 50
303.0238675557967
  0
VERTEX
  5
49
  8
0
 10
128.27109640576279
 20
183.1040168378448
 30
0.0
 42
0.1427991817419167
 50
303.0238675557967
  0
VERTEX
  5
4A
  8
0
 10
130.5956946765686
 20
182.4262955502636
 30
0.0
 42
0.1427991817419139
  0
SEQEND
  5
4B
  8
0
  0
POLYLINE
  5
4C
  8
0
 66
     1
 10
0.0
 20
0.0
 30
0.0
  0
VERTEX
  5
4D
  8
0
 10
130.59569467656871
 20
202.4262955502636
 30
0.0
 42
0.1427991817419245
  0
VERTEX
  5
4E
  8
0
 10
128.27109640576271
 20
201.74857426268241
 30
0.0
 42
0.1071725458326246
  0
VERTEX
  5
4F
  8
0
 10
125.9995005988561
 20
199.49736336212911
 30
0.0
 42
0.0785039226056727
 70
     2
 50
236.97613244420339
  0
VERTEX
  5
50
  8
0
 10
124.6228815439183
 20
196.41215186319869
 30
0.0
 42
0.0658454722071229
 50
236.97613244420339
  0
VERTEX
  5
51
  8
0
 10
124.0956946765687
 20
192.4262955502636
 30
0.0
 42
0.065845472207122
  0
SEQEND
  5
52
  8
0
  0
POLYLINE
  5
53
  8
2
 66
     1
 10
0.0
 20
0.0
 30
0.0
  0
VERTEX
  5
54
  8
2
 10
130.59569467656871
 20
202.4262955502636
 30
0.0
 42
-0.1427991817419245
  0
VERTEX
  5
55
  8
2
 10
132.92029294737461
 20
201.74857426268241
 30
0.0
 42
-0.1071725458326246
  0
VERTEX
  5
56
  8
2
 10
135.19188875428119
 20
199.49736336212911
 30
0.0
 42
-0.0785039226056727
 70
     2
 50
236.97613244420339
  0
VERTEX
  5
57
  8
2
 10
136.568507809219
 20
196.41215186319869
 30
0.0
 42
-0.0658454722071229
  0
VERTEX
  5
58
  8
2
 10
137.09569467656871
 20
192.4262955502636
 30
0.0
 42
-0.065845472207122
  0
SEQEND
  5
59
  8
2
  0
POLYLINE
  5
5A
  8
2
 66
     1
 10
0.0
 20
0.0
 30
0.0
  0
VERTEX
  5
5B
  8
2
 10
137.09569467656871
 20
192.4262955502636
 30
0.0
 42
-0.065845472207122
  0
VERTEX
  5
5C
  8
2
 10
136.568507809219
 20
188.44043923732841
 30
0.0
 42
-0.0785039226056693
  0
VERTEX
  5
5D
  8
2
 10
135.19188875428119
 20
185.3552277383981
 30
0.0
 42
-0.1071725458326262
 70
     2
 50
303.0238675557967
  0
VERTEX
  5
5E
  8
2
 10
132.92029294737449
 20
183.1040168378448
 30
0.0
 42
-0.1427991817419167
  0
VERTEX
  5
5F
  8
2
 10
130.59569467656871
 20
182.4262955502636
 30
0.0
 42
-0.1427991817419139
  0
SEQEND
  5
60
  8
2
  0
POLYLINE
  5
61
  8
2
 66
     1
 10
0.0
 20
0.0
 30
0.0
  0
VERTEX
  5
62
  8
2
 10
290.5956946765686
 20
202.4262955502636
 30
0.0
 42
0.1427991817419245
  0
VERTEX
  5
63
  8
2
 10
288.27109640576271
 20
201.74857426268241
 30
0.0
 42
0.1071725458326246
  0
VERTEX
  5
64
  8
2
 10
285.99950059885612
 20
199.49736336212911
 30
0.0
 42
0.0785039226056727
 70
     2
 50
236.97613244420339
  0
VERTEX
  5
65
  8
2
 10
284.62288154391831
 20
196.41215186319869
 30
0.0
 42
0.0658454722071229
  0
VERTEX
  5
66
  8
2
 10
284.0956946765686
 20
192.4262955502636
 30
0.0
 42
0.065845472207122
  0
SEQEND
  5
67
  8
2
  0
POLYLINE
  5
68
  8
0
 66
     1
 10
0.0
 20
0.0
 30
0.0
  0
VERTEX
  5
69
  8
0
 10
290.5956946765686
 20
202.4262955502636
 30
0.0
 42
-0.1427991817419245
  0
VERTEX
  5
6A
  8
0
 10
292.92029294737461
 20
201.74857426268241
 30
0.0
 42
-0.1071725458326246
  0
VERTEX
  5
6B
  8
0
 10
295.19188875428119
 20
199.49736336212911
 30
0.0
 42
-0.0785039226056727
 70
     2
 50
236.97613244420339
  0
VERTEX
  5
6C
  8
0
 10
296.568507809219
 20
196.41215186319869
 30
0.0
 42
-0.0658454722071229
  0
VERTEX
  5
6D
  8
0
 10
297.0956946765686
 20
192.4262955502636
 30
0.0
 42
-0.065845472207122
  0
SEQEND
  5
6E
  8
0
  0
POLYLINE
  5
6F
  8
0
 66
     1
 10
0.0
 20
0.0
 30
0.0
  0
VERTEX
  5
70
  8
0
 10
297.0956946765686
 20
192.4262955502636
 30
0.0
 42
-0.065845472207122
  0
VERTEX
  5
71
  8
0
 10
296.568507809219
 20
188.44043923732841
 30
0.0
 42
-0.0785039226056693
  0
VERTEX
  5
72
  8
0
 10
295.19188875428119
 20
185.3552277383981
 30
0.0
 42
-0.1071725458326262
 70
     2
 50
303.0238675557967
  0
VERTEX
  5
73
  8
0
 10
292.92029294737449
 20
183.1040168378448
 30
0.0
 42
-0.1427991817419167
  0
VERTEX
  5
74
  8
0
 10
290.5956946765686
 20
182.4262955502636
 30
0.0
 42
-0.1427991817419139
  0
SEQEND
  5
75
  8
0
  0
POLYLINE
  5
76
  8
2
 66
     1
 10
0.0
 20
0.0
 30
0.0
  0
VERTEX
  5
77
  8
2
 10
284.0956946765686
 20
192.4262955502636
 30
0.0
 42
0.065845472207122
  0
VERTEX
  5
78
  8
2
 10
284.62288154391831
 20
188.44043923732841
 30
0.0
 42
0.0785039226056693
  0
VERTEX
  5
79
  8
2
 10
285.99950059885612
 20
185.3552277383981
 30
0.0
 42
0.1071725458326262
 70
     2
 50
303.0238675557967
  0
VERTEX
  5
7A
  8
2
 10
288.27109640576282
 20
183.1040168378448
 30
0.0
 42
0.1427991817419167
  0
VERTEX
  5
7B
  8
2
 10
290.5956946765686
 20
182.4262955502636
 30
0.0
 42
0.1427991817419139
  0
SEQEND
  5
7C
  8
2
  0
LINE
  5
7D
  8
1
 10
130.59569467656871
 20
207.4262955502636
 30
0.0
 11
130.59569467656871
 21
177.4262955502636
 31
0.0
  0
LINE
  5
7E
  8
1
 10
290.5956946765686
 20
207.4262955502636
 30
0.0
 11
290.5956946765686
 21
177.4262955502636
 31
0.0
  0
LINE
  5
7F
  8
0
 10
80.435737999884225
 20
89.659403039732766
 30
0.0
 11
60.435737999884218
 21
89.659403039732766
 31
0.0
  0
LINE
  5
80
  8
0
 10
80.435737999884225
 20
133.1594030397325
 30
0.0
 11
80.435737999884225
 21
89.659403039732766
 31
0.0
  0
LINE
  5
81
  8
0
 10
60.435737999884218
 20
133.15940303973261
 30
0.0
 11
60.435737999884218
 21
89.659403039732766
 31
0.0
  0
LINE
  5
82
  8
1
 10
70.435737999884225
 20
144.6594030397325
 30
0.0
 11
70.435737999884225
 21
84.659403039732766
 31
0.0
  0
POLYLINE
  5
83
  8
0
 66
     1
 10
0.0
 20
0.0
 30
0.0
  0
VERTEX
  5
84
  8
0
 10
80.435737999884225
 20
133.1594030397325
 30
0.0
 42
0.1427991817419204
  0
VERTEX
  5
85
  8
0
 10
79.758016712303004
 20
135.4840013105385
 30
0.0
 42
0.1071725458326189
  0
VERTEX
  5
86
  8
0
 10
77.5068058117497
 20
137.75559711744501
 30
0.0
 42
0.0785039226056731
 70
     2
 50
146.9761324442033
  0
VERTEX
  5
87
  8
0
 10
74.421594312819195
 20
139.1322161723829
 30
0.0
 42
0.0658454722071185
 50
146.9761324442033
  0
VERTEX
  5
88
  8
0
 10
70.435737999884225
 20
139.6594030397325
 30
0.0
 42
0.065845472207133
  0
VERTEX
  5
89
  8
0
 10
66.449881686948828
 20
139.1322161723827
 30
0.0
 42
0.0785039226056717
  0
VERTEX
  5
8A
  8
0
 10
63.364670188018749
 20
137.75559711744501
 30
0.0
 42
0.1071725458326276
 70
     2
 50
213.02386755579661
  0
VERTEX
  5
8B
  8
0
 10
61.113459287465389
 20
135.4840013105383
 30
0.0
 42
0.1427991817419166
 50
213.02386755579661
  0
VERTEX
  5
8C
  8
0
 10
60.435737999884218
 20
133.15940303973261
 30
0.0
 42
0.1427991817419185
  0
SEQEND
  5
8D
  8
0
  0
POLYLINE
  5
8E
  8
2
 66
     1
 10
0.0
 20
0.0
 30
0.0
  0
VERTEX
  5
8F
  8
2
 10
80.435737999884225
 20
133.15940303973261
 30
0.0
 42
-0.1427991817419204
  0
VERTEX
  5
90
  8
2
 10
79.758016712303004
 20
130.8348047689266
 30
0.0
 42
-0.1071725458326189
  0
VERTEX
  5
91
  8
2
 10
77.5068058117497
 20
128.56320896202001
 30
0.0
 42
-0.0785039226056731
 70
     2
 50
146.9761324442033
  0
VERTEX
  5
92
  8
2
 10
74.421594312819195
 20
127.18658990708219
 30
0.0
 42
-0.0658454722071185
  0
VERTEX
  5
93
  8
2
 10
70.435737999884225
 20
126.6594030397326
 30
0.0
 42
-0.065845472207133
  0
VERTEX
  5
94
  8
2
 10
66.449881686948828
 20
127.18658990708229
 30
0.0
 42
-0.0785039226056717
  0
VERTEX
  5
95
  8
2
 10
63.364670188018749
 20
128.56320896202001
 30
0.0
 42
-0.1071725458326276
 70
     2
 50
213.02386755579661
  0
VERTEX
  5
96
  8
2
 10
61.113459287465389
 20
130.83480476892669
 30
0.0
 42
-0.1427991817419166
  0
VERTEX
  5
97
  8
2
 10
60.435737999884218
 20
133.1594030397325
 30
0.0
 42
-0.1427991817419185
  0
SEQEND
  5
98
  8
2
  0
LINE
  5
99
  8
1
 10
154.5956946765686
 20
133.15940303973261
 30
0.0
 11
266.59569467656848
 21
133.15940303973269
 31
0.0
  0
ARC
  5
9A
  8
1
 10
154.5956946765686
 20
109.1594030397326
 30
0.0
 40
24.0
 50
90.000000000000071
 51
180.0
  0
LINE
  5
9B
  8
1
 10
130.59569467656871
 20
84.659403039732695
 30
0.0
 11
130.59569467656871
 21
109.1594030397326
 31
0.0
  0
ARC
  5
9C
  8
1
 10
266.59569467656871
 20
109.15940303973269
 30
0.0
 40
24.0
 50
0.0
 51
90.000000000000171
  0
LINE
  5
9D
  8
1
 10
290.5956946765686
 20
109.15940303973269
 30
0.0
 11
290.5956946765686
 21
84.659403039732709
 31
0.0
  0
LINE
  5
AC
  8
2
 10
293.05419467656861
 20
90.659403039732695
 30
0.0
 11
288.13719467656853
 21
90.659403039732695
 31
0.0
  0
LINE
  5
AD
  8
2
 10
288.13719467656853
 20
90.659403039732695
 30
0.0
 11
287.13719467656853
 21
89.659403039732709
 31
0.0
  0
LINE
  5
AE
  8
2
 10
294.05419467656873
 20
89.659403039732709
 30
0.0
 11
293.05419467656861
 21
90.659403039732695
 31
0.0
  0
LINE
  5
AF
  8
2
 10
293.59569467656848
 20
101.65940303973269
 30
0.0
 11
293.0541946765685
 21
102.597308552031
 31
0.0
  0
LINE
  5
B0
  8
2
 10
287.59569467656848
 20
101.65940303973269
 30
0.0
 11
288.13719467656853
 21
102.597308552031
 31
0.0
  0
LINE
  5
B1
  8
2
 10
288.13719467656853
 20
105.65940303973269
 30
0.0
 11
290.5956946765686
 21
107.136618871612
 31
0.0
  0
LINE
  5
B2
  8
2
 10
293.05419467656861
 20
105.65940303973269
 30
0.0
 11
290.5956946765686
 21
107.136618871612
 31
0.0
  0
LINE
  5
B3
  8
2
 10
293.05419467656861
 20
105.65940303973269
 30
0.0
 11
288.13719467656853
 21
105.65940303973269
 31
0.0
  0
LINE
  5
B4
  8
2
 10
293.59569467656848
 20
101.65940303973269
 30
0.0
 11
287.59569467656848
 21
101.65940303973269
 31
0.0
  0
LINE
  5
B5
  8
2
 10
287.59569467656848
 20
90.117903039732781
 30
0.0
 11
287.59569467656848
 21
101.65940303973269
 31
0.0
  0
LINE
  5
B6
  8
2
 10
288.13719467656853
 20
90.659403039732695
 30
0.0
 11
288.13719467656853
 21
105.65940303973269
 31
0.0
  0
LINE
  5
B7
  8
2
 10
293.05419467656861
 20
90.659403039732695
 30
0.0
 11
293.05419467656861
 21
105.65940303973269
 31
0.0
  0
LINE
  5
B8
  8
2
 10
293.59569467656848
 20
90.117903039732781
 30
0.0
 11
293.59569467656848
 21
101.65940303973269
 31
0.0
  0
TEXT
  5
1D6
  8
0
 62
     3
 10
0.0
 20
0.0
 30
0.0
 40
10.0
  1
MH10-160BN
  7
STANDARD1
  0
ENDSEC
  0
EOF
