  0
SECTION
  2
HEADER
  9
$ACADVER
  1
AC1009
  9
$INSBASE
 10
0.0
 20
0.0
 30
0.0
  9
$EXTMIN
 10
0.0
 20
-2.960436562073669
 30
0.0
  9
$EXTMAX
 10
142.6153870354205
 20
155.04120882314561
 30
0.0
  9
$LIMMIN
 10
0.0
 20
0.0
  9
$LIMMAX
 10
187.5
 20
135.0
  9
$ORTHOMODE
 70
     1
  9
$REGENMODE
 70
     1
  9
$FILLMODE
 70
     1
  9
$QTEXTMODE
 70
     0
  9
$MIRRTEXT
 70
     0
  9
$DRAGMODE
 70
     2
  9
$LTSCALE
 40
5.0
  9
$OSMODE
 70
    37
  9
$ATTMODE
 70
     1
  9
$TEXTSIZE
 40
0.2
  9
$TRACEWID
 40
0.05
  9
$TEXTSTYLE
  7
STANDARD
  9
$CLAYER
  8
0
  9
$CELTYPE
  6
BYLAYER
  9
$CECOLOR
 62
   256
  9
$DIMSCALE
 40
0.5
  9
$DIMASZ
 40
3.0
  9
$DIMEXO
 40
2.0
  9
$DIMDLI
 40
0.38
  9
$DIMRND
 40
0.0
  9
$DIMDLE
 40
0.0
  9
$DIMEXE
 40
2.0
  9
$DIMTP
 40
0.0
  9
$DIMTM
 40
0.0
  9
$DIMTXT
 40
3.2000000000000002
  9
$DIMCEN
 40
0.0
  9
$DIMTSZ
 40
0.0
  9
$DIMTOL
 70
     0
  9
$DIMLIM
 70
     0
  9
$DIMTIH
 70
     0
  9
$DIMTOH
 70
     0
  9
$DIMSE1
 70
     0
  9
$DIMSE2
 70
     0
  9
$DIMTAD
 70
     1
  9
$DIMZIN
 70
     8
  9
$DIMBLK
  1

  9
$DIMASO
 70
     1
  9
$DIMSHO
 70
     0
  9
$DIMPOST
  1

  9
$DIMAPOST
  1

  9
$DIMALT
 70
     0
  9
$DIMALTD
 70
     2
  9
$DIMALTF
 40
25.399999999999999
  9
$DIMLFAC
 40
1.0
  9
$DIMTOFL
 70
     1
  9
$DIMTVP
 40
1.6000000000000001
  9
$DIMTIX
 70
     1
  9
$DIMSOXD
 70
     0
  9
$DIMSAH
 70
     0
  9
$DIMBLK1
  1

  9
$DIMBLK2
  1

  9
$DIMSTYLE
  2
STANDARD
  9
$DIMCLRD
 70
     0
  9
$DIMCLRE
 70
     0
  9
$DIMCLRT
 70
     0
  9
$DIMTFAC
 40
1.0
  9
$DIMGAP
 40
1.0
  9
$LUNITS
 70
     2
  9
$LUPREC
 70
     1
  9
$SKETCHINC
 40
0.1
  9
$FILLETRAD
 40
1.5
  9
$AUNITS
 70
     0
  9
$AUPREC
 70
     1
  9
$MENU
  1
E:\r13\win\SUPPORT\ACAD
  9
$ELEVATION
 40
0.0
  9
$PELEVATION
 40
0.0
  9
$THICKNESS
 40
0.0
  9
$LIMCHECK
 70
     0
  9
$BLIPMODE
 70
     0
  9
$CHAMFERA
 40
1.0
  9
$CHAMFERB
 40
1.0
  9
$SKPOLY
 70
     0
  9
$TDCREATE
 40
2449839.7895949078
  9
$TDUPDATE
 40
2458837.7112682061
  9
$TDINDWG
 40
0.4291333565
  9
$TDUSRTIMER
 40
0.4291333565
  9
$USRTIMER
 70
     1
  9
$ANGBASE
 50
0.0
  9
$ANGDIR
 70
     0
  9
$PDMODE
 70
     0
  9
$PDSIZE
 40
0.0
  9
$PLINEWID
 40
0.0
  9
$COORDS
 70
     1
  9
$SPLFRAME
 70
     0
  9
$SPLINETYPE
 70
     6
  9
$SPLINESEGS
 70
     8
  9
$ATTDIA
 70
     0
  9
$ATTREQ
 70
     1
  9
$HANDLING
 70
     1
  9
$HANDSEED
  5
E369
  9
$SURFTAB1
 70
     6
  9
$SURFTAB2
 70
     6
  9
$SURFTYPE
 70
     6
  9
$SURFU
 70
     6
  9
$SURFV
 70
     6
  9
$UCSNAME
  2

  9
$UCSORG
 10
0.0
 20
0.0
 30
0.0
  9
$UCSXDIR
 10
1.0
 20
0.0
 30
0.0
  9
$UCSYDIR
 10
0.0
 20
1.0
 30
0.0
  9
$PUCSNAME
  2

  9
$PUCSORG
 10
0.0
 20
0.0
 30
0.0
  9
$PUCSXDIR
 10
1.0
 20
0.0
 30
0.0
  9
$PUCSYDIR
 10
0.0
 20
1.0
 30
0.0
  9
$USERI1
 70
     0
  9
$USERI2
 70
     1
  9
$USERI3
 70
     1
  9
$USERI4
 70
     0
  9
$USERI5
 70
     0
  9
$USERR1
 40
0.0
  9
$USERR2
 40
0.0
  9
$USERR3
 40
0.0
  9
$USERR4
 40
0.0
  9
$USERR5
 40
0.0
  9
$WORLDVIEW
 70
     1
  9
$SHADEDGE
 70
     3
  9
$SHADEDIF
 70
    70
  9
$TILEMODE
 70
     1
  9
$MAXACTVP
 70
    16
  9
$PLIMCHECK
 70
     0
  9
$PEXTMIN
 10
1.0000000000000000E+020
 20
1.0000000000000000E+020
 30
1.0000000000000000E+020
  9
$PEXTMAX
 10
-1.0000000000000000E+020
 20
-1.0000000000000000E+020
 30
-1.0000000000000000E+020
  9
$PLIMMIN
 10
0.0
 20
0.0
  9
$PLIMMAX
 10
12.0
 20
9.0
  9
$UNITMODE
 70
     0
  9
$VISRETAIN
 70
     0
  9
$PLINEGEN
 70
     0
  9
$PSLTSCALE
 70
     0
  0
ENDSEC
  0
SECTION
  2
TABLES
  0
TABLE
  2
VPORT
 70
     1
  0
VPORT
  2
*ACTIVE
 70
     0
 10
0.0
 20
0.0
 11
1.0
 21
1.0
 12
233.0329600167068
 22
100.0
 13
0.0
 23
0.0
 14
5.0
 24
5.0
 15
5.0
 25
5.0
 16
0.0
 26
0.0
 36
1.0
 17
0.0
 27
0.0
 37
0.0
 40
192.9633937017052
 41
2.415644171779141
 42
50.0
 43
0.0
 44
0.0
 50
0.0
 51
0.0
 71
     0
 72
   500
 73
     1
 74
     0
 75
     0
 76
     0
 77
     0
 78
     2
  0
ENDTAB
  0
TABLE
  2
LTYPE
 70
     4
  0
LTYPE
  2
CONTINUOUS
 70
     0
  3
Solid Line
 72
    65
 73
     0
 40
0.0
  0
LTYPE
  2
CENTER
 70
     0
  3
____ _ ____ _ ____ _ ____ _ ____ _ ____ _ ____
 72
    65
 73
     4
 40
2.0
 49
1.25
 49
-0.25
 49
0.25
 49
-0.25
  0
LTYPE
  2
HIDDEN
 70
     0
  3
_ _ _ _ _ _ _ _ _ _ _ _ _ _ _ _ _ _ _ _ _ _ _
 72
    65
 73
     2
 40
0.375
 49
0.25
 49
-0.125
  0
LTYPE
  2
PHANTOM2
 70
     0
  3
___ _ _ ___ _ _ ___ _ _ ___ _ _
 72
    65
 73
     6
 40
1.25
 49
0.625
 49
-0.125
 49
0.125
 49
-0.125
 49
0.125
 49
-0.125
  0
ENDTAB
  0
TABLE
  2
LAYER
 70
     4
  0
LAYER
  2
0
 70
     0
 62
     7
  6
CONTINUOUS
  0
LAYER
  2
1
 70
     0
 62
     1
  6
CENTER
  0
LAYER
  2
2
 70
     0
 62
     2
  6
HIDDEN
  0
LAYER
  2
DEFPOINTS
 70
     0
 62
     7
  6
CONTINUOUS
  0
ENDTAB
  0
TABLE
  2
STYLE
 70
     2
  0
STYLE
  2
STANDARD
 70
     0
 40
0.0
 41
1.0
 50
0.0
 71
     0
 42
0.2
  3
TXT
  4
BIGFONT
  0
STYLE
  2
STANDARD1
 70
     0
 40
0.0
 41
1.0
 50
0.0
 71
     0
 42
3.0
  3
txt
  4

  0
ENDTAB
  0
TABLE
  2
VIEW
 70
     2
  0
VIEW
  2
ALL
 70
     0
 40
135.0
 10
110.4957983193277
 20
67.5
 41
0.0
 11
0.0
 21
0.0
 31
1.0
 12
0.0
 22
0.0
 32
0.0
 42
0.0
 43
0.0
 44
0.0
 50
0.0
 71
     0
  0
VIEW
  2
OLE1
 70
     0
 40
167.61635794673921
 10
902.4035316351866
 20
-84.898870369570844
 41
190.6608896488849
 11
0.0
 21
0.0
 31
1.0
 12
0.0
 22
0.0
 32
0.0
 42
50.0
 43
0.0
 44
0.0
 50
0.0
 71
     0
  0
ENDTAB
  0
TABLE
  2
UCS
 70
     0
  0
ENDTAB
  0
TABLE
  2
APPID
 70
    42
  0
APPID
  2
ACAD
 70
     0
  0
APPID
  2
GENIUS_GENODEF_13
 70
     0
  0
APPID
  2
GENIUS_GENFIL_13
 70
     0
  0
APPID
  2
GENIUS_GENOBJ-N-CHA_13
 70
     0
  0
APPID
  2
ACAD_MLEADERVER
 70
     0
  0
APPID
  2
ACAD_EXEMPT_FROM_CAD_STANDARDS
 70
     0
  0
APPID
  2
ACAD_DSTYLE_DIMRADIAL_EXTENSION
 70
     0
  0
APPID
  2
ACAD_DSTYLE_DIMJAG
 70
     0
  0
APPID
  2
ACAD_DSTYLE_DIMTALN
 70
     0
  0
APPID
  2
ACAD_NAV_VCDISPLAY
 70
     0
  0
APPID
  2
GENIUS_GENOREF_13
 70
     0
  0
APPID
  2
DCO15
 70
     0
  0
APPID
  2
GENIUS_GENOENT_13
 70
     0
  0
APPID
  2
GENIUS_GENBH_13
 70
     0
  0
APPID
  2
GENIUS_GENOBJ_13
 70
     0
  0
APPID
  2
GENIUS_GENOLIS_13
 70
     0
  0
APPID
  2
GENIUS_GENOBJ-NBEHI-BHF_13
 70
     0
  0
APPID
  2
GENIUS_GENOBJ-NBEHI-BHB_13
 70
     0
  0
APPID
  2
GENIUS_GENOBJ-F-PART_13
 70
     0
  0
APPID
  2
GENIUS_GEFSTDP_13
 70
     0
  0
APPID
  2
GENIUS_GENOBJ-N-RSSYM_13
 70
     0
  0
APPID
  2
GENIUS_GENSYMENT_13
 70
     0
  0
APPID
  2
GENIUS_GENOBJ-N-TIT_13
 70
     0
  0
APPID
  2
GENIUS_GENTITLE_13
 70
     0
  0
APPID
  2
GENIUS_GENZVEED_13
 70
     0
  0
APPID
  2
GENIUS_GENOBJ-N-LEADER_13
 70
     0
  0
APPID
  2
GENIUS_GENOBJ-N-FIL_13
 70
     0
  0
APPID
  2
GENIUS_GENOBJ-N-SEC_13
 70
     0
  0
APPID
  2
GENIUS_GENOBJ-N-CRS_13
 70
     0
  0
APPID
  2
GENIUS_GENOBJ-N-ZOO_13
 70
     0
  0
APPID
  2
GENIUS_GENZOO_13
 70
     0
  0
APPID
  2
GENIUS_GENOBJ-F-TOL_13
 70
     0
  0
APPID
  2
_CALL_MAC$
 70
     0
  0
APPID
  2
ASM_BASE
 70
     0
  0
APPID
  2
ASM_EXPLO_VER_2_00
 70
     0
  0
APPID
  2
ASM_CADM_VER_12_00
 70
     0
  0
APPID
  2
ASM_BASEFORO
 70
     0
  0
APPID
  2
ASM_BASETRAVI
 70
     0
  0
APPID
  2
ASM_BASETRAVI1
 70
     0
  0
APPID
  2
ASM_GRUPPI
 70
     0
  0
APPID
  2
ASM_CADM_ALBERO
 70
     0
  0
APPID
  2
ASM_GOLE
 70
     0
  0
ENDTAB
  0
TABLE
  2
DIMSTYLE
 70
     1
  0
DIMSTYLE
  2
STANDARD
 70
     0
  3

  4

  5

  6

  7

 40
1.0
 41
0.18
 42
0.0625
 43
0.38
 44
0.18
 45
0.0
 46
0.0
 47
0.0
 48
0.0
140
0.18
141
0.09
142
0.0
143
25.399999999999999
144
1.0
145
0.0
146
1.0
147
0.09
 71
     0
 72
     0
 73
     1
 74
     1
 75
     0
 76
     0
 77
     0
 78
     0
170
     0
171
     2
172
     0
173
     0
174
     0
175
     0
176
     0
177
     0
178
     0
  0
ENDTAB
  0
ENDSEC
  0
SECTION
  2
BLOCKS
  0
BLOCK
  8
0
  2
$MODEL_SPACE
 70
     0
 10
0.0
 20
0.0
 30
0.0
  3
$MODEL_SPACE
  1

  0
ENDBLK
  5
3C9
  8
0
  0
BLOCK
 67
     1
  8
0
  2
$PAPER_SPACE
 70
     0
 10
0.0
 20
0.0
 30
0.0
  3
$PAPER_SPACE
  1

  0
ENDBLK
  5
3C7
 67
     1
  8
0
  0
ENDSEC
  0
SECTION
  2
ENTITIES
  0
TEXT
  5
BE37
  8
0
 62
     3
 10
0.0
 20
0.0
 30
0.0
 40
10.0
  1
MD-TRIK50M10
  7
STANDARD1
  0
LINE
  5
DBBA
  8
2
 10
117.5153870354205
 20
130.23371282056871
 30
0.0
 11
119.9333299627867
 21
126.0457128205688
 31
0.0
  0
LINE
  5
DBBB
  8
2
 10
119.9333299627867
 20
134.4217128205687
 30
0.0
 11
117.5153870354205
 21
130.23371282056871
 31
0.0
  0
LINE
  5
DBBC
  8
2
 10
119.9333299627867
 20
126.0457128205688
 30
0.0
 11
119.9333299627867
 21
134.4217128205687
 31
0.0
  0
LINE
  5
DBBD
  8
2
 10
138.80338703542051
 20
134.4217128205687
 30
0.0
 11
119.9333299627867
 21
134.4217128205687
 31
0.0
  0
LINE
  5
DBBE
  8
2
 10
119.9333299627867
 20
126.0457128205688
 30
0.0
 11
138.80338703542051
 21
126.0457128205687
 31
0.0
  0
LINE
  5
DBBF
  8
2
 10
138.80338703542051
 20
126.0457128205687
 30
0.0
 11
138.80338703542051
 21
134.4217128205687
 31
0.0
  0
LINE
  5
DBC0
  8
2
 10
138.80338703542051
 20
126.0457128205687
 30
0.0
 11
139.6153870354205
 21
125.2337128205687
 31
0.0
  0
LINE
  5
DBC1
  8
2
 10
139.6153870354205
 20
135.23371282056871
 30
0.0
 11
138.80338703542051
 21
134.4217128205687
 31
0.0
  0
LINE
  5
DBCB
  8
2
 10
139.6153870354205
 20
125.2337128205687
 30
0.0
 11
122.6153870354205
 21
125.2337128205687
 31
0.0
  0
LINE
  5
DBCC
  8
2
 10
120.91538703542049
 20
126.0457128205688
 30
0.0
 11
122.6153870354205
 21
125.2337128205687
 31
0.0
  0
LINE
  5
DBCD
  8
2
 10
122.6153870354205
 20
125.2337128205687
 30
0.0
 11
122.6153870354205
 21
135.23371282056871
 31
0.0
  0
LINE
  5
DBCE
  8
2
 10
139.6153870354205
 20
135.23371282056871
 30
0.0
 11
122.6153870354205
 21
135.23371282056871
 31
0.0
  0
LINE
  5
DBCF
  8
2
 10
120.91538703542049
 20
134.4217128205687
 30
0.0
 11
122.6153870354205
 21
135.23371282056871
 31
0.0
  0
LINE
  5
DBD0
  8
1
 10
142.6153870354205
 20
130.23371282056871
 30
0.0
 11
106.6153870354205
 21
130.23371282056871
 31
0.0
  0
POLYLINE
  5
DBD1
  8
0
 66
     1
 10
0.0
 20
0.0
 30
0.0
  0
VERTEX
  5
E1A8
  8
0
 10
118.27935461795791
 20
106.2773144162522
 30
0.0
  0
VERTEX
  5
E1A9
  8
0
 10
118.53338731117999
 20
106.0677949934045
 30
0.0
  0
VERTEX
  5
E1AA
  8
0
 10
118.8019874939549
 20
105.88958908963571
 30
0.0
  0
VERTEX
  5
E1AB
  8
0
 10
119.0907088442119
 20
105.73904845045379
 30
0.0
  0
VERTEX
  5
E1AC
  8
0
 10
119.39478706075001
 20
105.6194573134003
 30
0.0
  0
VERTEX
  5
E1AD
  8
0
 10
119.63317987619691
 20
105.5498321628522
 30
0.0
  0
VERTEX
  5
E1AE
  8
0
 10
119.8856104744288
 20
105.4962306435459
 30
0.0
  0
VERTEX
  5
E1AF
  8
0
 10
120.15631387689319
 20
105.4584187330848
 30
0.0
  0
VERTEX
  5
E1B0
  8
0
 10
120.3047851036894
 20
105.4449137601616
 30
0.0
  0
VERTEX
  5
E1B1
  8
0
 10
120.462904876384
 20
105.435115389505
 30
0.0
  0
VERTEX
  5
E1B2
  8
0
 10
120.60602061418849
 20
105.4296138826208
 30
0.0
  0
VERTEX
  5
E1B3
  8
0
 10
120.7606669301932
 20
105.4265863447422
 30
0.0
  0
VERTEX
  5
E1B4
  8
0
 10
121.02330373171419
 20
105.4273196701722
 30
0.0
  0
VERTEX
  5
E1B5
  8
0
 10
121.18377050654109
 20
105.4315375804005
 30
0.0
  0
VERTEX
  5
E1B6
  8
0
 10
121.338703263456
 20
105.43897236253559
 30
0.0
  0
VERTEX
  5
E1B7
  8
0
 10
121.5280785132904
 20
105.4537072569906
 30
0.0
  0
VERTEX
  5
E1B8
  8
0
 10
121.70461939368521
 20
105.47429336754659
 30
0.0
  0
VERTEX
  5
E1B9
  8
0
 10
122.0394809059963
 20
105.5357585083851
 30
0.0
  0
VERTEX
  5
E1BA
  8
0
 10
122.37724130664139
 20
105.6335158896259
 30
0.0
  0
VERTEX
  5
E1BB
  8
0
 10
122.69486540976909
 20
105.7646931951377
 30
0.0
  0
VERTEX
  5
E1BC
  8
0
 10
123.0034112284297
 20
105.93510481766999
 30
0.0
  0
VERTEX
  5
E1BD
  8
0
 10
123.2948225312927
 20
106.1429814695335
 30
0.0
  0
VERTEX
  5
E1BE
  8
0
 10
123.5220782267981
 20
106.3439502264313
 30
0.0
  0
VERTEX
  5
E1BF
  8
0
 10
123.73544630407601
 20
106.5717738731053
 30
0.0
  0
VERTEX
  5
E1C0
  8
0
 10
123.92894869550631
 20
106.82105474709429
 30
0.0
  0
SEQEND
  5
E1C1
  8
0
  0
POLYLINE
  5
DBD5
  8
0
 66
     1
 10
0.0
 20
0.0
 30
0.0
  0
VERTEX
  5
E1C2
  8
0
 10
123.92894869550631
 20
106.82105474709429
 30
0.0
  0
VERTEX
  5
E1C3
  8
0
 10
123.93781066490391
 20
106.8336813179063
 30
0.0
  0
VERTEX
  5
E1C4
  8
0
 10
124.12096484872831
 20
107.124404269469
 30
0.0
  0
VERTEX
  5
E1C5
  8
0
 10
124.3393132364918
 20
107.58059566298959
 30
0.0
  0
SEQEND
  5
E1C6
  8
0
  0
LINE
  5
DBD6
  8
0
 10
124.6153870354205
 20
109.0547481549397
 30
0.0
 11
124.6153870354205
 21
151.41267748619771
 31
0.0
  0
POLYLINE
  5
DBD7
  8
0
 66
     1
 10
0.0
 20
0.0
 30
0.0
  0
VERTEX
  5
E1C7
  8
0
 10
124.33931323649119
 20
152.88682997814959
 30
0.0
  0
VERTEX
  5
E1C8
  8
0
 10
124.1767815525975
 20
153.24048428812571
 30
0.0
  0
VERTEX
  5
E1C9
  8
0
 10
123.98703044948491
 20
153.56149676936829
 30
0.0
  0
VERTEX
  5
E1CA
  8
0
 10
123.9297787154163
 20
153.6451945814419
 30
0.0
  0
SEQEND
  5
E1CB
  8
0
  0
POLYLINE
  5
DBDB
  8
0
 66
     1
 10
0.0
 20
0.0
 30
0.0
  0
VERTEX
  5
E1CC
  8
0
 10
123.9297787154163
 20
153.6451945814419
 30
0.0
  0
VERTEX
  5
E1CD
  8
0
 10
123.7654750098782
 20
153.85992916381429
 30
0.0
  0
VERTEX
  5
E1CE
  8
0
 10
123.5228477776636
 20
154.12272944633941
 30
0.0
  0
VERTEX
  5
E1CF
  8
0
 10
123.2402406502578
 20
154.36731223734449
 30
0.0
  0
VERTEX
  5
E1D0
  8
0
 10
122.93880039809019
 20
154.57189482987769
 30
0.0
  0
VERTEX
  5
E1D1
  8
0
 10
122.61049046996411
 20
154.74168269083961
 30
0.0
  0
VERTEX
  5
E1D2
  8
0
 10
122.2619858045615
 20
154.87170884253811
 30
0.0
  0
VERTEX
  5
E1D3
  8
0
 10
122.0297594375693
 20
154.93391651528441
 30
0.0
  0
VERTEX
  5
E1D4
  8
0
 10
121.7833845217958
 20
154.98148588366271
 30
0.0
  0
VERTEX
  5
E1D5
  8
0
 10
121.51829958310761
 20
155.01465759891499
 30
0.0
  0
VERTEX
  5
E1D6
  8
0
 10
121.3719935850994
 20
155.02634461084801
 30
0.0
  0
VERTEX
  5
E1D7
  8
0
 10
121.2161285212086
 20
155.0346328679334
 30
0.0
  0
VERTEX
  5
E1D8
  8
0
 10
121.0768753078638
 20
155.03904680383019
 30
0.0
  0
VERTEX
  5
E1D9
  8
0
 10
120.9273272977415
 20
155.04120882314561
 30
0.0
  0
VERTEX
  5
E1DA
  8
0
 10
120.7789525483103
 20
155.04102085877719
 30
0.0
  0
VERTEX
  5
E1DB
  8
0
 10
120.62812998566601
 20
155.03841703073729
 30
0.0
  0
VERTEX
  5
E1DC
  8
0
 10
120.4476023688954
 20
155.03154537005409
 30
0.0
  0
VERTEX
  5
E1DD
  8
0
 10
120.27582757878299
 20
155.0202341659392
 30
0.0
  0
VERTEX
  5
E1DE
  8
0
 10
120.0339898464316
 20
154.99420790723099
 30
0.0
  0
VERTEX
  5
E1DF
  8
0
 10
119.8100223292856
 20
154.95714855703969
 30
0.0
  0
VERTEX
  5
E1E0
  8
0
 10
119.3860153008593
 20
154.84502180082811
 30
0.0
  0
VERTEX
  5
E1E1
  8
0
 10
119.0906855157922
 20
154.72836394740091
 30
0.0
  0
VERTEX
  5
E1E2
  8
0
 10
118.8098449575656
 20
154.5824630024222
 30
0.0
  0
VERTEX
  5
E1E3
  8
0
 10
118.53711307920059
 20
154.40238699826619
 30
0.0
  0
VERTEX
  5
E1E4
  8
0
 10
118.27935461795801
 20
154.1901112248855
 30
0.0
  0
SEQEND
  5
E1E5
  8
0
  0
LINE
  5
DBDC
  8
0
 10
139.6153870354205
 20
122.9837128205687
 30
0.0
 11
139.6153870354205
 21
137.48371282056871
 31
0.0
  0
LINE
  5
DBDD
  8
0
 10
139.6153870354205
 20
137.48371282056871
 30
0.0
 11
139.31538703542051
 21
137.48371282056871
 31
0.0
  0
LINE
  5
DBDE
  8
0
 10
139.31538703542051
 20
122.9837128205687
 30
0.0
 11
139.6153870354205
 21
122.9837128205687
 31
0.0
  0
ARC
  5
DBE0
  8
0
 10
144.13967879258331
 20
133.4248634318314
 30
0.0
 40
37.49999999999946
 50
213.64212190155749
 51
225.1804982793366
  0
POLYLINE
  5
DBE1
  8
0
 66
     1
 10
0.0
 20
0.0
 30
0.0
  0
VERTEX
  5
E1E6
  8
0
 10
117.70684059789809
 20
106.8249561956482
 30
0.0
  0
VERTEX
  5
E1E7
  8
0
 10
117.9680754289391
 20
106.5695370346923
 30
0.0
  0
VERTEX
  5
E1E8
  8
0
 10
118.27935461795791
 20
106.277314416252
 30
0.0
  0
SEQEND
  5
E1E9
  8
0
  0
POLYLINE
  5
DBE2
  8
0
 66
     1
 10
0.0
 20
0.0
 30
0.0
  0
VERTEX
  5
E1EA
  8
0
 10
118.27935461795801
 20
154.1901112248855
 30
0.0
  0
VERTEX
  5
E1EB
  8
0
 10
117.97854097573109
 20
153.90793787284349
 30
0.0
  0
VERTEX
  5
E1EC
  8
0
 10
117.70760473282991
 20
153.6432287592192
 30
0.0
  0
SEQEND
  5
E1ED
  8
0
  0
ARC
  5
DBE3
  8
0
 10
144.139678792583
 20
127.0425622093062
 30
0.0
 40
37.499999999999041
 50
134.81785580959789
 51
146.3578780984424
  0
LINE
  5
DBE5
  8
0
 10
138.68205370208719
 20
139.73371282056871
 30
0.0
 11
126.5153870354205
 21
139.73371282056871
 31
0.0
  0
LINE
  5
DBE6
  8
0
 10
126.5153870354205
 20
120.7337128205687
 30
0.0
 11
138.68205370208719
 21
120.7337128205687
 31
0.0
  0
LINE
  5
DBE7
  8
0
 10
138.68205370208719
 20
120.7337128205687
 30
0.0
 11
138.68205370208719
 21
139.73371282056871
 31
0.0
  0
LINE
  5
DBE8
  8
0
 10
139.31538703542051
 20
121.367046153902
 30
0.0
 11
139.31538703542051
 21
139.10037948723539
 31
0.0
  0
LINE
  5
DBE9
  8
0
 10
139.31538703542051
 20
139.10037948723539
 30
0.0
 11
138.68205370208719
 21
139.73371282056871
 31
0.0
  0
LINE
  5
DBEA
  8
0
 10
138.68205370208719
 20
120.7337128205687
 30
0.0
 11
139.31538703542051
 21
121.367046153902
 31
0.0
  0
ARC
  5
DBEC
  8
0
 10
126.5153870354205
 20
141.63371282056869
 30
0.0
 40
1.899999999999995
 50
180.0
 51
270.0
  0
ARC
  5
DBED
  8
0
 10
126.5153870354205
 20
118.83371282056871
 30
0.0
 40
1.899999999999993
 50
90.0
 51
180.0
  0
ARC
  5
DBEE
  8
0
 10
159.61538703542061
 20
130.23371282056871
 30
0.0
 40
50.000000000000099
 50
160.41072978540871
 51
199.58927021459121
  0
ARC
  5
DBF1
  8
0
 10
116.0423251810208
 20
145.74018826254411
 30
0.0
 40
3.7500000000007301
 50
146.3578780984457
 51
160.4107297854051
  0
ARC
  5
DBF2
  8
0
 10
116.0423251810206
 20
114.7272373785933
 30
0.0
 40
3.750000000000524
 50
199.58927021459121
 51
213.64212190155419
  0
POLYLINE
  5
DBF4
  8
0
 66
     1
 10
0.0
 20
0.0
 30
0.0
  0
VERTEX
  5
E1EE
  8
0
 10
112.9203970019575
 20
114.3901914745155
 30
0.0
  0
VERTEX
  5
E1EF
  8
0
 10
112.87959732890489
 20
114.7392171685746
 30
0.0
  0
VERTEX
  5
E1F0
  8
0
 10
112.86610859076249
 20
115.0750522154204
 30
0.0
  0
VERTEX
  5
E1F1
  8
0
 10
112.8792695741917
 20
115.39825553701441
 30
0.0
  0
VERTEX
  5
E1F2
  8
0
 10
112.9203970019575
 20
115.70630023455671
 30
0.0
  0
SEQEND
  5
E1F3
  8
0
  0
POLYLINE
  5
DBF5
  8
0
 66
     1
 10
0.0
 20
0.0
 30
0.0
  0
VERTEX
  5
E1F4
  8
0
 10
117.70684059790121
 20
106.8249561956451
 30
0.0
  0
VERTEX
  5
E1F5
  8
0
 10
116.97621525736319
 20
107.5805956629878
 30
0.0
  0
VERTEX
  5
E1F6
  8
0
 10
116.3259345844646
 20
108.3029856535299
 30
0.0
  0
VERTEX
  5
E1F7
  8
0
 10
115.7182422842515
 20
109.0306317653002
 30
0.0
  0
VERTEX
  5
E1F8
  8
0
 10
115.1579197671537
 20
109.7588204241334
 30
0.0
  0
VERTEX
  5
E1F9
  8
0
 10
114.6311335754994
 20
110.51064843725641
 30
0.0
  0
VERTEX
  5
E1FA
  8
0
 10
114.16319208079661
 20
111.2556234273722
 30
0.0
  0
VERTEX
  5
E1FB
  8
0
 10
113.7601922582331
 20
111.98662551278861
 30
0.0
  0
VERTEX
  5
E1FC
  8
0
 10
113.46342313247411
 20
112.6134797785809
 30
0.0
  0
VERTEX
  5
E1FD
  8
0
 10
113.22327234110131
 20
113.22192669555911
 30
0.0
  0
VERTEX
  5
E1FE
  8
0
 10
113.0396252004893
 20
113.8198912235505
 30
0.0
  0
VERTEX
  5
E1FF
  8
0
 10
112.9203970019575
 20
114.3901914745155
 30
0.0
  0
SEQEND
  5
E200
  8
0
  0
POLYLINE
  5
DBF7
  8
0
 66
     1
 10
0.0
 20
0.0
 30
0.0
  0
VERTEX
  5
E201
  8
0
 10
124.6153870354205
 20
109.0547481549397
 30
0.0
  0
VERTEX
  5
E202
  8
0
 10
124.6000755756818
 20
108.6941136573713
 30
0.0
  0
VERTEX
  5
E203
  8
0
 10
124.5519149693642
 20
108.3282162955104
 30
0.0
  0
VERTEX
  5
E204
  8
0
 10
124.4661129102351
 20
107.9545279727232
 30
0.0
  0
VERTEX
  5
E205
  8
0
 10
124.3393132364987
 20
107.5805956629878
 30
0.0
  0
SEQEND
  5
E206
  8
0
  0
POLYLINE
  5
DBF8
  8
0
 66
     1
 10
0.0
 20
0.0
 30
0.0
  0
VERTEX
  5
E207
  8
0
 10
124.33931323649119
 20
152.88682997814959
 30
0.0
  0
VERTEX
  5
E208
  8
0
 10
124.46249879314441
 20
152.52561821367581
 30
0.0
  0
VERTEX
  5
E209
  8
0
 10
124.5483370541143
 20
152.15894512324911
 30
0.0
  0
VERTEX
  5
E20A
  8
0
 10
124.5990407106554
 20
151.7851810424811
 30
0.0
  0
VERTEX
  5
E20B
  8
0
 10
124.6153870354205
 20
151.41267748619771
 30
0.0
  0
SEQEND
  5
E20C
  8
0
  0
POLYLINE
  5
DBFA
  8
0
 66
     1
 10
0.0
 20
0.0
 30
0.0
  0
VERTEX
  5
E20D
  8
0
 10
112.9203970019575
 20
146.07723416662191
 30
0.0
  0
VERTEX
  5
E20E
  8
0
 10
113.0086187148181
 20
146.52287965874191
 30
0.0
  0
VERTEX
  5
E20F
  8
0
 10
113.1370059875717
 20
146.9865569889559
 30
0.0
  0
VERTEX
  5
E210
  8
0
 10
113.3042478394801
 20
147.4654305767304
 30
0.0
  0
VERTEX
  5
E211
  8
0
 10
113.516324978706
 20
147.97343326119091
 30
0.0
  0
VERTEX
  5
E212
  8
0
 10
113.76695343662669
 20
148.49391327195551
 30
0.0
  0
VERTEX
  5
E213
  8
0
 10
114.05392502648751
 20
149.02378193155349
 30
0.0
  0
VERTEX
  5
E214
  8
0
 10
114.4318859527921
 20
149.650374407275
 30
0.0
  0
VERTEX
  5
E215
  8
0
 10
114.8542198159528
 20
150.28456118701209
 30
0.0
  0
VERTEX
  5
E216
  8
0
 10
115.31725550536351
 20
150.92221651799181
 30
0.0
  0
VERTEX
  5
E217
  8
0
 10
115.83350588506519
 20
151.57931828369919
 30
0.0
  0
VERTEX
  5
E218
  8
0
 10
116.3876511890041
 20
152.23532422778581
 30
0.0
  0
VERTEX
  5
E219
  8
0
 10
116.97621525736319
 20
152.88682997814971
 30
0.0
  0
VERTEX
  5
E21A
  8
0
 10
117.70760473282959
 20
153.6432287592188
 30
0.0
  0
SEQEND
  5
E21B
  8
0
  0
POLYLINE
  5
DBFB
  8
0
 66
     1
 10
0.0
 20
0.0
 30
0.0
  0
VERTEX
  5
E21C
  8
0
 10
112.9203970019575
 20
144.76112540658079
 30
0.0
  0
VERTEX
  5
E21D
  8
0
 10
112.87959732890489
 20
145.0653304899472
 30
0.0
  0
VERTEX
  5
E21E
  8
0
 10
112.86610859076249
 20
145.3859427803925
 30
0.0
  0
VERTEX
  5
E21F
  8
0
 10
112.8792695741917
 20
145.72400142655971
 30
0.0
  0
VERTEX
  5
E220
  8
0
 10
112.9203970019575
 20
146.07723416662191
 30
0.0
  0
SEQEND
  5
E221
  8
0
  0
LINE
  5
DBFC
  8
0
 10
116.97621525736329
 20
142.116175905418
 30
0.0
 11
124.33931323649639
 21
142.116175905418
 31
0.0
  0
LINE
  5
DBFD
  8
0
 10
116.97621525736319
 20
118.35124973571951
 30
0.0
 11
124.33931323649119
 21
118.35124973571941
 31
0.0
  0
POLYLINE
  5
DC00
  8
0
 66
     1
 10
0.0
 20
0.0
 30
0.0
  0
VERTEX
  5
E222
  8
0
 10
116.97621525736329
 20
142.116175905418
 30
0.0
  0
VERTEX
  5
E223
  8
0
 10
116.3259310277266
 20
142.2012185525879
 30
0.0
  0
VERTEX
  5
E224
  8
0
 10
115.71823567009869
 20
142.32208437290339
 30
0.0
  0
VERTEX
  5
E225
  8
0
 10
115.1579106787668
 20
142.48154373057221
 30
0.0
  0
VERTEX
  5
E226
  8
0
 10
114.631122368953
 20
142.6909166564995
 30
0.0
  0
VERTEX
  5
E227
  8
0
 10
114.1631795841307
 20
142.94795417972799
 30
0.0
  0
VERTEX
  5
E228
  8
0
 10
113.7601794123599
 20
143.25434867205351
 30
0.0
  0
VERTEX
  5
E229
  8
0
 10
113.46341505686669
 20
143.56609363524291
 30
0.0
  0
VERTEX
  5
E22A
  8
0
 10
113.2232680398882
 20
143.91807552527689
 30
0.0
  0
VERTEX
  5
E22B
  8
0
 10
113.03962368123339
 20
144.3190891494485
 30
0.0
  0
VERTEX
  5
E22C
  8
0
 10
112.9203970019575
 20
144.76112540658079
 30
0.0
  0
SEQEND
  5
E22D
  8
0
  0
POLYLINE
  5
DC02
  8
0
 66
     1
 10
0.0
 20
0.0
 30
0.0
  0
VERTEX
  5
E22E
  8
0
 10
112.9203970019575
 20
115.70630023455671
 30
0.0
  0
VERTEX
  5
E22F
  8
0
 10
113.0086187148181
 20
116.05700437463589
 30
0.0
  0
VERTEX
  5
E230
  8
0
 10
113.1370059875717
 20
116.38282901027181
 30
0.0
  0
VERTEX
  5
E231
  8
0
 10
113.3042478394801
 20
116.68267463327039
 30
0.0
  0
VERTEX
  5
E232
  8
0
 10
113.516324978706
 20
116.96450268242521
 30
0.0
  0
VERTEX
  5
E233
  8
0
 10
113.76695343662669
 20
117.2190317428531
 30
0.0
  0
VERTEX
  5
E234
  8
0
 10
114.05392502648751
 20
117.446218799875
 30
0.0
  0
VERTEX
  5
E235
  8
0
 10
114.4318859527921
 20
117.6772105688356
 30
0.0
  0
VERTEX
  5
E236
  8
0
 10
114.8542198159528
 20
117.8736805708224
 30
0.0
  0
VERTEX
  5
E237
  8
0
 10
115.31725550536351
 20
118.0368836364151
 30
0.0
  0
VERTEX
  5
E238
  8
0
 10
115.83350588506519
 20
118.1719605601661
 30
0.0
  0
VERTEX
  5
E239
  8
0
 10
116.3876511890041
 20
118.2760632250521
 30
0.0
  0
VERTEX
  5
E23A
  8
0
 10
116.97621525736319
 20
118.35124973571951
 30
0.0
  0
SEQEND
  5
E23B
  8
0
  0
POLYLINE
  5
DC04
  8
0
 66
     1
 10
0.0
 20
0.0
 30
0.0
  0
VERTEX
  5
E23C
  8
0
 10
124.33931323649119
 20
118.35124973571941
 30
0.0
  0
VERTEX
  5
E23D
  8
0
 10
124.46249879314441
 20
118.31293798553619
 30
0.0
  0
VERTEX
  5
E23E
  8
0
 10
124.5483370541143
 20
118.26547867158069
 30
0.0
  0
VERTEX
  5
E23F
  8
0
 10
124.5990407106553
 20
118.20785765080559
 30
0.0
  0
VERTEX
  5
E240
  8
0
 10
124.6153870354205
 20
118.14074561286159
 30
0.0
  0
SEQEND
  5
E241
  8
0
  0
POLYLINE
  5
DC05
  8
0
 66
     1
 10
0.0
 20
0.0
 30
0.0
  0
VERTEX
  5
E242
  8
0
 10
124.6153870354205
 20
142.32668002827569
 30
0.0
  0
VERTEX
  5
E243
  8
0
 10
124.6000755756818
 20
142.26155500565909
 30
0.0
  0
VERTEX
  5
E244
  8
0
 10
124.5519149693643
 20
142.2047528089206
 30
0.0
  0
VERTEX
  5
E245
  8
0
 10
124.4661129102351
 20
142.15598766312209
 30
0.0
  0
VERTEX
  5
E246
  8
0
 10
124.33931323649639
 20
142.116175905418
 30
0.0
  0
SEQEND
  5
E247
  8
0
  0
LINE
  5
DC0A
  8
2
 10
138.80338703542051
 20
46.238951617328908
 30
0.0
 11
119.9333299627867
 21
46.238951617328908
 31
0.0
  0
LINE
  5
DC0B
  8
2
 10
119.9333299627867
 20
54.614951617328913
 30
0.0
 11
138.80338703542051
 21
54.614951617328913
 31
0.0
  0
LINE
  5
DC0C
  8
2
 10
117.5153870354205
 20
50.426951617328911
 30
0.0
 11
119.9333299627867
 21
54.614951617328913
 31
0.0
  0
LINE
  5
DC0D
  8
2
 10
119.9333299627867
 20
46.238951617328908
 30
0.0
 11
117.5153870354205
 21
50.426951617328911
 31
0.0
  0
LINE
  5
DC0E
  8
2
 10
119.9333299627867
 20
54.614951617328913
 30
0.0
 11
119.9333299627867
 21
46.238951617328908
 31
0.0
  0
LINE
  5
DC0F
  8
2
 10
138.80338703542051
 20
54.614951617328913
 30
0.0
 11
139.6153870354205
 21
55.426951617328911
 31
0.0
  0
LINE
  5
DC10
  8
2
 10
139.6153870354205
 20
45.426951617328911
 30
0.0
 11
138.80338703542051
 21
46.238951617328908
 31
0.0
  0
LINE
  5
DC11
  8
2
 10
138.80338703542051
 20
54.614951617328913
 30
0.0
 11
138.80338703542051
 21
46.238951617328908
 31
0.0
  0
LINE
  5
DC14
  8
2
 10
139.6153870354205
 20
55.426951617328911
 30
0.0
 11
122.6153870354205
 21
55.426951617328911
 31
0.0
  0
LINE
  5
DC15
  8
2
 10
120.91538703542049
 20
54.614951617328913
 30
0.0
 11
122.6153870354205
 21
55.426951617328911
 31
0.0
  0
LINE
  5
DC16
  8
2
 10
122.6153870354205
 20
55.426951617328911
 30
0.0
 11
122.6153870354205
 21
45.426951617328911
 31
0.0
  0
LINE
  5
DC17
  8
2
 10
139.6153870354205
 20
45.426951617328911
 30
0.0
 11
122.6153870354205
 21
45.426951617328911
 31
0.0
  0
LINE
  5
DC18
  8
2
 10
120.91538703542049
 20
46.238951617328908
 30
0.0
 11
122.6153870354205
 21
45.426951617328911
 31
0.0
  0
LINE
  5
DC19
  8
1
 10
142.6153870354205
 20
50.426951617328911
 30
0.0
 11
106.6153870354205
 21
50.426951617328911
 31
0.0
  0
LINE
  5
DC1A
  8
0
 10
139.6153870354205
 20
43.176951617328911
 30
0.0
 11
139.3153870354206
 21
43.176951617328911
 31
0.0
  0
LINE
  5
DC1B
  8
0
 10
139.3153870354206
 20
57.676951617328911
 30
0.0
 11
139.6153870354205
 21
57.676951617328911
 31
0.0
  0
LINE
  5
DC1C
  8
0
 10
139.6153870354205
 20
57.676951617328911
 30
0.0
 11
139.6153870354205
 21
43.176951617328911
 31
0.0
  0
LINE
  5
DC1D
  8
0
 10
139.3153870354206
 20
41.560284950662229
 30
0.0
 11
138.6820537020871
 21
40.926951617328911
 31
0.0
  0
LINE
  5
DC1E
  8
0
 10
138.6820537020871
 20
59.926951617328911
 30
0.0
 11
139.3153870354206
 21
59.293618283995578
 31
0.0
  0
LINE
  5
DC1F
  8
0
 10
139.3153870354206
 20
59.293618283995578
 30
0.0
 11
139.3153870354206
 21
41.560284950662229
 31
0.0
  0
LINE
  5
DC20
  8
0
 10
138.6820537020871
 20
40.926951617328911
 30
0.0
 11
126.5153870354205
 21
40.926951617328911
 31
0.0
  0
LINE
  5
DC21
  8
0
 10
126.5153870354205
 20
59.926951617328911
 30
0.0
 11
138.6820537020871
 21
59.926951617328911
 31
0.0
  0
LINE
  5
DC22
  8
0
 10
138.6820537020871
 20
59.926951617328911
 30
0.0
 11
138.6820537020871
 21
40.926951617328911
 31
0.0
  0
ARC
  5
DC23
  8
0
 10
126.5153870354205
 20
39.026951617328919
 30
0.0
 40
1.899999999999995
 50
90.0
 51
180.0
  0
ARC
  5
DC24
  8
0
 10
126.5153870354205
 20
61.826951617328902
 30
0.0
 40
1.899999999999993
 50
180.0
 51
270.0
  0
POLYLINE
  5
DC26
  8
0
 66
     1
 10
0.0
 20
0.0
 30
0.0
  0
VERTEX
  5
E248
  8
0
 10
118.27935461795801
 20
71.507326473567005
 30
0.0
  0
VERTEX
  5
E249
  8
0
 10
118.6243955959098
 20
71.972430044101131
 30
0.0
  0
VERTEX
  5
E24A
  8
0
 10
118.9966969505477
 20
72.394764644443796
 30
0.0
  0
VERTEX
  5
E24B
  8
0
 10
119.3947870607512
 20
72.769357228181775
 30
0.0
  0
VERTEX
  5
E24C
  8
0
 10
119.63353576630369
 20
72.959454810281287
 30
0.0
  0
VERTEX
  5
E24D
  8
0
 10
119.88561047443
 20
73.130970078813874
 30
0.0
  0
VERTEX
  5
E24E
  8
0
 10
120.15883081739101
 20
73.281898680157695
 30
0.0
  0
VERTEX
  5
E24F
  8
0
 10
120.462904876385
 20
73.398740491093363
 30
0.0
  0
VERTEX
  5
E250
  8
0
 10
120.60803583573779
 20
73.433678308191105
 30
0.0
  0
VERTEX
  5
E251
  8
0
 10
120.76066693019401
 20
73.454359936252843
 30
0.0
  0
VERTEX
  5
E252
  8
0
 10
121.023303731715
 20
73.449118130526358
 30
0.0
  0
VERTEX
  5
E253
  8
0
 10
121.1857242723711
 20
73.420304322200764
 30
0.0
  0
VERTEX
  5
E254
  8
0
 10
121.33870326345711
 20
73.376497586085605
 30
0.0
  0
VERTEX
  5
E255
  8
0
 10
121.59139174625329
 20
73.272929808205092
 30
0.0
  0
VERTEX
  5
E256
  8
0
 10
121.8230656181795
 20
73.145545071009451
 30
0.0
  0
VERTEX
  5
E257
  8
0
 10
122.0394809059992
 20
73.001296855230777
 30
0.0
  0
VERTEX
  5
E258
  8
0
 10
122.4914327192887
 20
72.633623016536887
 30
0.0
  0
VERTEX
  5
E259
  8
0
 10
122.9090060997712
 20
72.206565780054774
 30
0.0
  0
VERTEX
  5
E25A
  8
0
 10
123.2948225312991
 20
71.727841843636199
 30
0.0
  0
VERTEX
  5
E25B
  8
0
 10
123.598328905399
 20
71.283474316541174
 30
0.0
  0
VERTEX
  5
E25C
  8
0
 10
123.8760099071542
 20
70.804434861485632
 30
0.0
  0
VERTEX
  5
E25D
  8
0
 10
124.1209675548909
 20
70.296102960297446
 30
0.0
  0
VERTEX
  5
E25E
  8
0
 10
124.33931323649639
 20
69.724174934482392
 30
0.0
  0
SEQEND
  5
E25F
  8
0
  0
ARC
  5
DC27
  8
0
 10
120.8653870354205
 20
71.676951617328911
 30
0.0
 40
3.749999999999996
 50
0.0
 51
133.59913768155801
  0
LINE
  5
DC28
  8
0
 10
123.21425236830601
 20
29.999999942279771
 30
0.0
 11
118.51677023615299
 21
30.000000057720221
 31
0.0
  0
POLYLINE
  5
DC2A
  8
0
 66
     1
 10
0.0
 20
0.0
 30
0.0
  0
VERTEX
  5
E260
  8
0
 10
123.21425236830601
 20
29.999999942279771
 30
0.0
  0
VERTEX
  5
E261
  8
0
 10
123.29482253129289
 20
30.001471152159009
 30
0.0
  0
VERTEX
  5
E262
  8
0
 10
123.59832832766691
 20
30.03797846160618
 30
0.0
  0
VERTEX
  5
E263
  8
0
 10
123.87600886264281
 20
30.12623946099767
 30
0.0
  0
VERTEX
  5
E264
  8
0
 10
124.1209662012182
 20
30.269613682857042
 30
0.0
  0
VERTEX
  5
E265
  8
0
 10
124.33931323649171
 20
30.48782506774268
 30
0.0
  0
SEQEND
  5
E266
  8
0
  0
POLYLINE
  5
DC2B
  8
0
 66
     1
 10
0.0
 20
0.0
 30
0.0
  0
VERTEX
  5
E267
  8
0
 10
116.97621525736319
 20
69.724174934482392
 30
0.0
  0
VERTEX
  5
E268
  8
0
 10
117.3142657301064
 20
70.167637518488704
 30
0.0
  0
VERTEX
  5
E269
  8
0
 10
117.6435204683672
 20
70.610696587471395
 30
0.0
  0
VERTEX
  5
E26A
  8
0
 10
117.969260649871
 20
71.062117566537495
 30
0.0
  0
VERTEX
  5
E26B
  8
0
 10
118.27935461795801
 20
71.507326473567005
 30
0.0
  0
SEQEND
  5
E26C
  8
0
  0
ARC
  5
DC2C
  8
0
 10
144.1396787925826
 20
47.235801006066737
 30
0.0
 40
37.499999999998543
 50
133.59913768155789
 51
146.3578780984451
  0
ARC
  5
DC2E
  8
0
 10
159.6153870354205
 20
50.426951617328903
 30
0.0
 40
50.000000000000028
 50
160.41072978540859
 51
199.58927021459141
  0
POLYLINE
  5
DC2F
  8
0
 66
     1
 10
0.0
 20
0.0
 30
0.0
  0
VERTEX
  5
E26D
  8
0
 10
112.9203970019575
 20
32.892284736110703
 30
0.0
  0
VERTEX
  5
E26E
  8
0
 10
112.8794880145681
 20
32.918173646385057
 30
0.0
  0
VERTEX
  5
E26F
  8
0
 10
112.86610859076249
 20
32.926950790264911
 30
0.0
  0
VERTEX
  5
E270
  8
0
 10
112.8661073301969
 20
32.92695161726018
 30
0.0
  0
SEQEND
  5
E271
  8
0
  0
ARC
  5
DC30
  8
0
 10
116.0423251810205
 20
34.920476175353308
 30
0.0
 40
3.7500000000003162
 50
199.58927021459161
 51
212.11406725523489
  0
ARC
  5
DC31
  8
0
 10
116.0423251810206
 20
65.933427059304393
 30
0.0
 40
3.750000000000524
 50
146.3578780984453
 51
160.41072978540601
  0
POLYLINE
  5
DC34
  8
0
 66
     1
 10
0.0
 20
0.0
 30
0.0
  0
VERTEX
  5
E272
  8
0
 10
112.9203970019575
 20
60.334068678276878
 30
0.0
  0
VERTEX
  5
E273
  8
0
 10
112.8794880145681
 20
59.754719211283657
 30
0.0
  0
VERTEX
  5
E274
  8
0
 10
112.86610859076249
 20
59.182521133074772
 30
0.0
  0
VERTEX
  5
E275
  8
0
 10
112.8792233766186
 20
58.613439733250743
 30
0.0
  0
VERTEX
  5
E276
  8
0
 10
112.9203970019575
 20
58.054501437599157
 30
0.0
  0
SEQEND
  5
E277
  8
0
  0
POLYLINE
  5
DC35
  8
0
 66
     1
 10
0.0
 20
0.0
 30
0.0
  0
VERTEX
  5
E278
  8
0
 10
116.97621525736319
 20
69.724174934482392
 30
0.0
  0
VERTEX
  5
E279
  8
0
 10
116.3259310277266
 20
68.840926693645216
 30
0.0
  0
VERTEX
  5
E27A
  8
0
 10
115.71823567009869
 20
67.930926637811339
 30
0.0
  0
VERTEX
  5
E27B
  8
0
 10
115.1579106787668
 20
66.998018160642232
 30
0.0
  0
VERTEX
  5
E27C
  8
0
 10
114.631122368953
 20
66.008995226724579
 30
0.0
  0
VERTEX
  5
E27D
  8
0
 10
114.1631795841307
 20
65.000366534651192
 30
0.0
  0
VERTEX
  5
E27E
  8
0
 10
113.7601794123599
 20
63.979376493170349
 30
0.0
  0
VERTEX
  5
E27F
  8
0
 10
113.46341505686669
 20
63.075569110927781
 30
0.0
  0
VERTEX
  5
E280
  8
0
 10
113.2232680398881
 20
62.169785635787058
 30
0.0
  0
VERTEX
  5
E281
  8
0
 10
113.03962368123349
 20
61.247797687876613
 30
0.0
  0
VERTEX
  5
E282
  8
0
 10
112.9203970019575
 20
60.334068678276878
 30
0.0
  0
SEQEND
  5
E283
  8
0
  0
POLYLINE
  5
DC37
  8
0
 66
     1
 10
0.0
 20
0.0
 30
0.0
  0
VERTEX
  5
E284
  8
0
 10
124.6153870354205
 20
67.900435646374817
 30
0.0
  0
VERTEX
  5
E285
  8
0
 10
124.5999771309243
 20
68.355693249440165
 30
0.0
  0
VERTEX
  5
E286
  8
0
 10
124.5519149693643
 20
68.80975708852381
 30
0.0
  0
VERTEX
  5
E287
  8
0
 10
124.4656556557606
 20
69.271229289759731
 30
0.0
  0
VERTEX
  5
E288
  8
0
 10
124.33931323649639
 20
69.724174934482392
 30
0.0
  0
SEQEND
  5
E289
  8
0
  0
POLYLINE
  5
DC38
  8
0
 66
     1
 10
0.0
 20
0.0
 30
0.0
  0
VERTEX
  5
E28A
  8
0
 10
116.97621525736319
 20
30.487825067741881
 30
0.0
  0
VERTEX
  5
E28B
  8
0
 10
117.3142657301064
 20
30.313535060501991
 30
0.0
  0
VERTEX
  5
E28C
  8
0
 10
117.6435204683672
 20
30.174958453771751
 30
0.0
  0
VERTEX
  5
E28D
  8
0
 10
117.969260649871
 20
30.07260985175829
 30
0.0
  0
VERTEX
  5
E28E
  8
0
 10
118.27935461795801
 20
30.01362727092863
 30
0.0
  0
SEQEND
  5
E28F
  8
0
  0
POLYLINE
  5
DC39
  8
0
 66
     1
 10
0.0
 20
0.0
 30
0.0
  0
VERTEX
  5
E290
  8
0
 10
116.97621525736319
 20
30.487825067741881
 30
0.0
  0
VERTEX
  5
E291
  8
0
 10
116.3259328065617
 20
30.85579907881187
 30
0.0
  0
VERTEX
  5
E292
  8
0
 10
115.7182389780415
 20
31.206125328766721
 30
0.0
  0
VERTEX
  5
E293
  8
0
 10
115.1579152241499
 20
31.534482952397429
 30
0.0
  0
VERTEX
  5
E294
  8
0
 10
114.6311279736924
 20
31.84767147605573
 30
0.0
  0
VERTEX
  5
E295
  8
0
 10
114.1631858340965
 20
32.129384368182372
 30
0.0
  0
VERTEX
  5
E296
  8
0
 10
113.7601858369716
 20
32.374533832802243
 30
0.0
  0
VERTEX
  5
E297
  8
0
 10
113.4634190957234
 20
32.556459908094979
 30
0.0
  0
VERTEX
  5
E298
  8
0
 10
113.2232701910558
 20
32.7045275416599
 30
0.0
  0
VERTEX
  5
E299
  8
0
 10
113.0396244410598
 20
32.818234387920583
 30
0.0
  0
VERTEX
  5
E29A
  8
0
 10
112.9203970019575
 20
32.892284736110703
 30
0.0
  0
SEQEND
  5
E29B
  8
0
  0
POLYLINE
  5
DC3B
  8
0
 66
     1
 10
0.0
 20
0.0
 30
0.0
  0
VERTEX
  5
E29C
  8
0
 10
112.9203970019575
 20
58.054501437599157
 30
0.0
  0
VERTEX
  5
E29D
  8
0
 10
113.0086187148181
 20
57.39224963339921
 30
0.0
  0
VERTEX
  5
E29E
  8
0
 10
113.1370059875717
 20
56.748315519797067
 30
0.0
  0
VERTEX
  5
E29F
  8
0
 10
113.3042478394801
 20
56.125605822680569
 30
0.0
  0
VERTEX
  5
E2A0
  8
0
 10
113.516324978706
 20
55.506883335968823
 30
0.0
  0
VERTEX
  5
E2A1
  8
0
 10
113.76695343662669
 20
54.912479218536731
 30
0.0
  0
VERTEX
  5
E2A2
  8
0
 10
114.05392502648751
 20
54.344226388226851
 30
0.0
  0
VERTEX
  5
E2A3
  8
0
 10
114.4318859527921
 20
53.715736733716632
 30
0.0
  0
VERTEX
  5
E2A4
  8
0
 10
114.8542198159528
 20
53.122724808649536
 30
0.0
  0
VERTEX
  5
E2A5
  8
0
 10
115.31725550536351
 20
52.566123663953221
 30
0.0
  0
VERTEX
  5
E2A6
  8
0
 10
115.83350588506531
 20
52.030772386058942
 30
0.0
  0
VERTEX
  5
E2A7
  8
0
 10
116.3876511890041
 20
51.531819774460068
 30
0.0
  0
VERTEX
  5
E2A8
  8
0
 10
116.97621525736319
 20
51.068854849762488
 30
0.0
  0
SEQEND
  5
E2A9
  8
0
  0
LINE
  5
DC3D
  8
0
 10
116.97621525736319
 20
51.068854849762488
 30
0.0
 11
124.33931323649119
 21
51.068854849762488
 31
0.0
  0
POLYLINE
  5
DC3F
  8
0
 66
     1
 10
0.0
 20
0.0
 30
0.0
  0
VERTEX
  5
E2AA
  8
0
 10
124.33931323649119
 20
51.068854849762488
 30
0.0
  0
VERTEX
  5
E2AB
  8
0
 10
124.4628622977787
 20
51.322644556441162
 30
0.0
  0
VERTEX
  5
E2AC
  8
0
 10
124.5483370541143
 20
51.588139260616629
 30
0.0
  0
VERTEX
  5
E2AD
  8
0
 10
124.5991199304548
 20
51.871304008311
 30
0.0
  0
VERTEX
  5
E2AE
  8
0
 10
124.6153870354205
 20
52.163026411812417
 30
0.0
  0
SEQEND
  5
E2AF
  8
0
  0
LINE
  5
DC40
  8
0
 10
124.6153870354205
 20
71.676951617328911
 30
0.0
 11
124.6153870354205
 21
31.217392793799501
 31
0.0
  0
POLYLINE
  5
DC41
  8
0
 66
     1
 10
0.0
 20
0.0
 30
0.0
  0
VERTEX
  5
E2B0
  8
0
 10
124.6153870354205
 20
31.217392793799501
 30
0.0
  0
VERTEX
  5
E2B1
  8
0
 10
124.5999771309243
 20
31.046296870213698
 30
0.0
  0
VERTEX
  5
E2B2
  8
0
 10
124.5519149693643
 20
30.86832414209935
 30
0.0
  0
VERTEX
  5
E2B3
  8
0
 10
124.4656556557612
 20
30.679956208014119
 30
0.0
  0
VERTEX
  5
E2B4
  8
0
 10
124.3393132364974
 20
30.487825067741881
 30
0.0
  0
SEQEND
  5
E2B5
  8
0
  0
LINE
  5
DC42
  8
0
 10
118.27935461795801
 20
30.01362727092863
 30
0.0
 11
118.51677023615299
 21
30.000000057720221
 31
0.0
  0
LINE
  5
DC4D
  8
1
 10
26.807692123657031
 20
50.426951617328911
 30
0.0
 11
82.807694903913898
 21
50.426951617328911
 31
0.0
  0
LINE
  5
DC4E
  8
1
 10
54.807693513785473
 20
22.42695022720045
 30
0.0
 11
54.807693513785473
 21
78.426953007457371
 31
0.0
  0
POLYLINE
  5
DC4F
  8
0
 66
     1
 10
0.0
 20
0.0
 30
0.0
  0
VERTEX
  5
E2B6
  8
0
 10
78.764091918102167
 20
49.759901107491118
 30
0.0
  0
VERTEX
  5
E2B7
  8
0
 10
79.038753168339781
 20
49.305421206705688
 30
0.0
  0
VERTEX
  5
E2B8
  8
0
 10
79.257704918233003
 20
48.839987561242339
 30
0.0
  0
VERTEX
  5
E2B9
  8
0
 10
79.421949020953889
 20
48.375281524522869
 30
0.0
  0
VERTEX
  5
E2BA
  8
0
 10
79.545175690808264
 20
47.865490676293227
 30
0.0
  0
VERTEX
  5
E2BB
  8
0
 10
79.583232987458913
 20
47.629550645002979
 30
0.0
  0
VERTEX
  5
E2BC
  8
0
 10
79.606290944849206
 20
47.435804576849982
 30
0.0
  0
VERTEX
  5
E2BD
  8
0
 10
79.614819989611988
 20
47.33933842539966
 30
0.0
  0
VERTEX
  5
E2BE
  8
0
 10
79.615387035497633
 20
47.332061937130398
 30
0.0
  0
SEQEND
  5
E2BF
  8
0
  0
ARC
  5
DC50
  8
0
 10
54.807692471142097
 20
50.426952219524168
 30
0.0
 40
25.000001108969158
 50
307.11120885705247
 51
352.88879114040958
  0
POLYLINE
  5
DC51
  8
0
 66
     1
 10
0.0
 20
0.0
 30
0.0
  0
VERTEX
  5
E2C0
  8
0
 10
69.89179335801964
 20
30.49030365756774
 30
0.0
  0
VERTEX
  5
E2C1
  8
0
 10
69.887302943871532
 20
30.488156321964571
 30
0.0
  0
VERTEX
  5
E2C2
  8
0
 10
69.858305916679569
 20
30.474421631899531
 30
0.0
  0
VERTEX
  5
E2C3
  8
0
 10
69.790321909943145
 20
30.443106068811989
 30
0.0
  0
VERTEX
  5
E2C4
  8
0
 10
69.695767399511624
 20
30.40157651625865
 30
0.0
  0
VERTEX
  5
E2C5
  8
0
 10
69.52192289059883
 20
30.331261262488191
 30
0.0
  0
VERTEX
  5
E2C6
  8
0
 10
69.325126150862502
 20
30.26043510006739
 30
0.0
  0
VERTEX
  5
E2C7
  8
0
 10
68.88158480545826
 20
30.13383551158487
 30
0.0
  0
VERTEX
  5
E2C8
  8
0
 10
68.155746975980264
 20
30.017947598975869
 30
0.0
  0
VERTEX
  5
E2C9
  8
0
 10
67.764731808521205
 20
30.000125250641972
 30
0.0
  0
VERTEX
  5
E2CA
  8
0
 10
67.363575403070627
 20
30.013627270928598
 30
0.0
  0
SEQEND
  5
E2CB
  8
0
  0
POLYLINE
  5
DC52
  8
0
 66
     1
 10
0.0
 20
0.0
 30
0.0
  0
VERTEX
  5
E2CC
  8
0
 10
42.251811624500299
 20
30.01362727092863
 30
0.0
  0
VERTEX
  5
E2CD
  8
0
 10
41.720889859791782
 20
30.003003601180328
 30
0.0
  0
VERTEX
  5
E2CE
  8
0
 10
41.20833662409791
 20
30.04610264630136
 30
0.0
  0
VERTEX
  5
E2CF
  8
0
 10
40.723767339646429
 20
30.136216099283079
 30
0.0
  0
VERTEX
  5
E2D0
  8
0
 10
40.220662179535573
 20
30.284394096880241
 30
0.0
  0
VERTEX
  5
E2D1
  8
0
 10
39.99730347034324
 20
30.369405526826501
 30
0.0
  0
VERTEX
  5
E2D2
  8
0
 10
39.817985474744212
 20
30.446309784043631
 30
0.0
  0
VERTEX
  5
E2D3
  8
0
 10
39.730178814601572
 20
30.487156490334289
 30
0.0
  0
VERTEX
  5
E2D4
  8
0
 10
39.723593671252388
 20
30.490303656753809
 30
0.0
  0
SEQEND
  5
E2D5
  8
0
  0
ARC
  5
DC53
  8
0
 10
54.807696720394347
 20
50.426953439049392
 30
0.0
 40
25.00000338688216
 50
187.11121079003141
 51
232.8887888774286
  0
POLYLINE
  5
DC54
  8
0
 66
     1
 10
0.0
 20
0.0
 30
0.0
  0
VERTEX
  5
E2D6
  8
0
 10
30.0
 20
47.332062039815042
 30
0.0
  0
VERTEX
  5
E2D7
  8
0
 10
30.002989303616921
 20
47.36900189994563
 30
0.0
  0
VERTEX
  5
E2D8
  8
0
 10
30.009978217007301
 20
47.444488887809037
 30
0.0
  0
VERTEX
  5
E2D9
  8
0
 10
30.021172168414981
 20
47.54618196893793
 30
0.0
  0
VERTEX
  5
E2DA
  8
0
 10
30.058911920428049
 20
47.799299861334759
 30
0.0
  0
VERTEX
  5
E2DB
  8
0
 10
30.1170675373046
 20
48.085357630287781
 30
0.0
  0
VERTEX
  5
E2DC
  8
0
 10
30.19638453352616
 20
48.385131425943527
 30
0.0
  0
VERTEX
  5
E2DD
  8
0
 10
30.360398385018019
 20
48.846650729316217
 30
0.0
  0
VERTEX
  5
E2DE
  8
0
 10
30.57837687952247
 20
49.308705211929713
 30
0.0
  0
VERTEX
  5
E2DF
  8
0
 10
30.851295109468769
 20
49.759901107491118
 30
0.0
  0
SEQEND
  5
E2E0
  8
0
  0
POLYLINE
  5
DC55
  8
0
 66
     1
 10
0.0
 20
0.0
 30
0.0
  0
VERTEX
  5
E2E1
  8
0
 10
43.407176998754039
 20
71.507326473567005
 30
0.0
  0
VERTEX
  5
E2E2
  8
0
 10
43.663437513225063
 20
71.972430044101131
 30
0.0
  0
VERTEX
  5
E2E3
  8
0
 10
43.957038999026047
 20
72.394764644443796
 30
0.0
  0
VERTEX
  5
E2E4
  8
0
 10
44.277364180756983
 20
72.769357228181775
 30
0.0
  0
VERTEX
  5
E2E5
  8
0
 10
44.657242671013357
 20
73.130970078813874
 30
0.0
  0
VERTEX
  5
E2E6
  8
0
 10
44.842544083554913
 20
73.281898680157695
 30
0.0
  0
VERTEX
  5
E2E7
  8
0
 10
44.998804121763328
 20
73.398740491093363
 30
0.0
  0
VERTEX
  5
E2E8
  8
0
 10
45.078081737143059
 20
73.454359936252843
 30
0.0
  0
VERTEX
  5
E2E9
  8
0
 10
45.084099830468617
 20
73.458489251444206
 30
0.0
  0
SEQEND
  5
E2EA
  8
0
  0
ARC
  5
DC56
  8
0
 10
54.807693515788742
 20
50.426969285307493
 30
0.0
 40
24.999983722149761
 50
67.111192040526632
 51
112.88880798544329
  0
POLYLINE
  5
DC57
  8
0
 66
     1
 10
0.0
 20
0.0
 30
0.0
  0
VERTEX
  5
E2EB
  8
0
 10
64.531287190670128
 20
73.458489255851333
 30
0.0
  0
VERTEX
  5
E2EC
  8
0
 10
64.535392855408531
 20
73.455673554499029
 30
0.0
  0
VERTEX
  5
E2ED
  8
0
 10
64.561786820404791
 20
73.437428130465676
 30
0.0
  0
VERTEX
  5
E2EE
  8
0
 10
64.622900838206078
 20
73.394208602832038
 30
0.0
  0
VERTEX
  5
E2EF
  8
0
 10
64.706145774208593
 20
73.333085130671989
 30
0.0
  0
VERTEX
  5
E2F0
  8
0
 10
64.853967284004398
 20
73.217685035345653
 30
0.0
  0
VERTEX
  5
E2F1
  8
0
 10
65.013707232156094
 20
73.082662606498872
 30
0.0
  0
VERTEX
  5
E2F2
  8
0
 10
65.345124046875981
 20
72.761833585769963
 30
0.0
  0
VERTEX
  5
E2F3
  8
0
 10
65.80839283253863
 20
72.191192508345054
 30
0.0
  0
VERTEX
  5
E2F4
  8
0
 10
66.019329505749724
 20
71.861481297772201
 30
0.0
  0
VERTEX
  5
E2F5
  8
0
 10
66.208210028816893
 20
71.507326473566991
 30
0.0
  0
SEQEND
  5
E2F6
  8
0
  0
POLYLINE
  5
DC58
  8
0
 66
     1
 10
0.0
 20
0.0
 30
0.0
  0
VERTEX
  5
E2F7
  8
0
 10
56.123802273826641
 20
32.892284736110703
 30
0.0
  0
VERTEX
  5
E2F8
  8
0
 10
57.31600479029089
 20
32.80070989007217
 30
0.0
  0
VERTEX
  5
E2F9
  8
0
 10
58.488373082650583
 20
32.654519186973502
 30
0.0
  0
VERTEX
  5
E2FA
  8
0
 10
59.667756790425301
 20
32.449924481395811
 30
0.0
  0
VERTEX
  5
E2FB
  8
0
 10
60.810268604080079
 20
32.195637042900998
 30
0.0
  0
VERTEX
  5
E2FC
  8
0
 10
62.086726605130139
 20
31.843724229167051
 30
0.0
  0
VERTEX
  5
E2FD
  8
0
 10
63.299368027056524
 20
31.440595825759519
 30
0.0
  0
VERTEX
  5
E2FE
  8
0
 10
64.475693922777282
 20
30.981843069648001
 30
0.0
  0
VERTEX
  5
E2FF
  8
0
 10
65.578347586517111
 20
30.48782506774187
 30
0.0
  0
SEQEND
  5
E300
  8
0
  0
POLYLINE
  5
DC59
  8
0
 66
     1
 10
0.0
 20
0.0
 30
0.0
  0
VERTEX
  5
E301
  8
0
 10
77.460810671366403
 20
51.068854849762467
 30
0.0
  0
VERTEX
  5
E302
  8
0
 10
76.738420680824333
 20
51.584125026043843
 30
0.0
  0
VERTEX
  5
E303
  8
0
 10
76.010774569053979
 20
52.143794374939311
 30
0.0
  0
VERTEX
  5
E304
  8
0
 10
75.28258591022086
 20
52.748340402160693
 30
0.0
  0
VERTEX
  5
E305
  8
0
 10
74.530757897097828
 20
53.424169012592102
 30
0.0
  0
VERTEX
  5
E306
  8
0
 10
73.785782906982035
 20
54.151078619279701
 30
0.0
  0
VERTEX
  5
E307
  8
0
 10
73.0547808215656
 20
54.926912726654251
 30
0.0
  0
VERTEX
  5
E308
  8
0
 10
72.427926555773297
 20
55.648801131275683
 30
0.0
  0
VERTEX
  5
E309
  8
0
 10
71.819479638795073
 20
56.406524530392623
 30
0.0
  0
VERTEX
  5
E30A
  8
0
 10
71.221515110803693
 20
57.214814066167392
 30
0.0
  0
VERTEX
  5
E30B
  8
0
 10
70.65121485983866
 20
58.054501437599157
 30
0.0
  0
SEQEND
  5
E30C
  8
0
  0
POLYLINE
  5
DC5A
  8
0
 66
     1
 10
0.0
 20
0.0
 30
0.0
  0
VERTEX
  5
E30D
  8
0
 10
77.460810671366403
 20
51.068854849762467
 30
0.0
  0
VERTEX
  5
E30E
  8
0
 10
77.816501586212553
 20
50.800493597664783
 30
0.0
  0
VERTEX
  5
E30F
  8
0
 10
78.153277810158215
 20
50.4951998107436
 30
0.0
  0
VERTEX
  5
E310
  8
0
 10
78.471869299661876
 20
50.147503704299929
 30
0.0
  0
VERTEX
  5
E311
  8
0
 10
78.764091918102167
 20
49.759901107491118
 30
0.0
  0
SEQEND
  5
E312
  8
0
  0
POLYLINE
  5
DC5B
  8
0
 66
     1
 10
0.0
 20
0.0
 30
0.0
  0
VERTEX
  5
E313
  8
0
 10
67.363575403070627
 20
30.013627270928598
 30
0.0
  0
VERTEX
  5
E314
  8
0
 10
66.897295631100164
 20
30.07024624058279
 30
0.0
  0
VERTEX
  5
E315
  8
0
 10
66.444673304568823
 20
30.168689580093961
 30
0.0
  0
VERTEX
  5
E316
  8
0
 10
66.002201103570997
 20
30.308929466965228
 30
0.0
  0
VERTEX
  5
E317
  8
0
 10
65.578347586517111
 20
30.48782506774187
 30
0.0
  0
SEQEND
  5
E318
  8
0
  0
POLYLINE
  5
DC5D
  8
0
 66
     1
 10
0.0
 20
0.0
 30
0.0
  0
VERTEX
  5
E319
  8
0
 10
38.964172167732272
 20
58.054501437599157
 30
0.0
  0
VERTEX
  5
E31A
  8
0
 10
38.28876476648373
 20
57.067811194905431
 30
0.0
  0
VERTEX
  5
E31B
  8
0
 10
37.575975757623837
 20
56.125605822680569
 30
0.0
  0
VERTEX
  5
E31C
  8
0
 10
36.809099691227182
 20
55.206526923727672
 30
0.0
  0
VERTEX
  5
E31D
  8
0
 10
36.01762440280072
 20
54.344226388226851
 30
0.0
  0
VERTEX
  5
E31E
  8
0
 10
35.074629965664258
 20
53.414737739319719
 30
0.0
  0
VERTEX
  5
E31F
  8
0
 10
34.11918981636245
 20
52.566123663953221
 30
0.0
  0
VERTEX
  5
E320
  8
0
 10
33.13373532765263
 20
51.776771933184719
 30
0.0
  0
VERTEX
  5
E321
  8
0
 10
32.154576356204529
 20
51.068854849762488
 30
0.0
  0
SEQEND
  5
E322
  8
0
  0
POLYLINE
  5
DC5E
  8
0
 66
     1
 10
0.0
 20
0.0
 30
0.0
  0
VERTEX
  5
E323
  8
0
 10
44.037039441053821
 20
30.487825067741881
 30
0.0
  0
VERTEX
  5
E324
  8
0
 10
44.844473838310478
 20
30.85579907881187
 30
0.0
  0
VERTEX
  5
E325
  8
0
 10
45.69298734048698
 20
31.206125328766721
 30
0.0
  0
VERTEX
  5
E326
  8
0
 10
46.580636672863648
 20
31.534482952397429
 30
0.0
  0
VERTEX
  5
E327
  8
0
 10
47.54183877221385
 20
31.84767147605573
 30
0.0
  0
VERTEX
  5
E328
  8
0
 10
48.54385202759363
 20
32.129384368182372
 30
0.0
  0
VERTEX
  5
E329
  8
0
 10
49.581248850568159
 20
32.374533832802243
 30
0.0
  0
VERTEX
  5
E32A
  8
0
 10
50.519845584016821
 20
32.556459908094979
 30
0.0
  0
VERTEX
  5
E32B
  8
0
 10
51.480272393155701
 20
32.7045275416599
 30
0.0
  0
VERTEX
  5
E32C
  8
0
 10
52.479249060708177
 20
32.818234387920583
 30
0.0
  0
VERTEX
  5
E32D
  8
0
 10
53.491584753744291
 20
32.892284736110703
 30
0.0
  0
SEQEND
  5
E32E
  8
0
  0
POLYLINE
  5
DC5F
  8
0
 66
     1
 10
0.0
 20
0.0
 30
0.0
  0
VERTEX
  5
E32F
  8
0
 10
30.851295109468769
 20
49.759901107491118
 30
0.0
  0
VERTEX
  5
E330
  8
0
 10
31.133468461510692
 20
50.135401750461227
 30
0.0
  0
VERTEX
  5
E331
  8
0
 10
31.445034057626462
 20
50.478162513801919
 30
0.0
  0
VERTEX
  5
E332
  8
0
 10
31.7877214627797
 20
50.791234736898787
 30
0.0
  0
VERTEX
  5
E333
  8
0
 10
32.154576356204529
 20
51.068854849762488
 30
0.0
  0
SEQEND
  5
E334
  8
0
  0
POLYLINE
  5
DC61
  8
0
 66
     1
 10
0.0
 20
0.0
 30
0.0
  0
VERTEX
  5
E335
  8
0
 10
44.037039441053821
 20
30.487825067741881
 30
0.0
  0
VERTEX
  5
E336
  8
0
 10
43.626786321922729
 20
30.313968325638701
 30
0.0
  0
VERTEX
  5
E337
  8
0
 10
43.194006034858603
 20
30.174958453771751
 30
0.0
  0
VERTEX
  5
E338
  8
0
 10
42.733596629129579
 20
30.072898183653841
 30
0.0
  0
VERTEX
  5
E339
  8
0
 10
42.251811624500299
 20
30.01362727092863
 30
0.0
  0
SEQEND
  5
E33A
  8
0
  0
POLYLINE
  5
DC62
  8
0
 66
     1
 10
0.0
 20
0.0
 30
0.0
  0
VERTEX
  5
E33B
  8
0
 10
40.28028092777344
 20
60.334068678276878
 30
0.0
  0
VERTEX
  5
E33C
  8
0
 10
39.655463553961681
 20
59.182521133074772
 30
0.0
  0
VERTEX
  5
E33D
  8
0
 10
38.964172167732272
 20
58.054501437599157
 30
0.0
  0
SEQEND
  5
E33E
  8
0
  0
POLYLINE
  5
DC63
  8
0
 66
     1
 10
0.0
 20
0.0
 30
0.0
  0
VERTEX
  5
E33F
  8
0
 10
53.491584753744291
 20
32.892284736110703
 30
0.0
  0
VERTEX
  5
E340
  8
0
 10
54.80126286846086
 20
32.926950790264911
 30
0.0
  0
VERTEX
  5
E341
  8
0
 10
56.123802273826641
 20
32.892284736110703
 30
0.0
  0
SEQEND
  5
E342
  8
0
  0
POLYLINE
  5
DC64
  8
0
 66
     1
 10
0.0
 20
0.0
 30
0.0
  0
VERTEX
  5
E343
  8
0
 10
70.65121485983866
 20
58.054501437599157
 30
0.0
  0
VERTEX
  5
E344
  8
0
 10
69.96635411893385
 20
59.171382928647063
 30
0.0
  0
VERTEX
  5
E345
  8
0
 10
69.335106099797486
 20
60.334068678276878
 30
0.0
  0
SEQEND
  5
E346
  8
0
  0
POLYLINE
  5
DC67
  8
0
 66
     1
 10
0.0
 20
0.0
 30
0.0
  0
VERTEX
  5
E347
  8
0
 10
66.208210028816893
 20
71.507326473567005
 30
0.0
  0
VERTEX
  5
E348
  8
0
 10
66.392316448745532
 20
71.0752068609427
 30
0.0
  0
VERTEX
  5
E349
  8
0
 10
66.533373179161103
 20
70.634002758090844
 30
0.0
  0
VERTEX
  5
E34A
  8
0
 10
66.633157975005702
 20
70.180690648122706
 30
0.0
  0
VERTEX
  5
E34B
  8
0
 10
66.690156598634744
 20
69.724174934482363
 30
0.0
  0
SEQEND
  5
E34C
  8
0
  0
POLYLINE
  5
DC69
  8
0
 66
     1
 10
0.0
 20
0.0
 30
0.0
  0
VERTEX
  5
E34D
  8
0
 10
42.925230428936167
 20
69.724174934482392
 30
0.0
  0
VERTEX
  5
E34E
  8
0
 10
42.979792633221109
 20
70.166392928683251
 30
0.0
  0
VERTEX
  5
E34F
  8
0
 10
43.07579669633958
 20
70.610696587471395
 30
0.0
  0
VERTEX
  5
E350
  8
0
 10
43.21761461256483
 20
71.060452964032962
 30
0.0
  0
VERTEX
  5
E351
  8
0
 10
43.407176998754039
 20
71.507326473567005
 30
0.0
  0
SEQEND
  5
E352
  8
0
  0
POLYLINE
  5
DC6A
  8
0
 66
     1
 10
0.0
 20
0.0
 30
0.0
  0
VERTEX
  5
E353
  8
0
 10
42.925230428936167
 20
69.724174934482392
 30
0.0
  0
VERTEX
  5
E354
  8
0
 10
42.840187781766303
 20
68.840926693645216
 30
0.0
  0
VERTEX
  5
E355
  8
0
 10
42.719321961450753
 20
67.930926637811339
 30
0.0
  0
VERTEX
  5
E356
  8
0
 10
42.559862603781987
 20
66.998018160642232
 30
0.0
  0
VERTEX
  5
E357
  8
0
 10
42.350489677854732
 20
66.008995226724579
 30
0.0
  0
VERTEX
  5
E358
  8
0
 10
42.093452154626213
 20
65.000366534651192
 30
0.0
  0
VERTEX
  5
E359
  8
0
 10
41.787057662300867
 20
63.979376493170349
 30
0.0
  0
VERTEX
  5
E35A
  8
0
 10
41.475312699111328
 20
63.075569110927781
 30
0.0
  0
VERTEX
  5
E35B
  8
0
 10
41.123330809077281
 20
62.169785635787058
 30
0.0
  0
VERTEX
  5
E35C
  8
0
 10
40.722317184905698
 20
61.247797687876613
 30
0.0
  0
VERTEX
  5
E35D
  8
0
 10
40.28028092777344
 20
60.334068678276878
 30
0.0
  0
SEQEND
  5
E35E
  8
0
  0
POLYLINE
  5
DC6C
  8
0
 66
     1
 10
0.0
 20
0.0
 30
0.0
  0
VERTEX
  5
E35F
  8
0
 10
69.335106099797486
 20
60.334068678276878
 30
0.0
  0
VERTEX
  5
E360
  8
0
 10
68.818310984582808
 20
61.412333767009031
 30
0.0
  0
VERTEX
  5
E361
  8
0
 10
68.358731701083798
 20
62.500729842332383
 30
0.0
  0
VERTEX
  5
E362
  8
0
 10
67.946224059706765
 20
63.624403446862672
 30
0.0
  0
VERTEX
  5
E363
  8
0
 10
67.595187534479237
 20
64.740991420857952
 30
0.0
  0
VERTEX
  5
E364
  8
0
 10
67.261723970564731
 20
66.022392883499123
 30
0.0
  0
VERTEX
  5
E365
  8
0
 10
67.004522697939123
 20
67.274135362273341
 30
0.0
  0
VERTEX
  5
E366
  8
0
 10
66.813651290927282
 20
68.522239849153664
 30
0.0
  0
VERTEX
  5
E367
  8
0
 10
66.690156598634744
 20
69.724174934482363
 30
0.0
  0
SEQEND
  5
E368
  8
0
  0
ENDSEC
  0
EOF
