  0
SECTION
  2
HEADER
  9
$ACADVER
  1
AC1009
  9
$INSBASE
 10
0.0
 20
0.0
 30
0.0
  9
$EXTMIN
 10
0.0
 20
-2.960436562073669
 30
0.0
  9
$EXTMAX
 10
313.48625916371009
 20
222.8097573717705
 30
0.0
  9
$LIMMIN
 10
0.0
 20
0.0
  9
$LIMMAX
 10
375.0
 20
270.0
  9
$ORTHOMODE
 70
     1
  9
$REGENMODE
 70
     1
  9
$FILLMODE
 70
     1
  9
$QTEXTMODE
 70
     0
  9
$MIRRTEXT
 70
     0
  9
$DRAGMODE
 70
     2
  9
$LTSCALE
 40
10.0
  9
$OSMODE
 70
    37
  9
$ATTMODE
 70
     1
  9
$TEXTSIZE
 40
5.0
  9
$TRACEWID
 40
0.05
  9
$TEXTSTYLE
  7
STANDARD
  9
$CLAYER
  8
0
  9
$CELTYPE
  6
BYLAYER
  9
$CECOLOR
 62
   256
  9
$DIMSCALE
 40
1.0
  9
$DIMASZ
 40
3.0
  9
$DIMEXO
 40
2.0
  9
$DIMDLI
 40
0.38
  9
$DIMRND
 40
0.0
  9
$DIMDLE
 40
0.0
  9
$DIMEXE
 40
2.0
  9
$DIMTP
 40
0.0
  9
$DIMTM
 40
0.0
  9
$DIMTXT
 40
3.2000000000000002
  9
$DIMCEN
 40
0.09
  9
$DIMTSZ
 40
0.0
  9
$DIMTOL
 70
     0
  9
$DIMLIM
 70
     0
  9
$DIMTIH
 70
     0
  9
$DIMTOH
 70
     0
  9
$DIMSE1
 70
     0
  9
$DIMSE2
 70
     0
  9
$DIMTAD
 70
     1
  9
$DIMZIN
 70
     8
  9
$DIMBLK
  1

  9
$DIMASO
 70
     1
  9
$DIMSHO
 70
     0
  9
$DIMPOST
  1

  9
$DIMAPOST
  1

  9
$DIMALT
 70
     0
  9
$DIMALTD
 70
     2
  9
$DIMALTF
 40
25.399999999999999
  9
$DIMLFAC
 40
1.0
  9
$DIMTOFL
 70
     0
  9
$DIMTVP
 40
1.6000000000000001
  9
$DIMTIX
 70
     1
  9
$DIMSOXD
 70
     0
  9
$DIMSAH
 70
     0
  9
$DIMBLK1
  1

  9
$DIMBLK2
  1

  9
$DIMSTYLE
  2
STANDARD
  9
$DIMCLRD
 70
     0
  9
$DIMCLRE
 70
     0
  9
$DIMCLRT
 70
     0
  9
$DIMTFAC
 40
1.0
  9
$DIMGAP
 40
0.09
  9
$LUNITS
 70
     2
  9
$LUPREC
 70
     1
  9
$SKETCHINC
 40
0.1
  9
$FILLETRAD
 40
0.75
  9
$AUNITS
 70
     0
  9
$AUPREC
 70
     1
  9
$MENU
  1
E:\r13\win\SUPPORT\ACAD
  9
$ELEVATION
 40
0.0
  9
$PELEVATION
 40
0.0
  9
$THICKNESS
 40
0.0
  9
$LIMCHECK
 70
     0
  9
$BLIPMODE
 70
     0
  9
$CHAMFERA
 40
0.0
  9
$CHAMFERB
 40
0.0
  9
$SKPOLY
 70
     0
  9
$TDCREATE
 40
2449839.7831365741
  9
$TDUPDATE
 40
2458837.7111978591
  9
$TDINDWG
 40
0.0645553472
  9
$TDUSRTIMER
 40
0.0645553472
  9
$USRTIMER
 70
     1
  9
$ANGBASE
 50
0.0
  9
$ANGDIR
 70
     0
  9
$PDMODE
 70
     0
  9
$PDSIZE
 40
0.0
  9
$PLINEWID
 40
0.0
  9
$COORDS
 70
     1
  9
$SPLFRAME
 70
     0
  9
$SPLINETYPE
 70
     6
  9
$SPLINESEGS
 70
     8
  9
$ATTDIA
 70
     0
  9
$ATTREQ
 70
     1
  9
$HANDLING
 70
     1
  9
$HANDSEED
  5
A1C
  9
$SURFTAB1
 70
     6
  9
$SURFTAB2
 70
     6
  9
$SURFTYPE
 70
     6
  9
$SURFU
 70
     6
  9
$SURFV
 70
     6
  9
$UCSNAME
  2

  9
$UCSORG
 10
0.0
 20
0.0
 30
0.0
  9
$UCSXDIR
 10
1.0
 20
0.0
 30
0.0
  9
$UCSYDIR
 10
0.0
 20
1.0
 30
0.0
  9
$PUCSNAME
  2

  9
$PUCSORG
 10
0.0
 20
0.0
 30
0.0
  9
$PUCSXDIR
 10
1.0
 20
0.0
 30
0.0
  9
$PUCSYDIR
 10
0.0
 20
1.0
 30
0.0
  9
$USERI1
 70
     0
  9
$USERI2
 70
     1
  9
$USERI3
 70
     1
  9
$USERI4
 70
     0
  9
$USERI5
 70
     0
  9
$USERR1
 40
0.0
  9
$USERR2
 40
0.0
  9
$USERR3
 40
0.0
  9
$USERR4
 40
0.0
  9
$USERR5
 40
0.0
  9
$WORLDVIEW
 70
     1
  9
$SHADEDGE
 70
     3
  9
$SHADEDIF
 70
    70
  9
$TILEMODE
 70
     1
  9
$MAXACTVP
 70
    16
  9
$PLIMCHECK
 70
     0
  9
$PEXTMIN
 10
1.0000000000000000E+020
 20
1.0000000000000000E+020
 30
1.0000000000000000E+020
  9
$PEXTMAX
 10
-1.0000000000000000E+020
 20
-1.0000000000000000E+020
 30
-1.0000000000000000E+020
  9
$PLIMMIN
 10
0.0
 20
0.0
  9
$PLIMMAX
 10
12.0
 20
9.0
  9
$UNITMODE
 70
     0
  9
$VISRETAIN
 70
     0
  9
$PLINEGEN
 70
     0
  9
$PSLTSCALE
 70
     0
  0
ENDSEC
  0
SECTION
  2
TABLES
  0
TABLE
  2
VPORT
 70
     1
  0
VPORT
  2
*ACTIVE
 70
     0
 10
0.0
 20
0.0
 11
1.0
 21
1.0
 12
349.54238698020202
 22
150.0
 13
0.0
 23
0.0
 14
10.0
 24
10.0
 15
10.0
 25
10.0
 16
0.0
 26
0.0
 36
1.0
 17
0.0
 27
0.0
 37
0.0
 40
289.41176470588238
 41
2.415644171779141
 42
50.0
 43
0.0
 44
0.0
 50
0.0
 51
0.0
 71
     0
 72
   500
 73
     1
 74
     0
 75
     0
 76
     0
 77
     0
 78
     2
  0
ENDTAB
  0
TABLE
  2
LTYPE
 70
     4
  0
LTYPE
  2
CONTINUOUS
 70
     0
  3
Solid Line
 72
    65
 73
     0
 40
0.0
  0
LTYPE
  2
CENTER
 70
     0
  3
____ _ ____ _ ____ _ ____ _ ____ _ ____ _ ____
 72
    65
 73
     4
 40
2.0
 49
1.25
 49
-0.25
 49
0.25
 49
-0.25
  0
LTYPE
  2
HIDDEN
 70
     0
  3
_ _ _ _ _ _ _ _ _ _ _ _ _ _ _ _ _ _ _ _ _ _ _
 72
    65
 73
     2
 40
0.375
 49
0.25
 49
-0.125
  0
LTYPE
  2
PHANTOM2
 70
     0
  3
___ _ _ ___ _ _ ___ _ _ ___ _ _
 72
    65
 73
     6
 40
1.25
 49
0.625
 49
-0.125
 49
0.125
 49
-0.125
 49
0.125
 49
-0.125
  0
ENDTAB
  0
TABLE
  2
LAYER
 70
     3
  0
LAYER
  2
0
 70
     0
 62
     7
  6
CONTINUOUS
  0
LAYER
  2
1
 70
     0
 62
     1
  6
CENTER
  0
LAYER
  2
2
 70
     0
 62
     2
  6
HIDDEN
  0
ENDTAB
  0
TABLE
  2
STYLE
 70
     2
  0
STYLE
  2
STANDARD
 70
     0
 40
0.0
 41
1.0
 50
0.0
 71
     0
 42
5.0
  3
TXT
  4
BIGFONT
  0
STYLE
  2
STANDARD1
 70
     0
 40
0.0
 41
1.0
 50
0.0
 71
     0
 42
3.0
  3
txt
  4

  0
ENDTAB
  0
TABLE
  2
VIEW
 70
     1
  0
VIEW
  2
ALL
 70
     0
 40
270.0
 10
220.99159663865549
 20
135.0
 41
0.0
 11
0.0
 21
0.0
 31
1.0
 12
0.0
 22
0.0
 32
0.0
 42
0.0
 43
0.0
 44
0.0
 50
0.0
 71
     0
  0
ENDTAB
  0
TABLE
  2
UCS
 70
     0
  0
ENDTAB
  0
TABLE
  2
APPID
 70
     8
  0
APPID
  2
ACAD
 70
     0
  0
APPID
  2
GENIUS_GENODEF_13
 70
     0
  0
APPID
  2
GENIUS_GENOBJ-N-FIL_13
 70
     0
  0
APPID
  2
ACAD_MLEADERVER
 70
     0
  0
APPID
  2
ACAD_EXEMPT_FROM_CAD_STANDARDS
 70
     0
  0
APPID
  2
ACAD_DSTYLE_DIMJAG
 70
     0
  0
APPID
  2
ACAD_DSTYLE_DIMTALN
 70
     0
  0
APPID
  2
ACAD_NAV_VCDISPLAY
 70
     0
  0
ENDTAB
  0
TABLE
  2
DIMSTYLE
 70
     1
  0
DIMSTYLE
  2
STANDARD
 70
     0
  3

  4

  5

  6

  7

 40
1.0
 41
0.18
 42
0.0625
 43
0.38
 44
0.18
 45
0.0
 46
0.0
 47
0.0
 48
0.0
140
0.18
141
0.09
142
0.0
143
25.399999999999999
144
1.0
145
0.0
146
1.0
147
0.09
 71
     0
 72
     0
 73
     1
 74
     1
 75
     0
 76
     0
 77
     0
 78
     0
170
     0
171
     2
172
     0
173
     0
174
     0
175
     0
176
     0
177
     0
178
     0
  0
ENDTAB
  0
ENDSEC
  0
SECTION
  2
BLOCKS
  0
BLOCK
  8
0
  2
$MODEL_SPACE
 70
     0
 10
0.0
 20
0.0
 30
0.0
  3
$MODEL_SPACE
  1

  0
ENDBLK
  5
816
  8
0
  0
BLOCK
 67
     1
  8
0
  2
$PAPER_SPACE
 70
     0
 10
0.0
 20
0.0
 30
0.0
  3
$PAPER_SPACE
  1

  0
ENDBLK
  5
814
 67
     1
  8
0
  0
ENDSEC
  0
SECTION
  2
ENTITIES
  0
LINE
  5
770
  8
1
 10
107.75877210358441
 20
204.3097573717705
 30
0.0
 11
313.48625916371009
 21
204.3097573717705
 31
0.0
  0
ARC
  5
771
  8
0
 10
280.00523599702331
 20
112.8097573717705
 30
0.0
 40
12.0
 50
3.2226721661725271
 51
90.0
  0
LINE
  5
772
  8
0
 10
291.98625916371009
 20
83.809757371770473
 30
0.0
 11
308.48625916371009
 21
83.809757371770473
 31
0.0
  0
ARC
  5
773
  8
0
 10
282.4872491640416
 20
114.8097573717705
 30
0.0
 40
26.0
 50
0.499999999999969
 51
90.0
  0
LINE
  5
774
  8
0
 10
280.00523599702331
 20
124.8097573717705
 30
0.0
 11
140.96728233039681
 21
124.8097573717705
 31
0.0
  0
LINE
  5
775
  8
0
 10
282.4872491640416
 20
140.8097573717705
 30
0.0
 11
138.4852691633786
 21
140.8097573717705
 31
0.0
  0
LINE
  5
776
  8
1
 10
120.9862591637102
 20
107.8097573717704
 30
0.0
 11
120.9862591637102
 21
78.809757371770473
 31
0.0
  0
LINE
  5
777
  8
2
 10
124.2194654137101
 20
98.809757371770473
 30
0.0
 11
120.9862591637102
 21
100.6764498705535
 31
0.0
  0
LINE
  5
778
  8
2
 10
117.75305291371021
 20
98.809757371770473
 30
0.0
 11
120.9862591637102
 21
100.6764498705535
 31
0.0
  0
LINE
  5
779
  8
2
 10
115.9862591637102
 20
83.809757371770473
 30
0.0
 11
115.9862591637102
 21
99.809757371770473
 31
0.0
  0
LINE
  5
77A
  8
2
 10
125.9862591637101
 20
83.809757371770473
 30
0.0
 11
125.9862591637101
 21
99.809757371770473
 31
0.0
  0
LINE
  5
77B
  8
2
 10
46.011432244345819
 20
98.809757371770473
 30
0.0
 11
49.244638494345793
 21
100.6764498705535
 31
0.0
  0
LINE
  5
77C
  8
2
 10
52.477844744345759
 20
98.809757371770473
 30
0.0
 11
49.244638494345793
 21
100.6764498705535
 31
0.0
  0
LINE
  5
77D
  8
2
 10
44.244638494345793
 20
83.809757371770473
 30
0.0
 11
44.244638494345793
 21
99.809757371770473
 31
0.0
  0
LINE
  5
77E
  8
2
 10
54.244638494345729
 20
83.809757371770473
 30
0.0
 11
54.244638494345729
 21
99.809757371770473
 31
0.0
  0
LINE
  5
77F
  8
1
 10
49.244638494345793
 20
145.80975737177059
 30
0.0
 11
49.244638494345793
 21
78.809757371770473
 31
0.0
  0
LINE
  5
780
  8
0
 10
128.9862591637102
 20
83.809757371770473
 30
0.0
 11
128.9862591637102
 21
113.4843564225538
 31
0.0
  0
LINE
  5
781
  8
0
 10
112.4862591637102
 20
83.809757371770473
 30
0.0
 11
112.48628024710681
 21
115.0390504845671
 31
0.0
  0
LINE
  5
782
  8
0
 10
62.744638494345793
 20
132.55876139535491
 30
0.0
 11
62.744638494345793
 21
83.809757371770473
 31
0.0
  0
LINE
  5
783
  8
0
 10
35.744638494345793
 20
132.55876139535499
 30
0.0
 11
35.744638494345743
 21
83.809757371770473
 31
0.0
  0
LINE
  5
784
  8
2
 10
46.011432244345819
 20
84.576551121770507
 30
0.0
 11
52.477844744345759
 21
84.576551121770507
 31
0.0
  0
LINE
  5
785
  8
2
 10
45.244638494345793
 20
96.809757371770473
 30
0.0
 11
53.244638494345793
 21
96.809757371770473
 31
0.0
  0
LINE
  5
786
  8
2
 10
46.011432244345819
 20
98.809757371770473
 30
0.0
 11
52.477844744345759
 21
98.809757371770473
 31
0.0
  0
LINE
  5
787
  8
0
 10
35.744638494345743
 20
83.809757371770473
 30
0.0
 11
62.744638494345793
 21
83.809757371770473
 31
0.0
  0
LINE
  5
788
  8
2
 10
45.244638494345793
 20
83.809757371770473
 30
0.0
 11
45.244638494345793
 21
96.809757371770473
 31
0.0
  0
LINE
  5
789
  8
2
 10
46.011432244345819
 20
84.576551121770507
 30
0.0
 11
46.011432244345819
 21
98.809757371770473
 31
0.0
  0
LINE
  5
78A
  8
2
 10
45.244638494345793
 20
83.809757371770473
 30
0.0
 11
46.011432244345819
 21
84.576551121770507
 31
0.0
  0
LINE
  5
78B
  8
2
 10
45.244638494345793
 20
96.809757371770473
 30
0.0
 11
46.011432244345819
 21
98.137883105696773
 31
0.0
  0
LINE
  5
78C
  8
2
 10
53.244638494345793
 20
83.809757371770473
 30
0.0
 11
53.244638494345793
 21
96.809757371770473
 31
0.0
  0
LINE
  5
78D
  8
2
 10
52.477844744345759
 20
84.576551121770507
 30
0.0
 11
52.477844744345759
 21
98.809757371770473
 31
0.0
  0
LINE
  5
78E
  8
2
 10
52.477844744345759
 20
84.576551121770507
 30
0.0
 11
53.244638494345793
 21
83.809757371770473
 31
0.0
  0
LINE
  5
78F
  8
2
 10
53.244638494345793
 20
96.809757371770473
 30
0.0
 11
52.477844744345759
 21
98.137883105696773
 31
0.0
  0
LINE
  5
790
  8
2
 10
124.2194654137101
 20
84.576551121770507
 30
0.0
 11
124.2194654137101
 21
98.809757371770473
 31
0.0
  0
LINE
  5
791
  8
2
 10
117.75305291371021
 20
84.576551121770507
 30
0.0
 11
117.75305291371021
 21
98.809757371770473
 31
0.0
  0
LINE
  5
792
  8
2
 10
124.9862591637102
 20
83.809757371770473
 30
0.0
 11
124.9862591637102
 21
96.809757371770473
 31
0.0
  0
LINE
  5
793
  8
2
 10
116.9862591637102
 20
83.809757371770473
 30
0.0
 11
116.9862591637102
 21
96.809757371770473
 31
0.0
  0
LINE
  5
794
  8
2
 10
117.75305291371021
 20
84.576551121770507
 30
0.0
 11
124.2194654137101
 21
84.576551121770507
 31
0.0
  0
LINE
  5
795
  8
0
 10
128.9862591637102
 20
83.809757371770473
 30
0.0
 11
112.4862591637102
 21
83.809757371770473
 31
0.0
  0
LINE
  5
796
  8
2
 10
116.9862591637102
 20
83.809757371770473
 30
0.0
 11
117.75305291371021
 21
84.576551121770507
 31
0.0
  0
LINE
  5
797
  8
2
 10
124.2194654137101
 20
84.576551121770507
 30
0.0
 11
124.9862591637102
 21
83.809757371770473
 31
0.0
  0
LINE
  5
798
  8
2
 10
117.75305291371021
 20
98.809757371770473
 30
0.0
 11
124.2194654137101
 21
98.809757371770473
 31
0.0
  0
LINE
  5
799
  8
2
 10
116.9862591637102
 20
96.809757371770473
 30
0.0
 11
124.9862591637102
 21
96.809757371770473
 31
0.0
  0
LINE
  5
79A
  8
2
 10
116.9862591637102
 20
96.809757371770473
 30
0.0
 11
117.75305291371021
 21
98.137883105696773
 31
0.0
  0
LINE
  5
79B
  8
2
 10
124.9862591637102
 20
96.809757371770473
 30
0.0
 11
124.2194654137101
 21
98.137883105696773
 31
0.0
  0
ARC
  5
79C
  8
2
 10
49.244638494345793
 20
144.32258244377121
 30
0.0
 40
19.512825072000648
 50
234.39778469172319
 51
305.60221530827658
  0
LINE
  5
79D
  8
2
 10
52.512587686776897
 20
102.8097573717704
 30
0.0
 11
49.244638494345729
 21
102.8097573717704
 31
0.0
  0
LINE
  5
79E
  8
2
 10
44.244638494345793
 20
99.809757371770473
 30
0.0
 11
45.976689301914632
 21
102.8097573717704
 31
0.0
  0
LINE
  5
79F
  8
2
 10
45.976689301914632
 20
102.8097573717704
 30
0.0
 11
49.244638494345793
 21
102.8097573717704
 31
0.0
  0
LINE
  5
7A0
  8
2
 10
54.244638494345729
 20
99.809757371770473
 30
0.0
 11
52.512587686776897
 21
102.8097573717704
 31
0.0
  0
ARC
  5
7A1
  8
0
 10
49.244638494345793
 20
121.29693229976979
 30
0.0
 40
19.51282507200062
 50
54.397784691724581
 51
125.6022153082754
  0
ARC
  5
7A2
  8
2
 10
40.744638494345793
 20
132.55876139535499
 30
0.0
 40
5.0
 50
180.0
 51
235.1174944675578
  0
LINE
  5
7A3
  8
0
 10
35.744638494345793
 20
132.55876139535499
 30
0.0
 11
35.744638494345793
 21
133.06075334818669
 31
0.0
  0
ARC
  5
7A4
  8
0
 10
40.744638494345793
 20
133.06075334818669
 30
0.0
 40
5.0
 50
124.8825055324406
 51
180.0
  0
ARC
  5
7A5
  8
2
 10
57.744638494345793
 20
132.55876139535491
 30
0.0
 40
5.0
 50
304.8825055324416
 51
0.0
  0
LINE
  5
7A6
  8
0
 10
62.744638494345793
 20
132.55876139535491
 30
0.0
 11
62.744638494345793
 21
133.06075334818669
 31
0.0
  0
ARC
  5
7A7
  8
0
 10
57.744638494345793
 20
133.06075334818669
 30
0.0
 40
5.0
 50
0.0
 51
55.117494467559339
  0
ARC
  5
7A8
  8
0
 10
140.96728233039681
 20
112.8097573717705
 30
0.0
 40
12.0
 50
90.0
 51
176.77732783381251
  0
ARC
  5
7A9
  8
0
 10
138.4852691633786
 20
114.8097573717705
 30
0.0
 40
26.0
 50
90.0
 51
179.49470392561119
  0
LINE
  5
7AA
  8
2
 10
117.718309971279
 20
102.8097573717704
 30
0.0
 11
120.9862591637102
 21
102.8097573717704
 31
0.0
  0
LINE
  5
7AB
  8
2
 10
115.9862591637102
 20
99.809757371770473
 30
0.0
 11
117.718309971279
 21
102.8097573717704
 31
0.0
  0
LINE
  5
7AC
  8
2
 10
125.9862591637101
 20
99.809757371770473
 30
0.0
 11
124.25420835614121
 21
102.8097573717704
 31
0.0
  0
LINE
  5
7AD
  8
2
 10
124.25420835614121
 20
102.8097573717704
 30
0.0
 11
120.9862591637101
 21
102.8097573717704
 31
0.0
  0
LINE
  5
7AE
  8
0
 10
291.98625916371009
 20
83.809757371770473
 30
0.0
 11
291.98625916371009
 21
113.4843564225517
 31
0.0
  0
LINE
  5
7B1
  8
1
 10
210.4862591637102
 20
145.8097573717705
 30
0.0
 11
210.4862591637102
 21
119.8097573717705
 31
0.0
  0
LINE
  5
7B2
  8
0
 10
120.235263187294
 20
217.8097573717705
 30
0.0
 11
300.73725514012619
 21
217.8097573717705
 31
0.0
  0
LINE
  5
7B3
  8
0
 10
120.235263187294
 20
190.8097573717705
 30
0.0
 11
300.73725514012619
 21
190.8097573717705
 31
0.0
  0
ARC
  5
7B4
  8
0
 10
131.9990842357108
 20
204.3097573717705
 30
0.0
 40
19.51282507200062
 50
144.3977846917245
 51
215.60221530827539
  0
LINE
  5
7B5
  8
1
 10
120.9862591637102
 20
215.50765814628181
 30
0.0
 11
120.9862591637102
 21
192.4449983676204
 31
0.0
  0
ARC
  5
7B6
  8
0
 10
120.235263187294
 20
195.8097573717705
 30
0.0
 40
5.0
 50
214.88250553244069
 51
270.0
  0
ARC
  5
7B7
  8
0
 10
120.235263187294
 20
212.8097573717705
 30
0.0
 40
5.0
 50
90.0
 51
145.11749446755931
  0
LINE
  5
7B8
  8
1
 10
210.4862591637102
 20
222.8097573717705
 30
0.0
 11
210.4862591637102
 21
185.8097573717705
 31
0.0
  0
LINE
  5
7B9
  8
2
 10
303.21946541371022
 20
98.809757371770473
 30
0.0
 11
299.98625916371009
 21
100.6764498705535
 31
0.0
  0
LINE
  5
7BA
  8
2
 10
296.75305291371012
 20
98.809757371770473
 30
0.0
 11
299.98625916371009
 21
100.6764498705535
 31
0.0
  0
LINE
  5
7BB
  8
2
 10
294.9862591637102
 20
83.809757371770473
 30
0.0
 11
294.9862591637102
 21
99.809757371770473
 31
0.0
  0
LINE
  5
7BC
  8
2
 10
304.98625916371009
 20
83.809757371770473
 30
0.0
 11
304.98625916371009
 21
99.809757371770473
 31
0.0
  0
LINE
  5
7BD
  8
1
 10
299.98625916371009
 20
107.8097573717704
 30
0.0
 11
299.98625916371009
 21
78.809757371770473
 31
0.0
  0
LINE
  5
7BE
  8
0
 10
308.48625916371009
 20
83.809757371770473
 30
0.0
 11
308.48625916370997
 21
115.0366472947282
 31
0.0
  0
LINE
  5
7BF
  8
2
 10
303.98625916371009
 20
83.809757371770473
 30
0.0
 11
303.98625916371009
 21
96.809757371770473
 31
0.0
  0
LINE
  5
7C0
  8
2
 10
295.98625916371009
 20
83.809757371770473
 30
0.0
 11
295.98625916371009
 21
96.809757371770473
 31
0.0
  0
LINE
  5
7C1
  8
2
 10
303.21946541371022
 20
84.576551121770507
 30
0.0
 11
303.21946541371022
 21
98.809757371770473
 31
0.0
  0
LINE
  5
7C2
  8
2
 10
296.75305291371012
 20
84.576551121770507
 30
0.0
 11
296.75305291371012
 21
98.809757371770473
 31
0.0
  0
LINE
  5
7C3
  8
2
 10
303.21946541371022
 20
84.576551121770507
 30
0.0
 11
296.75305291371012
 21
84.576551121770507
 31
0.0
  0
LINE
  5
7C4
  8
2
 10
296.75305291371012
 20
84.576551121770507
 30
0.0
 11
295.98625916371009
 21
83.809757371770473
 31
0.0
  0
LINE
  5
7C5
  8
2
 10
303.98625916371009
 20
83.809757371770473
 30
0.0
 11
303.21946541371022
 21
84.576551121770507
 31
0.0
  0
LINE
  5
7C6
  8
2
 10
303.98625916371009
 20
96.809757371770473
 30
0.0
 11
295.98625916371009
 21
96.809757371770473
 31
0.0
  0
LINE
  5
7C7
  8
2
 10
303.21946541371022
 20
98.809757371770473
 30
0.0
 11
296.75305291371012
 21
98.809757371770473
 31
0.0
  0
LINE
  5
7C8
  8
2
 10
295.98625916371009
 20
96.809757371770473
 30
0.0
 11
296.75305291371012
 21
98.137883105696773
 31
0.0
  0
LINE
  5
7C9
  8
2
 10
303.98625916371009
 20
96.809757371770473
 30
0.0
 11
303.21946541371022
 21
98.137883105696773
 31
0.0
  0
LINE
  5
7CA
  8
2
 10
303.25420835614131
 20
102.8097573717704
 30
0.0
 11
299.98625916371009
 21
102.8097573717704
 31
0.0
  0
LINE
  5
7CB
  8
2
 10
294.9862591637102
 20
99.809757371770473
 30
0.0
 11
296.71830997127898
 21
102.8097573717704
 31
0.0
  0
LINE
  5
7CC
  8
2
 10
296.71830997127898
 20
102.8097573717704
 30
0.0
 11
299.9862591637102
 21
102.8097573717704
 31
0.0
  0
LINE
  5
7CD
  8
2
 10
304.98625916371009
 20
99.809757371770473
 30
0.0
 11
303.25420835614131
 21
102.8097573717704
 31
0.0
  0
ARC
  5
7CE
  8
0
 10
288.97343409170952
 20
204.3097573717705
 30
0.0
 40
19.51282507200062
 50
324.39778469172461
 51
35.602215308275397
  0
LINE
  5
7CF
  8
1
 10
299.98625916371009
 20
215.50765814628181
 30
0.0
 11
299.98625916371009
 21
192.4449983676204
 31
0.0
  0
ARC
  5
7D0
  8
0
 10
300.73725514012619
 20
195.8097573717705
 30
0.0
 40
5.0
 50
270.0
 51
325.11749446755931
  0
ARC
  5
7D1
  8
0
 10
300.73725514012619
 20
212.8097573717705
 30
0.0
 40
5.0
 50
34.882505532440639
 51
90.0
  0
TEXT
  5
93F
  8
0
 62
     3
 10
0.0
 20
0.0
 30
0.0
 40
10.0
  1
MD-AGR200
  7
STANDARD1
  0
ENDSEC
  0
EOF
