  0
SECTION
  2
HEADER
  9
$ACADVER
  1
AC1009
  9
$INSBASE
 10
0.0
 20
0.0
 30
0.0
  9
$EXTMIN
 10
0.0
 20
-2.960436562073669
 30
0.0
  9
$EXTMAX
 10
245.7450114028243
 20
155.35740812608461
 30
0.0
  9
$LIMMIN
 10
0.0
 20
0.0
  9
$LIMMAX
 10
375.0
 20
270.0
  9
$ORTHOMODE
 70
     1
  9
$REGENMODE
 70
     1
  9
$FILLMODE
 70
     1
  9
$QTEXTMODE
 70
     0
  9
$MIRRTEXT
 70
     0
  9
$DRAGMODE
 70
     2
  9
$LTSCALE
 40
10.0
  9
$OSMODE
 70
    37
  9
$ATTMODE
 70
     1
  9
$TEXTSIZE
 40
5.0
  9
$TRACEWID
 40
0.05
  9
$TEXTSTYLE
  7
STANDARD
  9
$CLAYER
  8
0
  9
$CELTYPE
  6
BYLAYER
  9
$CECOLOR
 62
   256
  9
$DIMSCALE
 40
1.0
  9
$DIMASZ
 40
3.0
  9
$DIMEXO
 40
2.0
  9
$DIMDLI
 40
0.38
  9
$DIMRND
 40
0.0
  9
$DIMDLE
 40
0.0
  9
$DIMEXE
 40
2.0
  9
$DIMTP
 40
0.0
  9
$DIMTM
 40
0.0
  9
$DIMTXT
 40
3.0
  9
$DIMCEN
 40
0.09
  9
$DIMTSZ
 40
0.0
  9
$DIMTOL
 70
     0
  9
$DIMLIM
 70
     0
  9
$DIMTIH
 70
     0
  9
$DIMTOH
 70
     0
  9
$DIMSE1
 70
     0
  9
$DIMSE2
 70
     0
  9
$DIMTAD
 70
     1
  9
$DIMZIN
 70
     8
  9
$DIMBLK
  1

  9
$DIMASO
 70
     0
  9
$DIMSHO
 70
     0
  9
$DIMPOST
  1

  9
$DIMAPOST
  1

  9
$DIMALT
 70
     0
  9
$DIMALTD
 70
     2
  9
$DIMALTF
 40
25.399999999999999
  9
$DIMLFAC
 40
1.0
  9
$DIMTOFL
 70
     0
  9
$DIMTVP
 40
1.6000000000000001
  9
$DIMTIX
 70
     1
  9
$DIMSOXD
 70
     0
  9
$DIMSAH
 70
     0
  9
$DIMBLK1
  1

  9
$DIMBLK2
  1

  9
$DIMSTYLE
  2
STANDARD
  9
$DIMCLRD
 70
     0
  9
$DIMCLRE
 70
     0
  9
$DIMCLRT
 70
     0
  9
$DIMTFAC
 40
1.0
  9
$DIMGAP
 40
0.09
  9
$LUNITS
 70
     2
  9
$LUPREC
 70
     1
  9
$SKETCHINC
 40
0.1
  9
$FILLETRAD
 40
0.75
  9
$AUNITS
 70
     0
  9
$AUPREC
 70
     1
  9
$MENU
  1
E:\r13\win\SUPPORT\ACAD
  9
$ELEVATION
 40
0.0
  9
$PELEVATION
 40
0.0
  9
$THICKNESS
 40
0.0
  9
$LIMCHECK
 70
     0
  9
$BLIPMODE
 70
     0
  9
$CHAMFERA
 40
0.0
  9
$CHAMFERB
 40
0.0
  9
$SKPOLY
 70
     0
  9
$TDCREATE
 40
2449839.7831365741
  9
$TDUPDATE
 40
2458837.7111942358
  9
$TDINDWG
 40
0.0877972801
  9
$TDUSRTIMER
 40
0.0877972801
  9
$USRTIMER
 70
     1
  9
$ANGBASE
 50
0.0
  9
$ANGDIR
 70
     0
  9
$PDMODE
 70
     0
  9
$PDSIZE
 40
0.0
  9
$PLINEWID
 40
0.0
  9
$COORDS
 70
     1
  9
$SPLFRAME
 70
     0
  9
$SPLINETYPE
 70
     6
  9
$SPLINESEGS
 70
     8
  9
$ATTDIA
 70
     0
  9
$ATTREQ
 70
     1
  9
$HANDLING
 70
     1
  9
$HANDSEED
  5
AB3
  9
$SURFTAB1
 70
     6
  9
$SURFTAB2
 70
     6
  9
$SURFTYPE
 70
     6
  9
$SURFU
 70
     6
  9
$SURFV
 70
     6
  9
$UCSNAME
  2

  9
$UCSORG
 10
0.0
 20
0.0
 30
0.0
  9
$UCSXDIR
 10
1.0
 20
0.0
 30
0.0
  9
$UCSYDIR
 10
0.0
 20
1.0
 30
0.0
  9
$PUCSNAME
  2

  9
$PUCSORG
 10
0.0
 20
0.0
 30
0.0
  9
$PUCSXDIR
 10
1.0
 20
0.0
 30
0.0
  9
$PUCSYDIR
 10
0.0
 20
1.0
 30
0.0
  9
$USERI1
 70
     0
  9
$USERI2
 70
     1
  9
$USERI3
 70
     1
  9
$USERI4
 70
     0
  9
$USERI5
 70
     0
  9
$USERR1
 40
0.0
  9
$USERR2
 40
0.0
  9
$USERR3
 40
0.0
  9
$USERR4
 40
0.0
  9
$USERR5
 40
0.0
  9
$WORLDVIEW
 70
     1
  9
$SHADEDGE
 70
     3
  9
$SHADEDIF
 70
    70
  9
$TILEMODE
 70
     1
  9
$MAXACTVP
 70
    16
  9
$PLIMCHECK
 70
     0
  9
$PEXTMIN
 10
1.0000000000000000E+020
 20
1.0000000000000000E+020
 30
1.0000000000000000E+020
  9
$PEXTMAX
 10
-1.0000000000000000E+020
 20
-1.0000000000000000E+020
 30
-1.0000000000000000E+020
  9
$PLIMMIN
 10
0.0
 20
0.0
  9
$PLIMMAX
 10
12.0
 20
9.0
  9
$UNITMODE
 70
     0
  9
$VISRETAIN
 70
     0
  9
$PLINEGEN
 70
     0
  9
$PSLTSCALE
 70
     0
  0
ENDSEC
  0
SECTION
  2
TABLES
  0
TABLE
  2
VPORT
 70
     1
  0
VPORT
  2
*ACTIVE
 70
     0
 10
0.0
 20
0.0
 11
1.0
 21
1.0
 12
233.02825798680129
 22
100.0
 13
0.0
 23
0.0
 14
10.0
 24
10.0
 15
10.0
 25
10.0
 16
0.0
 26
0.0
 36
1.0
 17
0.0
 27
0.0
 37
0.0
 40
192.9411764705882
 41
2.415644171779141
 42
50.0
 43
0.0
 44
0.0
 50
0.0
 51
0.0
 71
     0
 72
   500
 73
     1
 74
     0
 75
     0
 76
     0
 77
     0
 78
     2
  0
ENDTAB
  0
TABLE
  2
LTYPE
 70
     4
  0
LTYPE
  2
CONTINUOUS
 70
     0
  3
Solid Line
 72
    65
 73
     0
 40
0.0
  0
LTYPE
  2
CENTER
 70
     0
  3
____ _ ____ _ ____ _ ____ _ ____ _ ____ _ ____
 72
    65
 73
     4
 40
2.0
 49
1.25
 49
-0.25
 49
0.25
 49
-0.25
  0
LTYPE
  2
HIDDEN
 70
     0
  3
_ _ _ _ _ _ _ _ _ _ _ _ _ _ _ _ _ _ _ _ _ _ _
 72
    65
 73
     2
 40
0.375
 49
0.25
 49
-0.125
  0
LTYPE
  2
PHANTOM2
 70
     0
  3
___ _ _ ___ _ _ ___ _ _ ___ _ _
 72
    65
 73
     6
 40
1.25
 49
0.625
 49
-0.125
 49
0.125
 49
-0.125
 49
0.125
 49
-0.125
  0
ENDTAB
  0
TABLE
  2
LAYER
 70
     3
  0
LAYER
  2
0
 70
     0
 62
     7
  6
CONTINUOUS
  0
LAYER
  2
1
 70
     0
 62
     1
  6
CENTER
  0
LAYER
  2
2
 70
     0
 62
     2
  6
HIDDEN
  0
ENDTAB
  0
TABLE
  2
STYLE
 70
     2
  0
STYLE
  2
STANDARD
 70
     0
 40
0.0
 41
1.0
 50
0.0
 71
     0
 42
5.0
  3
TXT
  4
BIGFONT
  0
STYLE
  2
STANDARD1
 70
     0
 40
0.0
 41
1.0
 50
0.0
 71
     0
 42
3.0
  3
txt
  4

  0
ENDTAB
  0
TABLE
  2
VIEW
 70
     1
  0
VIEW
  2
ALL
 70
     0
 40
270.0
 10
220.99159663865549
 20
135.0
 41
0.0
 11
0.0
 21
0.0
 31
1.0
 12
0.0
 22
0.0
 32
0.0
 42
0.0
 43
0.0
 44
0.0
 50
0.0
 71
     0
  0
ENDTAB
  0
TABLE
  2
UCS
 70
     0
  0
ENDTAB
  0
TABLE
  2
APPID
 70
     8
  0
APPID
  2
ACAD
 70
     0
  0
APPID
  2
GENIUS_GENODEF_13
 70
     0
  0
APPID
  2
GENIUS_GENOBJ-N-FIL_13
 70
     0
  0
APPID
  2
ACAD_EXEMPT_FROM_CAD_STANDARDS
 70
     0
  0
APPID
  2
ACAD_MLEADERVER
 70
     0
  0
APPID
  2
ACAD_NAV_VCDISPLAY
 70
     0
  0
APPID
  2
ACAD_DSTYLE_DIMJAG
 70
     0
  0
APPID
  2
ACAD_DSTYLE_DIMTALN
 70
     0
  0
ENDTAB
  0
TABLE
  2
DIMSTYLE
 70
     1
  0
DIMSTYLE
  2
STANDARD
 70
     0
  3

  4

  5

  6

  7

 40
1.0
 41
0.18
 42
0.0625
 43
0.38
 44
0.18
 45
0.0
 46
0.0
 47
0.0
 48
0.0
140
0.18
141
0.09
142
0.0
143
25.399999999999999
144
1.0
145
0.0
146
1.0
147
0.09
 71
     0
 72
     0
 73
     1
 74
     1
 75
     0
 76
     0
 77
     0
 78
     0
170
     0
171
     2
172
     0
173
     0
174
     0
175
     0
176
     0
177
     0
178
     0
  0
ENDTAB
  0
ENDSEC
  0
SECTION
  2
BLOCKS
  0
BLOCK
  8
0
  2
$MODEL_SPACE
 70
     0
 10
0.0
 20
0.0
 30
0.0
  3
$MODEL_SPACE
  1

  0
ENDBLK
  5
722
  8
0
  0
BLOCK
 67
     1
  8
0
  2
$PAPER_SPACE
 70
     0
 10
0.0
 20
0.0
 30
0.0
  3
$PAPER_SPACE
  1

  0
ENDBLK
  5
720
 67
     1
  8
0
  0
ENDSEC
  0
SECTION
  2
ENTITIES
  0
LINE
  5
856
  8
0
 10
106.7445751597063
 20
66.457410626085192
 30
0.0
 11
106.7445751597063
 21
37.357410626085198
 31
0.0
  0
LINE
  5
857
  8
0
 10
121.7445751597063
 20
37.357410626085198
 30
0.0
 11
121.7445751597063
 21
66.457410626085192
 31
0.0
  0
LINE
  5
85A
  8
0
 10
126.64457515970631
 20
71.357410626085198
 30
0.0
 11
220.8445751597063
 21
71.357410626085198
 31
0.0
  0
LINE
  5
85B
  8
0
 10
220.8445751597063
 20
86.357410626085198
 30
0.0
 11
126.64457515970631
 21
86.357410626085198
 31
0.0
  0
LINE
  5
85E
  8
0
 10
225.7445751597063
 20
66.457410626085178
 30
0.0
 11
225.7445751597063
 21
37.357410626085198
 31
0.0
  0
LINE
  5
85F
  8
0
 10
240.7445751597063
 20
37.357410626085198
 30
0.0
 11
240.7445751597063
 21
66.457410626085192
 31
0.0
  0
LINE
  5
861
  8
0
 10
106.7445751597063
 20
37.357410626085198
 30
0.0
 11
121.7445751597063
 21
37.357410626085198
 31
0.0
  0
LINE
  5
86D
  8
0
 10
225.7445751597063
 20
37.357410626085198
 30
0.0
 11
240.7445751597063
 21
37.357410626085198
 31
0.0
  0
ARC
  5
89B
  8
2
 10
55.244575159706237
 20
88.797631563970853
 30
0.0
 40
17.440220937885659
 50
234.3115410710615
 51
305.68845892893847
  0
ARC
  5
89C
  8
2
 10
47.744575159706237
 20
78.857410626085198
 30
0.0
 40
4.9999999999999929
 50
180.05729578907321
 51
237.66646930651399
  0
ARC
  5
89D
  8
2
 10
62.744575159706237
 20
78.857410626085198
 30
0.0
 40
4.9999999999999716
 50
302.33353069348601
 51
359.94270421093898
  0
LINE
  5
8A8
  8
0
 10
67.744575159706244
 20
37.357410626085198
 30
0.0
 11
67.744575159706244
 21
78.847410626085207
 31
0.0
  0
LINE
  5
8A9
  8
0
 10
42.744575159706237
 20
78.847410626085178
 30
0.0
 11
42.744575159706237
 21
37.357410626085198
 31
0.0
  0
ARC
  5
8AA
  8
0
 10
47.744575159706237
 20
78.857410626085198
 30
0.0
 40
4.9999999999999707
 50
122.3335306934861
 51
180.05729578907969
  0
ARC
  5
8AB
  8
0
 10
62.744575159706237
 20
78.857410626085198
 30
0.0
 40
4.9999999999999734
 50
359.94270421093898
 51
57.666469306513889
  0
ARC
  5
8AC
  8
0
 10
55.244575159706237
 20
68.917189688199514
 30
0.0
 40
17.44022093788567
 50
54.311541071061512
 51
125.6884589289384
  0
LINE
  5
8B2
  8
0
 10
42.744575159706237
 20
37.357410626085198
 30
0.0
 11
67.744575159706244
 21
37.357410626085198
 31
0.0
  0
LINE
  5
8FC
  8
0
 10
233.2395751597079
 20
150.35740812608461
 30
0.0
 11
114.2495751597049
 21
150.35740812608461
 31
0.0
  0
LINE
  5
8FE
  8
0
 10
114.2495751597074
 20
125.3574131260858
 30
0.0
 11
233.23957515970301
 21
125.3574131260858
 31
0.0
  0
ARC
  5
8FF
  8
0
 10
114.2445751597061
 20
130.3574106260852
 30
0.0
 40
5.0000000000000062
 50
212.33353069348499
 51
270.05729578907739
  0
ARC
  5
900
  8
0
 10
124.1847960975918
 20
137.8574106260852
 30
0.0
 40
17.440220937885659
 50
144.31154107106019
 51
215.68845892893981
  0
ARC
  5
901
  8
0
 10
114.2445751597061
 20
145.3574106260852
 30
0.0
 40
4.9999999999999929
 50
89.942704210951987
 51
147.66646930651501
  0
ARC
  5
909
  8
0
 10
233.2445751597061
 20
145.3574106260852
 30
0.0
 40
5.000000000000016
 50
32.33353069348501
 51
90.057295789041476
  0
ARC
  5
90A
  8
0
 10
223.3043542218204
 20
137.8574106260852
 30
0.0
 40
17.44022093788567
 50
324.31154107106278
 51
35.688458928939767
  0
ARC
  5
90B
  8
0
 10
233.2445751597061
 20
130.3574106260852
 30
0.0
 40
5.0000000000000231
 50
269.94270421090317
 51
327.6664693065149
  0
LINE
  5
91A
  8
1
 10
232.2445751597063
 20
127.70740812624381
 30
0.0
 11
232.2445751597063
 21
148.007408126244
 31
0.0
  0
LINE
  5
91B
  8
1
 10
173.74457515970639
 20
155.35740812608461
 30
0.0
 11
173.74457515970639
 21
120.3574131260858
 31
0.0
  0
LINE
  5
91C
  8
1
 10
115.2445751597063
 20
127.70740812624381
 30
0.0
 11
115.2445751597063
 21
148.007408126244
 31
0.0
  0
LINE
  5
91D
  8
1
 10
101.7441389165885
 20
137.8574081262438
 30
0.0
 11
245.7450114028243
 21
137.8574081262438
 31
0.0
  0
LINE
  5
928
  8
1
 10
55.244575159706187
 20
91.357410626085183
 30
0.0
 11
55.244575159706237
 21
32.357410626085247
 31
0.0
  0
LINE
  5
929
  8
2
 10
58.477781409706097
 20
38.124204376085181
 30
0.0
 11
52.011368909706157
 21
38.124204376085181
 31
0.0
  0
LINE
  5
92A
  8
2
 10
59.24457515970613
 20
50.357410626085191
 30
0.0
 11
51.24457515970613
 21
50.357410626085191
 31
0.0
  0
LINE
  5
92B
  8
2
 10
58.477781409706097
 20
52.357410626085198
 30
0.0
 11
52.011368909706157
 21
52.357410626085198
 31
0.0
  0
LINE
  5
92C
  8
2
 10
58.477781409706097
 20
52.357410626085198
 30
0.0
 11
55.24457515970613
 21
54.224103124868293
 31
0.0
  0
LINE
  5
92D
  8
2
 10
50.094575159706039
 20
54.357410626085198
 30
0.0
 11
50.094575159706039
 21
37.357410626085198
 31
0.0
  0
LINE
  5
92E
  8
2
 10
51.24457515970613
 20
37.357410626085198
 30
0.0
 11
51.24457515970613
 21
50.357410626085191
 31
0.0
  0
LINE
  5
92F
  8
2
 10
52.011368909706157
 20
38.124204376085181
 30
0.0
 11
52.011368909706157
 21
52.357410626085198
 31
0.0
  0
LINE
  5
930
  8
2
 10
52.011368909706157
 20
38.124204376085181
 30
0.0
 11
51.24457515970613
 21
37.357410626085198
 31
0.0
  0
LINE
  5
931
  8
2
 10
51.24457515970613
 20
50.357410626085191
 30
0.0
 11
52.011368909706157
 21
51.68553636001144
 31
0.0
  0
LINE
  5
932
  8
2
 10
51.094575159706032
 20
55.357410626085191
 30
0.0
 11
50.094575159706039
 21
54.357410626085198
 31
0.0
  0
LINE
  5
933
  8
2
 10
59.394575159706221
 20
55.357410626085191
 30
0.0
 11
51.094575159706032
 21
55.357410626085191
 31
0.0
  0
LINE
  5
934
  8
2
 10
52.011368909706157
 20
52.357410626085198
 30
0.0
 11
55.24457515970613
 21
54.224103124868293
 31
0.0
  0
LINE
  5
935
  8
2
 10
60.394575159706221
 20
54.357410626085198
 30
0.0
 11
60.394575159706221
 21
37.357410626085198
 31
0.0
  0
LINE
  5
936
  8
2
 10
59.24457515970613
 20
37.357410626085198
 30
0.0
 11
59.24457515970613
 21
50.357410626085191
 31
0.0
  0
LINE
  5
937
  8
2
 10
58.477781409706097
 20
38.124204376085181
 30
0.0
 11
58.477781409706097
 21
52.357410626085198
 31
0.0
  0
LINE
  5
938
  8
2
 10
59.24457515970613
 20
37.357410626085198
 30
0.0
 11
58.477781409706097
 21
38.124204376085181
 31
0.0
  0
LINE
  5
939
  8
2
 10
59.24457515970613
 20
50.357410626085191
 30
0.0
 11
58.477781409706097
 21
51.68553636001144
 31
0.0
  0
LINE
  5
93A
  8
2
 10
59.394575159706221
 20
55.357410626085191
 30
0.0
 11
60.394575159706221
 21
54.357410626085198
 31
0.0
  0
LINE
  5
943
  8
1
 10
232.2445751597063
 20
32.357410626085198
 30
0.0
 11
232.24457515970639
 21
60.357410626085191
 31
0.0
  0
LINE
  5
944
  8
2
 10
237.39457515970651
 20
54.357410626085198
 30
0.0
 11
237.39457515970651
 21
37.357410626085198
 31
0.0
  0
LINE
  5
945
  8
2
 10
227.0945751597063
 20
54.357410626085198
 30
0.0
 11
227.0945751597063
 21
37.357410626085198
 31
0.0
  0
LINE
  5
946
  8
2
 10
228.24457515970639
 20
37.357410626085198
 30
0.0
 11
228.24457515970639
 21
50.357410626085191
 31
0.0
  0
LINE
  5
947
  8
2
 10
236.24457515970639
 20
37.357410626085198
 30
0.0
 11
236.24457515970639
 21
50.357410626085191
 31
0.0
  0
LINE
  5
948
  8
2
 10
229.0113689097065
 20
38.124204376085181
 30
0.0
 11
229.0113689097065
 21
52.357410626085198
 31
0.0
  0
LINE
  5
949
  8
2
 10
235.47778140970641
 20
38.124204376085181
 30
0.0
 11
235.47778140970641
 21
52.357410626085198
 31
0.0
  0
LINE
  5
94A
  8
2
 10
229.0113689097065
 20
38.124204376085181
 30
0.0
 11
235.47778140970641
 21
38.124204376085181
 31
0.0
  0
LINE
  5
94B
  8
2
 10
228.24457515970639
 20
37.357410626085198
 30
0.0
 11
229.0113689097065
 21
38.124204376085181
 31
0.0
  0
LINE
  5
94C
  8
2
 10
235.47778140970641
 20
38.124204376085181
 30
0.0
 11
236.24457515970639
 21
37.357410626085198
 31
0.0
  0
LINE
  5
94D
  8
2
 10
228.24457515970639
 20
50.357410626085191
 30
0.0
 11
236.24457515970639
 21
50.357410626085191
 31
0.0
  0
LINE
  5
94E
  8
2
 10
229.0113689097065
 20
52.357410626085198
 30
0.0
 11
235.47778140970641
 21
52.357410626085198
 31
0.0
  0
LINE
  5
94F
  8
2
 10
235.47778140970641
 20
52.357410626085198
 30
0.0
 11
232.24457515970639
 21
54.224103124868293
 31
0.0
  0
LINE
  5
950
  8
2
 10
228.24457515970639
 20
50.357410626085191
 30
0.0
 11
229.0113689097065
 21
51.68553636001144
 31
0.0
  0
LINE
  5
951
  8
2
 10
236.39457515970651
 20
55.357410626085191
 30
0.0
 11
228.0945751597063
 21
55.357410626085191
 31
0.0
  0
LINE
  5
952
  8
2
 10
229.0113689097065
 20
52.357410626085198
 30
0.0
 11
232.24457515970639
 21
54.224103124868293
 31
0.0
  0
LINE
  5
953
  8
2
 10
228.0945751597063
 20
55.357410626085191
 30
0.0
 11
227.0945751597063
 21
54.357410626085198
 31
0.0
  0
LINE
  5
954
  8
2
 10
236.39457515970651
 20
55.357410626085191
 30
0.0
 11
237.39457515970651
 21
54.357410626085198
 31
0.0
  0
LINE
  5
955
  8
2
 10
236.24457515970639
 20
50.357410626085191
 30
0.0
 11
235.47778140970641
 21
51.68553636001144
 31
0.0
  0
LINE
  5
956
  8
1
 10
115.2445751597063
 20
32.357410626085198
 30
0.0
 11
115.2445751597063
 21
60.357410626085191
 31
0.0
  0
LINE
  5
957
  8
2
 10
111.2445751597063
 20
37.357410626085198
 30
0.0
 11
111.2445751597063
 21
50.357410626085191
 31
0.0
  0
LINE
  5
958
  8
2
 10
119.2445751597063
 20
37.357410626085198
 30
0.0
 11
119.2445751597063
 21
50.357410626085191
 31
0.0
  0
LINE
  5
959
  8
2
 10
120.39457515970641
 20
54.357410626085198
 30
0.0
 11
120.39457515970641
 21
37.357410626085198
 31
0.0
  0
LINE
  5
95A
  8
2
 10
110.0945751597062
 20
54.357410626085198
 30
0.0
 11
110.0945751597062
 21
37.357410626085198
 31
0.0
  0
LINE
  5
95B
  8
2
 10
112.01136890970631
 20
38.124204376085181
 30
0.0
 11
112.01136890970631
 21
52.357410626085198
 31
0.0
  0
LINE
  5
95C
  8
2
 10
118.4777814097062
 20
38.124204376085181
 30
0.0
 11
118.4777814097062
 21
52.357410626085198
 31
0.0
  0
LINE
  5
95D
  8
2
 10
112.01136890970631
 20
38.124204376085181
 30
0.0
 11
111.2445751597063
 21
37.357410626085198
 31
0.0
  0
LINE
  5
95E
  8
2
 10
119.2445751597063
 20
37.357410626085198
 30
0.0
 11
118.4777814097062
 21
38.124204376085181
 31
0.0
  0
LINE
  5
95F
  8
2
 10
118.4777814097062
 20
38.124204376085181
 30
0.0
 11
112.01136890970631
 21
38.124204376085181
 31
0.0
  0
LINE
  5
960
  8
2
 10
119.2445751597063
 20
50.357410626085191
 30
0.0
 11
111.2445751597063
 21
50.357410626085191
 31
0.0
  0
LINE
  5
961
  8
2
 10
118.4777814097062
 20
52.357410626085198
 30
0.0
 11
112.01136890970631
 21
52.357410626085198
 31
0.0
  0
LINE
  5
962
  8
2
 10
118.4777814097062
 20
52.357410626085198
 30
0.0
 11
115.2445751597063
 21
54.224103124868293
 31
0.0
  0
LINE
  5
963
  8
2
 10
111.2445751597063
 20
50.357410626085191
 30
0.0
 11
112.01136890970631
 21
51.68553636001144
 31
0.0
  0
LINE
  5
964
  8
2
 10
112.01136890970631
 20
52.357410626085198
 30
0.0
 11
115.2445751597063
 21
54.224103124868293
 31
0.0
  0
LINE
  5
965
  8
2
 10
119.39457515970641
 20
55.357410626085191
 30
0.0
 11
111.0945751597062
 21
55.357410626085191
 31
0.0
  0
LINE
  5
966
  8
2
 10
111.0945751597062
 20
55.357410626085191
 30
0.0
 11
110.0945751597062
 21
54.357410626085198
 31
0.0
  0
LINE
  5
967
  8
2
 10
119.2445751597063
 20
50.357410626085191
 30
0.0
 11
118.4777814097062
 21
51.68553636001144
 31
0.0
  0
LINE
  5
968
  8
2
 10
119.39457515970641
 20
55.357410626085191
 30
0.0
 11
120.39457515970641
 21
54.357410626085198
 31
0.0
  0
ARC
  5
979
  8
0
 10
126.64457515970631
 20
66.457410626085192
 30
0.0
 40
4.9000000000000341
 50
90.0
 51
180.0
  0
ARC
  5
97A
  8
0
 10
126.64457515970631
 20
66.457410626085192
 30
0.0
 40
19.899999999999981
 50
90.0
 51
180.0
  0
ARC
  5
97D
  8
0
 10
220.8445751597074
 20
66.457410626087793
 30
0.0
 40
4.9000000000000341
 50
0.0000000000032569
 51
90.0
  0
ARC
  5
97E
  8
0
 10
220.84457515970749
 20
66.457410626087793
 30
0.0
 40
19.899999999999981
 50
0.0000000000032569
 51
90.0
  0
LINE
  5
983
  8
1
 10
173.7445751597063
 20
91.357410626085198
 30
0.0
 11
173.7445751597063
 21
66.357410626085212
 31
0.0
  0
TEXT
  5
A1A
  8
0
 62
     3
 10
0.0
 20
0.0
 30
0.0
 40
10.0
  1
MD-AGR140
  7
STANDARD1
  0
ENDSEC
  0
EOF
