  0
SECTION
  2
HEADER
  9
$ACADVER
  1
AC1009
  9
$INSBASE
 10
0.0
 20
0.0
 30
0.0
  9
$EXTMIN
 10
0.0
 20
-1.4802182810368341
 30
0.0
  9
$EXTMAX
 10
71.273950016024713
 20
73.301613109847295
 30
0.0
  9
$LIMMIN
 10
0.0
 20
0.0
  9
$LIMMAX
 10
12.0
 20
9.0
  9
$ORTHOMODE
 70
     1
  9
$REGENMODE
 70
     1
  9
$FILLMODE
 70
     1
  9
$QTEXTMODE
 70
     0
  9
$MIRRTEXT
 70
     0
  9
$DRAGMODE
 70
     2
  9
$LTSCALE
 40
5.0
  9
$OSMODE
 70
  3071
  9
$ATTMODE
 70
     1
  9
$TEXTSIZE
 40
0.2
  9
$TRACEWID
 40
0.05
  9
$TEXTSTYLE
  7
STANDARD
  9
$CLAYER
  8
0
  9
$CELTYPE
  6
BYLAYER
  9
$CECOLOR
 62
   256
  9
$DIMSCALE
 40
1.0
  9
$DIMASZ
 40
0.18
  9
$DIMEXO
 40
0.0625
  9
$DIMDLI
 40
0.38
  9
$DIMRND
 40
0.0
  9
$DIMDLE
 40
0.0
  9
$DIMEXE
 40
0.18
  9
$DIMTP
 40
0.0
  9
$DIMTM
 40
0.0
  9
$DIMTXT
 40
0.18
  9
$DIMCEN
 40
0.09
  9
$DIMTSZ
 40
0.0
  9
$DIMTOL
 70
     0
  9
$DIMLIM
 70
     0
  9
$DIMTIH
 70
     1
  9
$DIMTOH
 70
     1
  9
$DIMSE1
 70
     0
  9
$DIMSE2
 70
     0
  9
$DIMTAD
 70
     0
  9
$DIMZIN
 70
     0
  9
$DIMBLK
  1

  9
$DIMASO
 70
     1
  9
$DIMSHO
 70
     1
  9
$DIMPOST
  1

  9
$DIMAPOST
  1

  9
$DIMALT
 70
     0
  9
$DIMALTD
 70
     2
  9
$DIMALTF
 40
25.399999999999999
  9
$DIMLFAC
 40
1.0
  9
$DIMTOFL
 70
     0
  9
$DIMTVP
 40
0.0
  9
$DIMTIX
 70
     0
  9
$DIMSOXD
 70
     0
  9
$DIMSAH
 70
     0
  9
$DIMBLK1
  1

  9
$DIMBLK2
  1

  9
$DIMSTYLE
  2
STANDARD
  9
$DIMCLRD
 70
     0
  9
$DIMCLRE
 70
     0
  9
$DIMCLRT
 70
     0
  9
$DIMTFAC
 40
1.0
  9
$DIMGAP
 40
0.09
  9
$LUNITS
 70
     2
  9
$LUPREC
 70
     4
  9
$SKETCHINC
 40
0.1
  9
$FILLETRAD
 40
2.5
  9
$AUNITS
 70
     0
  9
$AUPREC
 70
     0
  9
$MENU
  1
.
  9
$ELEVATION
 40
0.0
  9
$PELEVATION
 40
0.0
  9
$THICKNESS
 40
0.0
  9
$LIMCHECK
 70
     0
  9
$BLIPMODE
 70
     0
  9
$CHAMFERA
 40
0.25
  9
$CHAMFERB
 40
0.25
  9
$SKPOLY
 70
     0
  9
$TDCREATE
 40
2453083.4120647679
  9
$TDUPDATE
 40
2456597.6510109841
  9
$TDINDWG
 40
0.4079393171
  9
$TDUSRTIMER
 40
0.4079392014
  9
$USRTIMER
 70
     1
  9
$ANGBASE
 50
0.0
  9
$ANGDIR
 70
     0
  9
$PDMODE
 70
     0
  9
$PDSIZE
 40
0.0
  9
$PLINEWID
 40
0.0
  9
$COORDS
 70
     1
  9
$SPLFRAME
 70
     0
  9
$SPLINETYPE
 70
     6
  9
$SPLINESEGS
 70
     8
  9
$ATTDIA
 70
     0
  9
$ATTREQ
 70
     1
  9
$HANDLING
 70
     1
  9
$HANDSEED
  5
2658
  9
$SURFTAB1
 70
     6
  9
$SURFTAB2
 70
     6
  9
$SURFTYPE
 70
     6
  9
$SURFU
 70
     6
  9
$SURFV
 70
     6
  9
$UCSNAME
  2

  9
$UCSORG
 10
0.0
 20
0.0
 30
0.0
  9
$UCSXDIR
 10
1.0
 20
0.0
 30
0.0
  9
$UCSYDIR
 10
0.0
 20
1.0
 30
0.0
  9
$PUCSNAME
  2

  9
$PUCSORG
 10
0.0
 20
0.0
 30
0.0
  9
$PUCSXDIR
 10
1.0
 20
0.0
 30
0.0
  9
$PUCSYDIR
 10
0.0
 20
1.0
 30
0.0
  9
$USERI1
 70
     0
  9
$USERI2
 70
     1
  9
$USERI3
 70
     0
  9
$USERI4
 70
     0
  9
$USERI5
 70
     0
  9
$USERR1
 40
0.0
  9
$USERR2
 40
0.0
  9
$USERR3
 40
0.0
  9
$USERR4
 40
0.0
  9
$USERR5
 40
0.0
  9
$WORLDVIEW
 70
     1
  9
$SHADEDGE
 70
     3
  9
$SHADEDIF
 70
    70
  9
$TILEMODE
 70
     1
  9
$MAXACTVP
 70
    64
  9
$PLIMCHECK
 70
     0
  9
$PEXTMIN
 10
0.0
 20
0.0
 30
0.0
  9
$PEXTMAX
 10
0.0
 20
0.0
 30
0.0
  9
$PLIMMIN
 10
0.0
 20
0.0
  9
$PLIMMAX
 10
12.0
 20
9.0
  9
$UNITMODE
 70
     0
  9
$VISRETAIN
 70
     1
  9
$PLINEGEN
 70
     0
  9
$PSLTSCALE
 70
     1
  0
ENDSEC
  0
SECTION
  2
TABLES
  0
TABLE
  2
VPORT
 70
     1
  0
VPORT
  2
*ACTIVE
 70
     0
 10
0.0
 20
0.0
 11
1.0
 21
1.0
 12
35.636975173960003
 22
36.07170621761567
 13
0.0
 23
0.0
 14
0.5
 24
0.5
 15
0.5
 25
0.5
 16
0.0
 26
0.0
 36
1.0
 17
0.0
 27
0.0
 37
0.0
 40
75.971528016535984
 41
2.304913294797688
 42
50.0
 43
0.0
 44
0.0
 50
0.0
 51
0.0
 71
     0
 72
  1000
 73
     1
 74
     2
 75
     0
 76
     0
 77
     0
 78
     0
  0
ENDTAB
  0
TABLE
  2
LTYPE
 70
     4
  0
LTYPE
  2
CONTINUOUS
 70
     0
  3
Solid Line
 72
    65
 73
     0
 40
0.0
  0
LTYPE
  2
CENTER
 70
     0
  3
____ _ ____ _ ____ _ ____ _ ____ _ ____ _ ____
 72
    65
 73
     4
 40
2.0
 49
1.25
 49
-0.25
 49
0.25
 49
-0.25
  0
LTYPE
  2
HIDDEN
 70
     0
  3
Hidden __ __ __ __ __ __ __ __ __ __ __ __ __ _
 72
    65
 73
     2
 40
0.375
 49
0.25
 49
-0.125
  0
LTYPE
  2
PHANTOM2
 70
     0
  3
___ _ _ ___ _ _ ___ _ _ ___ _ _
 72
    65
 73
     6
 40
1.25
 49
0.625
 49
-0.125
 49
0.125
 49
-0.125
 49
0.125
 49
-0.125
  0
ENDTAB
  0
TABLE
  2
LAYER
 70
     4
  0
LAYER
  2
0
 70
     0
 62
     7
  6
CONTINUOUS
  0
LAYER
  2
1
 70
     0
 62
     1
  6
CENTER
  0
LAYER
  2
2
 70
     0
 62
     2
  6
HIDDEN
  0
LAYER
  2
3
 70
     0
 62
     3
  6
CONTINUOUS
  0
ENDTAB
  0
TABLE
  2
STYLE
 70
     2
  0
STYLE
  2
STANDARD
 70
     0
 40
0.0
 41
1.0
 50
0.0
 71
     0
 42
0.2
  3
simplex.shx
  4
bigfont.shx
  0
STYLE
  2
STANDARD1
 70
     0
 40
0.0
 41
1.0
 50
0.0
 71
     0
 42
3.0
  3
txt
  4

  0
ENDTAB
  0
TABLE
  2
VIEW
 70
     0
  0
ENDTAB
  0
TABLE
  2
UCS
 70
     0
  0
ENDTAB
  0
TABLE
  2
APPID
 70
     4
  0
APPID
  2
ACAD
 70
     0
  0
APPID
  2
DCO15
 70
     0
  0
APPID
  2
ACAD_MLEADERVER
 70
     0
  0
APPID
  2
ACAD_NAV_VCDISPLAY
 70
     0
  0
ENDTAB
  0
TABLE
  2
DIMSTYLE
 70
     1
  0
DIMSTYLE
  2
STANDARD
 70
     0
  3

  4

  5

  6

  7

 40
1.0
 41
0.18
 42
0.0625
 43
0.38
 44
0.18
 45
0.0
 46
0.0
 47
0.0
 48
0.0
140
0.18
141
0.09
142
0.0
143
25.399999999999999
144
1.0
145
0.0
146
1.0
147
0.09
 71
     0
 72
     0
 73
     1
 74
     1
 75
     0
 76
     0
 77
     0
 78
     0
170
     0
171
     2
172
     0
173
     0
174
     0
175
     0
176
     0
177
     0
178
     0
  0
ENDTAB
  0
ENDSEC
  0
SECTION
  2
BLOCKS
  0
BLOCK
  8
0
  2
$MODEL_SPACE
 70
     0
 10
0.0
 20
0.0
 30
0.0
  3
$MODEL_SPACE
  1

  0
ENDBLK
  5
21
  8
0
  0
BLOCK
 67
     1
  8
0
  2
$PAPER_SPACE
 70
     0
 10
0.0
 20
0.0
 30
0.0
  3
$PAPER_SPACE
  1

  0
ENDBLK
  5
5B
 67
     1
  8
0
  0
BLOCK
  8
0
  2
STDGX5
 70
     0
 10
0.0
 20
0.0
 30
0.0
  3
STDGX5
  1

  0
ENDBLK
  5
16DA
  8
0
  0
ENDSEC
  0
SECTION
  2
ENTITIES
  0
INSERT
  5
1747
  8
0
  2
STDGX5
 10
142.93956481232809
 20
0.1619180124085346
 30
0.0
  0
LINE
  5
232F
  8
0
 10
63.447291336270972
 20
46.584889369917079
 30
0.0
 11
68.773950016024742
 21
45.31488936991709
 31
0.0
  0
LINE
  5
2330
  8
0
 10
62.812463371608878
 20
46.113864788236818
 30
0.0
 11
63.434200792664413
 21
46.535654875304488
 31
0.0
  0
LINE
  5
2331
  8
0
 10
42.958600016024789
 20
37.014715403746301
 30
0.0
 11
42.328464755751739
 21
36.466635585729733
 31
0.0
  0
ARC
  5
2332
  8
0
 10
42.543222005383271
 20
36.983608449162801
 30
0.0
 40
0.5170508158790808
 50
270.9949272972429
 51
0.9615180119196333
  0
LINE
  5
2333
  8
0
 10
42.958600016024789
 20
45.99439672165385
 30
0.0
 11
42.958600016024839
 21
37.014715403746322
 31
0.0
  0
LINE
  5
2334
  8
0
 10
43.060200016024751
 20
46.584889369917128
 30
0.0
 11
43.060200016024751
 21
36.99228501036967
 31
0.0
  0
LINE
  5
2335
  8
0
 10
42.958600016024732
 20
45.99439672165385
 30
0.0
 11
42.796319043596739
 21
46.177244441517843
 31
0.0
  0
LINE
  5
2336
  8
0
 10
42.796319043596739
 20
46.177244441517843
 30
0.0
 11
42.235006852010379
 21
46.535654875304509
 31
0.0
  0
LINE
  5
2337
  8
0
 10
29.9602000160248
 20
46.584889369917057
 30
0.0
 11
29.9602000160248
 21
37.219889369917141
 31
0.0
  0
ARC
  5
2338
  8
0
 10
37.105200016024753
 20
37.219889369917112
 30
0.0
 40
7.1449999999999987
 50
179.9999999999992
 51
0.0
  0
LINE
  5
2339
  8
0
 10
44.25020001602482
 20
46.584889369917057
 30
0.0
 11
44.25020001602482
 21
37.219889369917141
 31
0.0
  0
LINE
  5
233A
  8
0
 10
68.013419394358081
 20
30.074889369917098
 30
0.0
 11
68.773950016024699
 21
30.836906671807299
 31
0.0
  0
LINE
  5
233B
  8
0
 10
62.930022118128193
 20
45.931480902155847
 30
0.0
 11
63.250879697884272
 21
45.84617079239753
 31
0.0
  0
POLYLINE
  5
233C
  8
0
 66
     1
 10
0.0
 20
0.0
 30
0.0
 70
   128
  0
VERTEX
  5
233D
  8
0
 10
62.921766506749599
 20
45.946343555911888
 30
0.0
  0
VERTEX
  5
233E
  8
0
 10
62.92476772032461
 20
45.941497900433447
 30
0.0
  0
VERTEX
  5
233F
  8
0
 10
62.927521644091449
 20
45.936539985926643
 30
0.0
  0
VERTEX
  5
2340
  8
0
 10
62.930022118128193
 20
45.931480902155847
 30
0.0
  0
SEQEND
  5
2341
  8
0
  0
LINE
  5
2342
  8
0
 10
62.921766506749599
 20
45.946343555911952
 30
0.0
 11
62.812463371608878
 21
46.113864788236818
 31
0.0
  0
LINE
  5
2343
  8
0
 10
61.508123373364008
 20
40.583615435849723
 30
0.0
 11
60.797183816276089
 21
37.90971961873818
 31
0.0
  0
ARC
  5
2344
  8
0
 10
61.429514647241319
 20
40.683363459275547
 30
0.0
 40
0.1269999999999934
 50
308.24069091581418
 51
21.980486207161729
  0
LINE
  5
2345
  8
0
 10
62.258686583915683
 20
43.406538719782027
 30
0.0
 11
61.547283193044763
 21
40.730898389793367
 31
0.0
  0
ARC
  5
2346
  8
0
 10
62.180077857792952
 20
43.506286743207873
 30
0.0
 40
0.1270000000000071
 50
308.24069091581009
 51
21.980486207122379
  0
LINE
  5
2347
  8
0
 10
62.930022118128193
 20
45.931480902155847
 30
0.0
 11
62.297846403596452
 21
43.553821673725693
 31
0.0
  0
POLYLINE
  5
2348
  8
0
 66
     1
 10
0.0
 20
0.0
 30
0.0
 70
   128
  0
VERTEX
  5
2349
  8
0
 10
62.289940315737653
 20
43.569998911075189
 30
0.0
  0
VERTEX
  5
234A
  8
0
 10
62.292829846132179
 20
43.564733206963588
 30
0.0
  0
VERTEX
  5
234B
  8
0
 10
62.295467175126731
 20
43.559336770966929
 30
0.0
  0
VERTEX
  5
234C
  8
0
 10
62.297846403596452
 20
43.553821673725693
 30
0.0
  0
SEQEND
  5
234D
  8
0
  0
LINE
  5
234E
  8
0
 10
61.547283193044763
 20
40.730898389793367
 30
0.0
 11
62.258686583915683
 21
43.406538719782027
 31
0.0
  0
POLYLINE
  5
234F
  8
0
 66
     1
 10
0.0
 20
0.0
 30
0.0
 70
   128
  0
VERTEX
  5
2350
  8
0
 10
61.539377105185991
 20
40.74707562714282
 30
0.0
  0
VERTEX
  5
2351
  8
0
 10
61.542266635580518
 20
40.741809923031283
 30
0.0
  0
VERTEX
  5
2352
  8
0
 10
61.54490396457507
 20
40.736413487034618
 30
0.0
  0
VERTEX
  5
2353
  8
0
 10
61.547283193044763
 20
40.730898389793367
 30
0.0
  0
SEQEND
  5
2354
  8
0
  0
POLYLINE
  5
2355
  8
0
 66
     1
 10
0.0
 20
0.0
 30
0.0
 70
   128
  0
VERTEX
  5
2356
  8
0
 10
62.258686583915647
 20
43.406538719782027
 30
0.0
  0
VERTEX
  5
2357
  8
0
 10
62.25388244410393
 20
43.402933547614012
 30
0.0
  0
VERTEX
  5
2358
  8
0
 10
62.248913219664729
 20
43.399559553813738
 30
0.0
  0
VERTEX
  5
2359
  8
0
 10
62.243790025660239
 20
43.396424285263222
 30
0.0
  0
SEQEND
  5
235A
  8
0
  0
POLYLINE
  5
235B
  8
0
 66
     1
 10
0.0
 20
0.0
 30
0.0
 70
   128
  0
VERTEX
  5
235C
  8
0
 10
61.508123373364008
 20
40.583615435849723
 30
0.0
  0
VERTEX
  5
235D
  8
0
 10
61.50331923355224
 20
40.580010263681693
 30
0.0
  0
VERTEX
  5
235E
  8
0
 10
61.498350009113061
 20
40.576636269881369
 30
0.0
  0
VERTEX
  5
235F
  8
0
 10
61.493226815108557
 20
40.573501001330847
 30
0.0
  0
SEQEND
  5
2360
  8
0
  0
LINE
  5
2361
  8
0
 10
60.788813894634302
 20
37.924152343210622
 30
0.0
 11
60.797183816276089
 21
37.90971961873818
 31
0.0
  0
LINE
  5
2362
  8
0
 10
62.297846403596452
 20
43.553821673725693
 30
0.0
 11
61.362523752857719
 21
45.169195211361867
 31
0.0
  0
LINE
  5
2363
  8
0
 10
61.395156935925201
 20
45.291931006315458
 30
0.0
 11
61.362523752857719
 21
45.169195211361867
 31
0.0
  0
LINE
  5
2364
  8
0
 10
62.812463371608871
 20
46.113864788236818
 30
0.0
 11
61.395156935925201
 21
45.291931006315458
 31
0.0
  0
LINE
  5
2365
  8
0
 10
61.547283193044763
 20
40.730898389793367
 30
0.0
 11
60.611960542306058
 21
42.346271927429548
 31
0.0
  0
LINE
  5
2366
  8
0
 10
60.644593725373539
 20
42.469007722383211
 30
0.0
 11
60.611960542306058
 21
42.346271927429548
 31
0.0
  0
LINE
  5
2367
  8
0
 10
60.644593725373539
 20
42.469007722383211
 30
0.0
 11
62.258686583915683
 21
43.406538719782027
 31
0.0
  0
LINE
  5
2368
  8
0
 10
59.894030514821907
 20
39.646084438450963
 30
0.0
 11
59.861397331754382
 21
39.523348643497357
 31
0.0
  0
LINE
  5
2369
  8
0
 10
59.894030514821907
 20
39.646084438450963
 30
0.0
 11
61.508123373364008
 21
40.583615435849723
 31
0.0
  0
LINE
  5
236A
  8
0
 10
61.032731286273822
 20
37.503551929223811
 30
0.0
 11
59.861397331754397
 21
39.523348643497357
 31
0.0
  0
LINE
  5
236B
  8
0
 10
68.013419394358081
 20
30.074889369917098
 30
0.0
 11
68.013419394358081
 21
30.074889369917098
 31
0.0
  0
LINE
  5
236C
  8
0
 10
60.957310646103323
 20
30.07488936991713
 30
0.0
 11
60.957310646103281
 21
37.219889369917141
 31
0.0
  0
LINE
  5
236D
  8
0
 10
68.013419394358081
 20
30.074889369917098
 30
0.0
 11
60.957310646103259
 21
30.07488936991712
 31
0.0
  0
LINE
  5
236E
  8
0
 10
63.447291336270972
 20
46.584889369917079
 30
0.0
 11
60.957310646103281
 21
37.219889369917112
 31
0.0
  0
LINE
  5
236F
  8
0
 10
29.960200016024789
 20
46.584889369917093
 30
0.0
 11
44.250200016024799
 21
46.584889369917107
 31
0.0
  0
LINE
  5
2370
  8
1
 10
37.10520001602481
 20
49.084889369917093
 30
0.0
 11
37.105200016024753
 21
27.574889369917098
 31
0.0
  0
LINE
  5
2371
  8
1
 10
46.748950016024729
 20
37.219889369917112
 30
0.0
 11
27.460478114753251
 21
37.219889369917169
 31
0.0
  0
LINE
  5
2372
  8
0
 10
42.552200016021388
 20
36.466635585729719
 30
0.0
 11
31.658200016027731
 21
36.466635585729719
 31
0.0
  0
ARC
  5
2373
  8
0
 10
31.66717802666631
 20
36.983608449162801
 30
0.0
 40
0.5170508158790808
 50
179.03848198808029
 51
269.00507270275722
  0
LINE
  5
2374
  8
0
 10
31.150200016024829
 20
46.584889369917128
 30
0.0
 11
31.150200016024829
 21
36.99228501036967
 31
0.0
  0
ARC
  5
2375
  8
3
 10
35.001466093196477
 20
44.388823667737547
 30
0.0
 40
1.180453649644494
 50
219.78896229689741
 51
226.18499224794689
  0
ARC
  5
2376
  8
3
 10
39.20893393885865
 20
44.388823667732552
 30
0.0
 40
1.180453649637069
 50
313.81500775203068
 51
320.21103770312101
  0
ARC
  5
2377
  8
3
 10
37.922466093198778
 20
44.388823667740162
 30
0.0
 40
1.1804536496482421
 50
219.78896229691011
 51
226.1849922479405
  0
ARC
  5
2378
  8
3
 10
33.366933938852192
 20
44.38882366773931
 30
0.0
 40
1.1804536496469751
 50
313.8150077520578
 51
320.2110377030952
  0
ARC
  5
2379
  8
3
 10
40.843466093201329
 20
44.38882366774272
 30
0.0
 40
1.1804536496521341
 50
219.78896229691529
 51
226.18499224792191
  0
ARC
  5
237A
  8
3
 10
36.287933938845782
 20
44.38882366774466
 30
0.0
 40
1.180453649654994
 50
313.8150077520894
 51
320.21103770308241
  0
ARC
  5
237B
  8
3
 10
40.624294582899402
 20
44.141674310683818
 30
0.0
 40
0.85047514215528
 50
225.3118597616251
 51
233.29775870028581
  0
ARC
  5
237C
  8
3
 10
39.428105449157393
 20
44.141674310674439
 30
0.0
 40
0.8504751421430086
 50
306.70224129966363
 51
314.68814023843879
  0
ARC
  5
237D
  8
3
 10
34.782294582897009
 20
44.14167431068018
 30
0.0
 40
0.8504751421504849
 50
225.31185976160671
 51
233.29775870031199
  0
ARC
  5
237E
  8
3
 10
33.586105449150132
 20
44.141674310683939
 30
0.0
 40
0.8504751421554239
 50
306.70224129971598
 51
314.6881402383766
  0
ARC
  5
237F
  8
3
 10
37.703294582894102
 20
44.141674310676997
 30
0.0
 40
0.8504751421464236
 50
225.3118597615773
 51
233.29775870032029
  0
ARC
  5
2380
  8
3
 10
36.507105449153393
 20
44.141674310679669
 30
0.0
 40
0.8504751421498223
 50
306.70224129968977
 51
314.68814023840253
  0
LINE
  5
2381
  8
0
 10
31.251800016024792
 20
40.794278043074449
 30
0.0
 11
31.251800016024792
 21
40.646995089130741
 31
0.0
  0
ARC
  5
2382
  8
3
 10
35.001466093187616
 20
41.565900383797057
 30
0.0
 40
1.18045364963248
 50
219.78896229686731
 51
226.18499224798481
  0
POLYLINE
  5
2383
  8
0
 66
     1
 10
0.0
 20
0.0
 30
0.0
 70
   128
  0
VERTEX
  5
2384
  8
0
 10
31.251800016024848
 20
40.794278043074399
 30
0.0
  0
VERTEX
  5
2385
  8
0
 10
31.25651858331571
 20
40.799793140315643
 30
0.0
  0
VERTEX
  5
2386
  8
0
 10
31.261056153568241
 20
40.805189576312287
 30
0.0
  0
VERTEX
  5
2387
  8
0
 10
31.265402577235822
 20
40.810455280423888
 30
0.0
  0
SEQEND
  5
2388
  8
0
  0
ARC
  5
2389
  8
3
 10
39.208933938855949
 20
41.565900383802862
 30
0.0
 40
1.1804536496408651
 50
313.81500775203523
 51
320.21103770310788
  0
ARC
  5
238A
  8
3
 10
37.922466093196761
 20
41.565900383805868
 30
0.0
 40
1.180453649645411
 50
219.78896229689971
 51
226.1849922479463
  0
ARC
  5
238B
  8
3
 10
33.366933938863163
 20
41.565900383796709
 30
0.0
 40
1.1804536496319791
 50
313.81500775201692
 51
320.21103770313562
  0
ARC
  5
238C
  8
3
 10
40.843466093201329
 20
41.565900383810352
 30
0.0
 40
1.1804536496521341
 50
219.78896229691529
 51
226.18499224792191
  0
ARC
  5
238D
  8
3
 10
36.28793393885303
 20
41.565900383805747
 30
0.0
 40
1.1804536496452449
 50
313.8150077520537
 51
320.2110377031027
  0
LINE
  5
238E
  8
0
 10
31.414080988452842
 20
46.177244441517843
 30
0.0
 11
31.975393180039191
 21
46.535654875304509
 31
0.0
  0
ARC
  5
238F
  8
3
 10
34.184200016025272
 20
46.143130396079087
 30
0.0
 40
0.1659872704161336
 50
57.246845702302878
 51
122.75315429772419
  0
ARC
  5
2390
  8
3
 10
37.10520001602481
 20
46.143299550134948
 30
0.0
 40
0.1658450355438664
 50
57.215229002585239
 51
122.784770997405
  0
ARC
  5
2391
  8
3
 10
40.026200016024433
 20
46.143130396078917
 30
0.0
 40
0.1659872704162515
 50
57.246845702310509
 51
122.7531542976794
  0
LINE
  5
2392
  8
0
 10
31.975393180039191
 20
46.535654875304488
 30
0.0
 11
42.2350068520104
 21
46.535654875304488
 31
0.0
  0
LINE
  5
2393
  8
3
 10
35.70820001602533
 20
45.355310659596469
 30
0.0
 11
35.581200016025441
 21
45.355310659596469
 31
0.0
  0
LINE
  5
2394
  8
3
 10
32.787200016025452
 20
45.355310659596469
 30
0.0
 11
32.660200016025392
 21
45.355310659596469
 31
0.0
  0
LINE
  5
2395
  8
3
 10
38.629200016024221
 20
45.355310659596469
 30
0.0
 11
38.50220001602429
 21
45.355310659596469
 31
0.0
  0
LINE
  5
2396
  8
3
 10
41.550200016024199
 20
45.355310659596469
 30
0.0
 11
41.423200016024161
 21
45.355310659596469
 31
0.0
  0
LINE
  5
2397
  8
0
 10
31.251800016024792
 20
37.014715403746301
 30
0.0
 11
31.881935276297838
 21
36.466635585729733
 31
0.0
  0
LINE
  5
2398
  8
3
 10
38.50220001602429
 20
45.232574864642871
 30
0.0
 11
38.50220001602429
 21
45.355310659596469
 31
0.0
  0
LINE
  5
2399
  8
3
 10
38.50220001602429
 20
45.355310659596469
 30
0.0
 11
37.195002577235527
 21
46.28272722247636
 31
0.0
  0
LINE
  5
239A
  8
3
 10
37.195002577235527
 20
43.633378564356249
 30
0.0
 11
37.195002577235527
 21
46.28272722247636
 31
0.0
  0
LINE
  5
239B
  8
3
 10
41.423200016024197
 20
45.232574864642871
 30
0.0
 11
41.423200016024161
 21
45.355310659596469
 31
0.0
  0
LINE
  5
239C
  8
3
 10
41.423200016024161
 20
45.355310659596469
 30
0.0
 11
40.116002577235122
 21
46.28272722247636
 31
0.0
  0
LINE
  5
239D
  8
3
 10
40.116002577235122
 20
43.633378564356249
 30
0.0
 11
40.116002577235122
 21
46.28272722247636
 31
0.0
  0
LINE
  5
239E
  8
3
 10
35.581200016025441
 20
45.355310659596469
 30
0.0
 11
35.581200016025441
 21
45.232574864642871
 31
0.0
  0
LINE
  5
239F
  8
3
 10
34.274002577235883
 20
46.28272722247636
 30
0.0
 11
35.581200016025441
 21
45.355310659596469
 31
0.0
  0
LINE
  5
23A0
  8
3
 10
34.274002577235883
 20
43.633378564356192
 30
0.0
 11
34.274002577235883
 21
46.28272722247636
 31
0.0
  0
LINE
  5
23A1
  8
3
 10
32.660200016025392
 20
45.355310659596469
 30
0.0
 11
32.660200016025392
 21
45.232574864642871
 31
0.0
  0
LINE
  5
23A2
  8
3
 10
31.501680988452851
 20
46.177244441517821
 30
0.0
 11
32.660200016025392
 21
45.355310659596469
 31
0.0
  0
LINE
  5
23A3
  8
0
 10
31.251800016024848
 20
45.99439672165385
 30
0.0
 11
31.414080988452842
 21
46.177244441517843
 31
0.0
  0
LINE
  5
23A4
  8
3
 10
34.094397454814562
 20
43.633378564356192
 30
0.0
 11
34.094397454814562
 21
46.28272722247636
 31
0.0
  0
LINE
  5
23A5
  8
3
 10
32.787200016025452
 20
45.355310659596469
 30
0.0
 11
34.094397454814562
 21
46.28272722247636
 31
0.0
  0
LINE
  5
23A6
  8
3
 10
32.787200016025452
 20
45.232574864642871
 30
0.0
 11
32.787200016025452
 21
45.355310659596469
 31
0.0
  0
LINE
  5
23A7
  8
3
 10
31.339400016024801
 20
43.617201327006697
 30
0.0
 11
32.660200016025392
 21
45.232574864642871
 31
0.0
  0
LINE
  5
23A8
  8
3
 10
31.339400016024801
 20
43.617201327006697
 30
0.0
 11
34.094397454814562
 21
43.633378564356192
 31
0.0
  0
LINE
  5
23A9
  8
3
 10
32.787200016025452
 20
45.232574864642871
 30
0.0
 11
34.094397454814562
 21
43.633378564356192
 31
0.0
  0
LINE
  5
23AA
  8
3
 10
32.787200016025452
 20
45.232574864642871
 30
0.0
 11
32.660200016025392
 21
45.232574864642871
 31
0.0
  0
LINE
  5
23AB
  8
3
 10
37.015397454814092
 20
43.633378564356192
 30
0.0
 11
37.015397454814092
 21
46.28272722247636
 31
0.0
  0
LINE
  5
23AC
  8
3
 10
35.70820001602533
 20
45.355310659596469
 30
0.0
 11
37.015397454814092
 21
46.28272722247636
 31
0.0
  0
LINE
  5
23AD
  8
3
 10
35.70820001602533
 20
45.232574864642871
 30
0.0
 11
35.70820001602533
 21
45.355310659596469
 31
0.0
  0
LINE
  5
23AE
  8
3
 10
34.274002577235883
 20
43.633378564356192
 30
0.0
 11
35.581200016025441
 21
45.232574864642871
 31
0.0
  0
LINE
  5
23AF
  8
3
 10
34.274002577235883
 20
43.633378564356192
 30
0.0
 11
37.015397454814092
 21
43.633378564356192
 31
0.0
  0
LINE
  5
23B0
  8
3
 10
35.70820001602533
 20
45.232574864642871
 30
0.0
 11
37.015397454814092
 21
43.633378564356192
 31
0.0
  0
LINE
  5
23B1
  8
3
 10
35.70820001602533
 20
45.232574864642871
 30
0.0
 11
35.581200016025441
 21
45.232574864642871
 31
0.0
  0
LINE
  5
23B2
  8
3
 10
39.936397454813743
 20
43.633378564356192
 30
0.0
 11
39.936397454813743
 21
46.28272722247636
 31
0.0
  0
LINE
  5
23B3
  8
3
 10
39.936397454813743
 20
46.28272722247636
 30
0.0
 11
38.629200016024221
 21
45.355310659596469
 31
0.0
  0
LINE
  5
23B4
  8
3
 10
38.629200016024221
 20
45.355310659596469
 30
0.0
 11
38.629200016024221
 21
45.232574864642871
 31
0.0
  0
LINE
  5
23B5
  8
3
 10
38.629200016024221
 20
45.232574864642871
 30
0.0
 11
38.50220001602429
 21
45.232574864642871
 31
0.0
  0
LINE
  5
23B6
  8
3
 10
38.50220001602429
 20
45.232574864642871
 30
0.0
 11
37.195002577235527
 21
43.633378564356249
 31
0.0
  0
LINE
  5
23B7
  8
3
 10
37.195002577235527
 20
43.633378564356249
 30
0.0
 11
39.936397454813743
 21
43.633378564356192
 31
0.0
  0
LINE
  5
23B8
  8
3
 10
39.936397454813743
 20
43.633378564356192
 30
0.0
 11
38.629200016024221
 21
45.232574864642871
 31
0.0
  0
LINE
  5
23B9
  8
3
 10
41.550200016024199
 20
45.232574864642871
 30
0.0
 11
41.423200016024197
 21
45.232574864642871
 31
0.0
  0
LINE
  5
23BA
  8
3
 10
41.423200016024197
 20
45.232574864642871
 30
0.0
 11
40.116002577235122
 21
43.633378564356249
 31
0.0
  0
LINE
  5
23BB
  8
3
 10
40.116002577235122
 20
43.633378564356249
 30
0.0
 11
42.871000016024823
 21
43.617201327006697
 31
0.0
  0
LINE
  5
23BC
  8
3
 10
42.708719043596737
 20
46.177244441517821
 30
0.0
 11
41.550200016024199
 21
45.355310659596469
 31
0.0
  0
LINE
  5
23BD
  8
3
 10
41.550200016024199
 20
45.355310659596469
 30
0.0
 11
41.550200016024199
 21
45.232574864642871
 31
0.0
  0
LINE
  5
23BE
  8
3
 10
42.871000016024823
 20
43.617201327006697
 30
0.0
 11
41.550200016024199
 21
45.232574864642871
 31
0.0
  0
POLYLINE
  5
23BF
  8
0
 66
     1
 10
0.0
 20
0.0
 30
0.0
 70
   128
  0
VERTEX
  5
23C0
  8
0
 10
31.265402577235822
 20
40.636880654611872
 30
0.0
  0
VERTEX
  5
23C1
  8
0
 10
31.261056153568241
 20
40.640015923162387
 30
0.0
  0
VERTEX
  5
23C2
  8
0
 10
31.25651858331571
 20
40.643389916962711
 30
0.0
  0
VERTEX
  5
23C3
  8
0
 10
31.251800016024792
 20
40.646995089130741
 30
0.0
  0
SEQEND
  5
23C4
  8
0
  0
ARC
  5
23C5
  8
3
 10
34.782294582898487
 20
41.31875102674924
 30
0.0
 40
0.8504751421524549
 50
225.31185976160501
 51
233.29775870029161
  0
ARC
  5
23C6
  8
3
 10
33.586105449151937
 20
41.31875102674924
 30
0.0
 40
0.8504751421524789
 50
306.70224129971012
 51
314.6881402383973
  0
ARC
  5
23C7
  8
3
 10
40.62429458289656
 20
41.31875102674821
 30
0.0
 40
0.8504751421509714
 50
225.31185976160731
 51
233.29775870031011
  0
ARC
  5
23C8
  8
3
 10
39.428105449158267
 20
41.318751026740941
 30
0.0
 40
0.8504751421415875
 50
306.7022412996613
 51
314.68814023844982
  0
ARC
  5
23C9
  8
3
 10
37.703294582897001
 20
41.31875102674821
 30
0.0
 40
0.8504751421509892
 50
225.31185976160731
 51
233.29775870031199
  0
ARC
  5
23CA
  8
3
 10
36.507105449154409
 20
41.31875102674605
 30
0.0
 40
0.8504751421482101
 50
306.70224129968562
 51
314.68814023841338
  0
LINE
  5
23CB
  8
3
 10
31.339400016024801
 20
43.469918373063038
 30
0.0
 11
34.094397454814562
 21
43.459803938544169
 31
0.0
  0
LINE
  5
23CC
  8
3
 10
34.274002577235883
 20
43.459803938544169
 30
0.0
 11
37.015397454814092
 21
43.459803938544169
 31
0.0
  0
LINE
  5
23CD
  8
3
 10
37.195002577235527
 20
43.459803938544169
 30
0.0
 11
39.936397454813743
 21
43.459803938544219
 31
0.0
  0
LINE
  5
23CE
  8
3
 10
40.116002577235122
 20
43.459803938544169
 30
0.0
 11
42.871000016024823
 21
43.469918373063038
 31
0.0
  0
LINE
  5
23CF
  8
3
 10
38.50220001602429
 20
42.532387375664207
 30
0.0
 11
38.629200016024221
 21
42.532387375664207
 31
0.0
  0
LINE
  5
23D0
  8
3
 10
41.423200016024161
 20
42.532387375664207
 30
0.0
 11
41.550200016024199
 21
42.532387375664207
 31
0.0
  0
LINE
  5
23D1
  8
3
 10
35.581200016025441
 20
42.532387375664207
 30
0.0
 11
35.70820001602533
 21
42.532387375664207
 31
0.0
  0
LINE
  5
23D2
  8
3
 10
32.660200016025392
 20
42.532387375664207
 30
0.0
 11
32.787200016025452
 21
42.532387375664207
 31
0.0
  0
LINE
  5
23D3
  8
3
 10
38.50220001602429
 20
42.409651580710552
 30
0.0
 11
38.50220001602429
 21
42.532387375664207
 31
0.0
  0
LINE
  5
23D4
  8
3
 10
37.195002577235527
 20
43.459803938544169
 30
0.0
 11
38.50220001602429
 21
42.532387375664207
 31
0.0
  0
LINE
  5
23D5
  8
3
 10
37.195002577235527
 20
40.810455280423938
 30
0.0
 11
37.195002577235527
 21
43.459803938544169
 31
0.0
  0
LINE
  5
23D6
  8
3
 10
41.423200016024161
 20
42.409651580710552
 30
0.0
 11
41.423200016024161
 21
42.532387375664207
 31
0.0
  0
LINE
  5
23D7
  8
3
 10
40.116002577235122
 20
43.459803938544169
 30
0.0
 11
41.423200016024161
 21
42.532387375664207
 31
0.0
  0
LINE
  5
23D8
  8
3
 10
40.116002577235122
 20
40.810455280423881
 30
0.0
 11
40.116002577235122
 21
43.459803938544169
 31
0.0
  0
LINE
  5
23D9
  8
3
 10
32.660200016025392
 20
42.532387375664207
 30
0.0
 11
32.660200016025392
 21
42.409651580710552
 31
0.0
  0
LINE
  5
23DA
  8
3
 10
32.660200016025392
 20
42.532387375664207
 30
0.0
 11
31.339400016024801
 21
43.469918373063038
 31
0.0
  0
LINE
  5
23DB
  8
3
 10
35.581200016025441
 20
42.532387375664207
 30
0.0
 11
35.581200016025441
 21
42.409651580710552
 31
0.0
  0
LINE
  5
23DC
  8
3
 10
35.581200016025441
 20
42.532387375664207
 30
0.0
 11
34.274002577235883
 21
43.459803938544169
 31
0.0
  0
LINE
  5
23DD
  8
3
 10
34.274002577235883
 20
40.810455280423881
 30
0.0
 11
34.274002577235883
 21
43.459803938544169
 31
0.0
  0
LINE
  5
23DE
  8
3
 10
34.274002577235883
 20
40.810455280423881
 30
0.0
 11
35.581200016025441
 21
42.409651580710552
 31
0.0
  0
LINE
  5
23DF
  8
3
 10
34.274002577235883
 20
40.810455280423881
 30
0.0
 11
37.015397454814092
 21
40.810455280423881
 31
0.0
  0
LINE
  5
23E0
  8
3
 10
35.70820001602533
 20
42.409651580710552
 30
0.0
 11
35.581200016025441
 21
42.409651580710552
 31
0.0
  0
LINE
  5
23E1
  8
3
 10
31.339400016024801
 20
40.794278043074442
 30
0.0
 11
32.660200016025392
 21
42.409651580710552
 31
0.0
  0
LINE
  5
23E2
  8
3
 10
31.339400016024801
 20
40.794278043074442
 30
0.0
 11
34.094397454814562
 21
40.810455280423817
 31
0.0
  0
LINE
  5
23E3
  8
3
 10
32.787200016025452
 20
42.409651580710552
 30
0.0
 11
32.660200016025392
 21
42.409651580710552
 31
0.0
  0
LINE
  5
23E4
  8
3
 10
35.70820001602533
 20
42.409651580710552
 30
0.0
 11
37.015397454814092
 21
40.810455280423881
 31
0.0
  0
LINE
  5
23E5
  8
3
 10
37.015397454814092
 20
40.810455280423881
 30
0.0
 11
37.015397454814092
 21
43.459803938544169
 31
0.0
  0
LINE
  5
23E6
  8
3
 10
37.015397454814092
 20
43.459803938544169
 30
0.0
 11
35.70820001602533
 21
42.532387375664207
 31
0.0
  0
LINE
  5
23E7
  8
3
 10
35.70820001602533
 20
42.409651580710552
 30
0.0
 11
35.70820001602533
 21
42.532387375664207
 31
0.0
  0
LINE
  5
23E8
  8
3
 10
32.787200016025452
 20
42.409651580710552
 30
0.0
 11
34.094397454814562
 21
40.810455280423817
 31
0.0
  0
LINE
  5
23E9
  8
3
 10
34.094397454814562
 20
40.810455280423817
 30
0.0
 11
34.094397454814562
 21
43.459803938544169
 31
0.0
  0
LINE
  5
23EA
  8
3
 10
34.094397454814562
 20
43.459803938544169
 30
0.0
 11
32.787200016025452
 21
42.532387375664207
 31
0.0
  0
LINE
  5
23EB
  8
3
 10
32.787200016025452
 20
42.409651580710552
 30
0.0
 11
32.787200016025452
 21
42.532387375664207
 31
0.0
  0
LINE
  5
23EC
  8
3
 10
41.550200016024199
 20
42.409651580710552
 30
0.0
 11
41.423200016024161
 21
42.409651580710552
 31
0.0
  0
LINE
  5
23ED
  8
3
 10
41.423200016024161
 20
42.409651580710552
 30
0.0
 11
40.116002577235122
 21
40.810455280423881
 31
0.0
  0
LINE
  5
23EE
  8
3
 10
40.116002577235122
 20
40.810455280423881
 30
0.0
 11
42.871000016024823
 21
40.794278043074378
 31
0.0
  0
LINE
  5
23EF
  8
3
 10
38.629200016024221
 20
42.409651580710552
 30
0.0
 11
38.50220001602429
 21
42.409651580710552
 31
0.0
  0
LINE
  5
23F0
  8
3
 10
38.50220001602429
 20
42.409651580710552
 30
0.0
 11
37.195002577235527
 21
40.810455280423938
 31
0.0
  0
LINE
  5
23F1
  8
3
 10
37.195002577235527
 20
40.810455280423938
 30
0.0
 11
39.936397454813743
 21
40.810455280423817
 31
0.0
  0
LINE
  5
23F2
  8
3
 10
39.936397454813743
 20
40.810455280423817
 30
0.0
 11
39.936397454813743
 21
43.459803938544219
 31
0.0
  0
LINE
  5
23F3
  8
3
 10
38.629200016024221
 20
42.532387375664207
 30
0.0
 11
39.936397454813743
 21
43.459803938544219
 31
0.0
  0
LINE
  5
23F4
  8
3
 10
38.629200016024221
 20
42.532387375664207
 30
0.0
 11
38.629200016024221
 21
42.409651580710552
 31
0.0
  0
LINE
  5
23F5
  8
3
 10
39.936397454813743
 20
40.810455280423817
 30
0.0
 11
38.629200016024221
 21
42.409651580710552
 31
0.0
  0
LINE
  5
23F6
  8
3
 10
41.550200016024199
 20
42.532387375664207
 30
0.0
 11
42.871000016024823
 21
43.469918373063038
 31
0.0
  0
LINE
  5
23F7
  8
3
 10
41.550200016024199
 20
42.532387375664207
 30
0.0
 11
41.550200016024199
 21
42.409651580710552
 31
0.0
  0
LINE
  5
23F8
  8
3
 10
42.871000016024823
 20
40.794278043074378
 30
0.0
 11
41.550200016024199
 21
42.409651580710552
 31
0.0
  0
LINE
  5
23F9
  8
3
 10
40.116002577235122
 20
40.636880654611801
 30
0.0
 11
42.871000016024823
 21
40.646995089130719
 31
0.0
  0
LINE
  5
23FA
  8
3
 10
37.195002577235527
 20
40.636880654611801
 30
0.0
 11
39.936397454813743
 21
40.636880654611851
 31
0.0
  0
LINE
  5
23FB
  8
3
 10
31.339400016024801
 20
40.646995089130719
 30
0.0
 11
34.094397454814562
 21
40.636880654611851
 31
0.0
  0
LINE
  5
23FC
  8
3
 10
34.274002577235883
 20
40.636880654611801
 30
0.0
 11
37.015397454814092
 21
40.636880654611851
 31
0.0
  0
LINE
  5
23FD
  8
3
 10
38.50220001602429
 20
39.709464091731959
 30
0.0
 11
38.629200016024221
 21
39.709464091731959
 31
0.0
  0
LINE
  5
23FE
  8
3
 10
41.423200016024161
 20
39.709464091731959
 30
0.0
 11
41.550200016024199
 21
39.709464091731959
 31
0.0
  0
LINE
  5
23FF
  8
3
 10
35.581200016025441
 20
39.709464091731959
 30
0.0
 11
35.70820001602533
 21
39.709464091731959
 31
0.0
  0
LINE
  5
2400
  8
3
 10
32.660200016025392
 20
39.709464091731959
 30
0.0
 11
32.787200016025452
 21
39.709464091731959
 31
0.0
  0
LINE
  5
2401
  8
3
 10
37.015397454814092
 20
37.987531996491683
 30
0.0
 11
37.015397454814092
 21
40.636880654611851
 31
0.0
  0
LINE
  5
2402
  8
3
 10
37.015397454814092
 20
40.636880654611851
 30
0.0
 11
35.70820001602533
 21
39.709464091731959
 31
0.0
  0
LINE
  5
2403
  8
3
 10
35.70820001602533
 20
39.586728296778361
 30
0.0
 11
35.70820001602533
 21
39.709464091731959
 31
0.0
  0
LINE
  5
2404
  8
3
 10
38.50220001602429
 20
39.586728296778361
 30
0.0
 11
38.50220001602429
 21
39.709464091731959
 31
0.0
  0
LINE
  5
2405
  8
3
 10
37.195002577235527
 20
40.636880654611801
 30
0.0
 11
38.50220001602429
 21
39.709464091731959
 31
0.0
  0
LINE
  5
2406
  8
3
 10
37.195002577235527
 20
37.987531996491683
 30
0.0
 11
37.195002577235527
 21
40.636880654611801
 31
0.0
  0
LINE
  5
2407
  8
3
 10
41.423200016024161
 20
39.586728296778361
 30
0.0
 11
41.423200016024161
 21
39.709464091731959
 31
0.0
  0
LINE
  5
2408
  8
3
 10
40.116002577235122
 20
40.636880654611801
 30
0.0
 11
41.423200016024161
 21
39.709464091731959
 31
0.0
  0
LINE
  5
2409
  8
3
 10
40.116002577235122
 20
37.987531996491683
 30
0.0
 11
40.116002577235122
 21
40.636880654611801
 31
0.0
  0
LINE
  5
240A
  8
3
 10
34.094397454814562
 20
37.987531996491683
 30
0.0
 11
34.094397454814562
 21
40.636880654611851
 31
0.0
  0
LINE
  5
240B
  8
3
 10
34.094397454814562
 20
40.636880654611851
 30
0.0
 11
32.787200016025452
 21
39.709464091731959
 31
0.0
  0
LINE
  5
240C
  8
3
 10
32.787200016025452
 20
39.586728296778361
 30
0.0
 11
32.787200016025452
 21
39.709464091731959
 31
0.0
  0
LINE
  5
240D
  8
3
 10
35.581200016025441
 20
39.709464091731959
 30
0.0
 11
35.581200016025441
 21
39.586728296778361
 31
0.0
  0
LINE
  5
240E
  8
3
 10
35.581200016025441
 20
39.709464091731959
 30
0.0
 11
34.274002577235883
 21
40.636880654611801
 31
0.0
  0
LINE
  5
240F
  8
3
 10
34.274002577235883
 20
37.987531996491633
 30
0.0
 11
34.274002577235883
 21
40.636880654611801
 31
0.0
  0
LINE
  5
2410
  8
3
 10
41.550200016024199
 20
39.709464091731959
 30
0.0
 11
42.871000016024823
 21
40.646995089130719
 31
0.0
  0
LINE
  5
2411
  8
3
 10
41.550200016024199
 20
39.709464091731959
 30
0.0
 11
41.550200016024199
 21
39.586728296778361
 31
0.0
  0
LINE
  5
2412
  8
3
 10
32.660200016025392
 20
39.709464091731959
 30
0.0
 11
32.660200016025392
 21
39.586728296778361
 31
0.0
  0
LINE
  5
2413
  8
3
 10
32.660200016025392
 20
39.709464091731959
 30
0.0
 11
31.339400016024801
 21
40.646995089130719
 31
0.0
  0
LINE
  5
2414
  8
3
 10
39.936397454813743
 20
37.987531996491633
 30
0.0
 11
39.936397454813743
 21
40.636880654611851
 31
0.0
  0
LINE
  5
2415
  8
3
 10
38.629200016024221
 20
39.709464091731959
 30
0.0
 11
39.936397454813743
 21
40.636880654611851
 31
0.0
  0
LINE
  5
2416
  8
3
 10
38.629200016024221
 20
39.709464091731959
 30
0.0
 11
38.629200016024221
 21
39.586728296778361
 31
0.0
  0
LINE
  5
2417
  8
0
 10
31.251800016024792
 20
45.99439672165385
 30
0.0
 11
31.251800016024731
 21
37.014715403746322
 31
0.0
  0
LINE
  5
2418
  8
3
 10
42.857397454813807
 20
37.987531996491633
 30
0.0
 11
41.550200016024199
 21
39.586728296778361
 31
0.0
  0
LINE
  5
2419
  8
3
 10
41.550200016024199
 20
39.586728296778361
 30
0.0
 11
41.423200016024161
 21
39.586728296778361
 31
0.0
  0
LINE
  5
241A
  8
3
 10
41.423200016024161
 20
39.586728296778361
 30
0.0
 11
40.116002577235122
 21
37.987531996491683
 31
0.0
  0
ARC
  5
241B
  8
3
 10
40.026200016024433
 20
38.053485015111349
 30
0.0
 40
0.1114194806353653
 50
216.29439652617449
 51
323.70560347384651
  0
LINE
  5
241C
  8
3
 10
39.936397454813743
 20
37.987531996491633
 30
0.0
 11
38.629200016024221
 21
39.586728296778361
 31
0.0
  0
LINE
  5
241D
  8
3
 10
38.629200016024221
 20
39.586728296778361
 30
0.0
 11
38.50220001602429
 21
39.586728296778361
 31
0.0
  0
LINE
  5
241E
  8
3
 10
38.50220001602429
 20
39.586728296778361
 30
0.0
 11
37.195002577235527
 21
37.987531996491683
 31
0.0
  0
ARC
  5
241F
  8
3
 10
37.10520001602481
 20
38.053485015111399
 30
0.0
 40
0.1114194806353969
 50
216.2943965261768
 51
323.70560347384372
  0
LINE
  5
2420
  8
3
 10
35.70820001602533
 20
39.586728296778361
 30
0.0
 11
37.015397454814092
 21
37.987531996491683
 31
0.0
  0
LINE
  5
2421
  8
3
 10
35.70820001602533
 20
39.586728296778361
 30
0.0
 11
35.581200016025441
 21
39.586728296778361
 31
0.0
  0
LINE
  5
2422
  8
3
 10
34.274002577235883
 20
37.987531996491633
 30
0.0
 11
35.581200016025441
 21
39.586728296778361
 31
0.0
  0
ARC
  5
2423
  8
3
 10
34.184200016025159
 20
38.053485015111399
 30
0.0
 40
0.111419480635372
 50
216.29439652615929
 51
323.70560347382252
  0
LINE
  5
2424
  8
3
 10
32.787200016025452
 20
39.586728296778361
 30
0.0
 11
34.094397454814562
 21
37.987531996491683
 31
0.0
  0
LINE
  5
2425
  8
3
 10
32.787200016025452
 20
39.586728296778361
 30
0.0
 11
32.660200016025392
 21
39.586728296778361
 31
0.0
  0
LINE
  5
2426
  8
3
 10
31.353002577235831
 20
37.987531996491633
 30
0.0
 11
32.660200016025392
 21
39.586728296778361
 31
0.0
  0
ARC
  5
2427
  8
0
 10
37.105200016024838
 20
37.261099968351083
 30
0.0
 40
2.539999999999992
 50
198.22692190664171
 51
341.77307809335821
  0
ARC
  5
2428
  8
0
 10
37.105200016024753
 20
37.219889369917112
 30
0.0
 40
2.0669999999999988
 50
201.37182275360419
 51
338.62817724639581
  0
ARC
  5
2429
  8
3
 10
37.105200016024753
 20
37.219889369917112
 30
0.0
 40
2.5
 50
197.5357918265515
 51
342.46420817344841
  0
LINE
  5
242A
  8
0
 10
68.773950016024713
 20
30.836906671807309
 30
0.0
 11
68.773950016024756
 21
45.314889369917083
 31
0.0
  0
LINE
  5
242B
  8
0
 10
68.013419394358095
 20
30.074889369917098
 30
0.0
 11
68.01341939435811
 21
45.496217656106658
 31
0.0
  0
LINE
  5
242C
  8
0
 10
60.957310646103252
 20
37.219889369917112
 30
0.0
 11
68.773950016024685
 21
37.219889369917091
 31
0.0
  0
LINE
  5
242F
  8
1
 10
71.273950016024713
 20
37.219889369917063
 30
0.0
 11
56.748950016024729
 21
37.219889369917112
 31
0.0
  0
LINE
  5
2430
  8
2
 10
68.773950016024671
 20
34.252889369916844
 30
0.0
 11
67.873950016024651
 21
35.152889369916878
 31
0.0
  0
LINE
  5
2431
  8
2
 10
67.873950016024651
 20
35.152889369916878
 30
0.0
 11
67.873950016024594
 21
39.286889369917262
 31
0.0
  0
LINE
  5
2432
  8
2
 10
67.873950016024594
 20
39.286889369917262
 30
0.0
 11
68.773950016024671
 21
40.186889369917317
 31
0.0
  0
LINE
  5
2433
  8
2
 10
68.306950016024473
 20
34.719889369917091
 30
0.0
 11
60.913732677871963
 21
34.719889369917063
 31
0.0
  0
LINE
  5
2434
  8
2
 10
67.873950016024651
 20
35.152889369916878
 30
0.0
 11
60.913732677871963
 21
35.152889369916913
 31
0.0
  0
LINE
  5
2435
  8
2
 10
67.873950016024651
 20
39.28688936991729
 30
0.0
 11
62.733238207052288
 21
39.28688936991729
 31
0.0
  0
LINE
  5
2436
  8
2
 10
68.306950016024473
 20
39.719889369917091
 30
0.0
 11
62.848364917019381
 21
39.719889369917063
 31
0.0
  0
LINE
  5
2437
  8
2
 10
64.600534886945823
 20
46.309929137356292
 30
0.0
 11
62.185970547185001
 21
37.228575562547249
 31
0.0
  0
LINE
  5
2438
  8
2
 10
61.032731286273822
 20
37.503551929223768
 30
0.0
 11
62.185970547185001
 21
37.228575562547249
 31
0.0
  0
LINE
  5
2439
  8
0
 10
32.065060684056498
 20
65.363769181396037
 30
0.0
 11
31.54435412764553
 21
64.790450433627583
 31
0.0
  0
LINE
  5
243A
  8
0
 10
31.138267520042142
 20
66.454563233028153
 30
0.0
 11
31.13826752004217
 21
62.890589279498592
 31
0.0
  0
LINE
  5
243B
  8
0
 10
31.23986752004209
 20
62.890589279498563
 30
0.0
 11
31.239867520042129
 21
66.16604469090808
 31
0.0
  0
LINE
  5
243C
  8
0
 10
29.96020001602492
 20
65.475286782027581
 30
0.0
 11
31.138267520042142
 21
65.475286782027666
 31
0.0
  0
ARC
  5
243D
  8
0
 10
31.512887310974289
 20
66.461168499198351
 30
0.0
 40
0.3746780181691484
 50
89.024290981977813
 51
178.9898700706637
  0
LINE
  5
243E
  8
0
 10
31.751317327019731
 20
66.269759334329251
 30
0.0
 11
32.103467520042081
 21
66.569786313417353
 31
0.0
  0
LINE
  5
243F
  8
0
 10
32.3574675200421
 20
66.628526042938802
 30
0.0
 11
32.103467520042081
 21
66.569786313417353
 31
0.0
  0
LINE
  5
2440
  8
0
 10
32.197830736308767
 20
66.333381961529255
 30
0.0
 11
32.3574675200421
 21
66.628526042938802
 31
0.0
  0
LINE
  5
2441
  8
0
 10
32.065060684056512
 20
65.363769181396037
 30
0.0
 11
32.065060684056512
 21
66.333381961529255
 31
0.0
  0
LINE
  5
2442
  8
0
 10
32.065060684056512
 20
66.333381961529255
 30
0.0
 11
31.239867520042129
 21
66.16604469090808
 31
0.0
  0
LINE
  5
2443
  8
0
 10
42.145339347993158
 20
66.333381961529255
 30
0.0
 11
42.970532512007537
 21
66.16604469090808
 31
0.0
  0
LINE
  5
2444
  8
0
 10
29.960200016024849
 20
70.039613109847153
 30
0.0
 11
29.960200016024821
 21
62.890589279498563
 31
0.0
  0
LINE
  5
2445
  8
0
 10
30.72220001602485
 20
70.801613109847182
 30
0.0
 11
29.960200016024849
 21
70.039613109847153
 31
0.0
  0
LINE
  5
2446
  8
0
 10
43.488200016024606
 20
70.801613109847267
 30
0.0
 11
30.72220001602502
 21
70.801613109847352
 31
0.0
  0
LINE
  5
2447
  8
0
 10
43.488200016024749
 20
70.801613109847182
 30
0.0
 11
44.250200016024749
 21
70.039613109847153
 31
0.0
  0
LINE
  5
2448
  8
0
 10
44.250200016024749
 20
70.039613109847153
 30
0.0
 11
44.25020001602477
 21
62.890589279498457
 31
0.0
  0
LINE
  5
2449
  8
0
 10
32.060925676022002
 20
65.363769181396037
 30
0.0
 11
42.145339347993158
 21
65.363769181396037
 31
0.0
  0
LINE
  5
244A
  8
0
 10
42.145339347993158
 20
65.363769181396037
 30
0.0
 11
42.666045904404129
 21
64.790450433627583
 31
0.0
  0
LINE
  5
244B
  8
3
 10
42.706651539579482
 20
64.840126465431354
 30
0.0
 11
41.548132512006951
 21
63.42282002974769
 31
0.0
  0
LINE
  5
244C
  8
3
 10
41.548132512006951
 20
63.42282002974769
 30
0.0
 11
41.421132512006913
 21
63.42282002974769
 31
0.0
  0
LINE
  5
244D
  8
3
 10
41.421132512006913
 20
63.42282002974769
 30
0.0
 11
40.113935073217867
 21
65.022016330034319
 31
0.0
  0
ARC
  5
244E
  8
3
 10
40.024132512007121
 20
64.956161408360572
 30
0.0
 40
0.1113614417500717
 50
36.253717466582422
 51
143.7462825333983
  0
LINE
  5
244F
  8
3
 10
39.934329950796489
 20
65.022016330034319
 30
0.0
 11
38.627132512006959
 21
63.42282002974769
 31
0.0
  0
LINE
  5
2450
  8
3
 10
38.627132512006959
 20
63.42282002974769
 30
0.0
 11
38.500132512007028
 21
63.42282002974769
 31
0.0
  0
LINE
  5
2451
  8
3
 10
38.500132512007028
 20
63.42282002974769
 30
0.0
 11
37.19293507321828
 21
65.022016330034319
 31
0.0
  0
ARC
  5
2452
  8
3
 10
37.103132512007498
 20
64.956063311414596
 30
0.0
 40
0.1114194806353702
 50
36.294396526137781
 51
143.70560347384301
  0
LINE
  5
2453
  8
3
 10
35.706132512008068
 20
63.42282002974769
 30
0.0
 11
37.013329950796837
 21
65.022016330034319
 31
0.0
  0
LINE
  5
2454
  8
3
 10
35.706132512008068
 20
63.42282002974769
 30
0.0
 11
35.579132512008179
 21
63.42282002974769
 31
0.0
  0
LINE
  5
2455
  8
3
 10
34.271935073218678
 20
65.022016330034319
 30
0.0
 11
35.579132512008179
 21
63.42282002974769
 31
0.0
  0
ARC
  5
2456
  8
3
 10
34.182132512007911
 20
64.956161408360614
 30
0.0
 40
0.1113614417501032
 50
36.253717466643451
 51
143.74628253341521
  0
LINE
  5
2457
  8
3
 10
32.78513251200814
 20
63.42282002974769
 30
0.0
 11
34.09232995079725
 21
65.022016330034319
 31
0.0
  0
LINE
  5
2458
  8
3
 10
32.78513251200814
 20
63.42282002974769
 30
0.0
 11
32.658132512008187
 21
63.42282002974769
 31
0.0
  0
LINE
  5
2459
  8
3
 10
31.499613484435649
 20
64.840126465431354
 30
0.0
 11
32.658132512008187
 21
63.42282002974769
 31
0.0
  0
LINE
  5
245A
  8
3
 10
31.239867520042122
 20
65.031082556608055
 30
0.0
 11
31.499613484435649
 21
64.840126465431354
 31
0.0
  0
POLYLINE
  5
245B
  8
3
 66
     1
 10
0.0
 20
0.0
 30
0.0
 70
   128
  0
VERTEX
  5
245C
  8
3
 10
31.337332512007482
 20
64.957685211950704
 30
0.0
  0
VERTEX
  5
245D
  8
3
 10
31.342051079298351
 20
64.955184737913953
 30
0.0
  0
VERTEX
  5
245E
  8
3
 10
31.346588649550991
 20
64.952430814147192
 30
0.0
  0
VERTEX
  5
245F
  8
3
 10
31.350935073218569
 20
64.949429600572103
 30
0.0
  0
SEQEND
  5
2460
  8
3
  0
LINE
  5
2461
  8
0
 10
42.145339347993158
 20
65.363769181396037
 30
0.0
 11
42.145339347993158
 21
66.333381961529255
 31
0.0
  0
LINE
  5
2462
  8
0
 10
42.97053251200758
 20
62.890589279498563
 30
0.0
 11
42.970532512007537
 21
66.16604469090808
 31
0.0
  0
LINE
  5
2463
  8
3
 10
42.970532512007559
 20
65.034122468982034
 30
0.0
 11
42.706651539579482
 21
64.840126465431354
 31
0.0
  0
LINE
  5
2464
  8
3
 10
34.271935073218678
 20
64.317603409560149
 30
0.0
 11
34.271935073218678
 21
65.022016330034319
 31
0.0
  0
LINE
  5
2465
  8
3
 10
35.579132512008179
 20
63.42282002974769
 30
0.0
 11
35.579132512008179
 21
63.390186846680187
 31
0.0
  0
LINE
  5
2466
  8
3
 10
34.271935073218678
 20
64.317603409560149
 30
0.0
 11
35.579132512008179
 21
63.390186846680187
 31
0.0
  0
LINE
  5
2467
  8
3
 10
39.934329950796489
 20
64.317603409560149
 30
0.0
 11
38.627132512006959
 21
63.390186846680187
 31
0.0
  0
LINE
  5
2468
  8
3
 10
38.627132512006959
 20
63.42282002974769
 30
0.0
 11
38.627132512006959
 21
63.390186846680187
 31
0.0
  0
LINE
  5
2469
  8
3
 10
39.934329950796489
 20
64.317603409560149
 30
0.0
 11
39.934329950796489
 21
65.022016330034319
 31
0.0
  0
LINE
  5
246A
  8
3
 10
32.78513251200814
 20
63.390186846680187
 30
0.0
 11
32.78513251200814
 21
63.42282002974769
 31
0.0
  0
LINE
  5
246B
  8
3
 10
34.09232995079725
 20
64.317603409560093
 30
0.0
 11
34.09232995079725
 21
65.022016330034319
 31
0.0
  0
LINE
  5
246C
  8
3
 10
32.78513251200814
 20
63.390186846680187
 30
0.0
 11
34.09232995079725
 21
64.317603409560093
 31
0.0
  0
LINE
  5
246D
  8
3
 10
41.421132512006942
 20
63.390186846680187
 30
0.0
 11
40.113935073217867
 21
64.317603409560149
 31
0.0
  0
LINE
  5
246E
  8
3
 10
40.113935073217867
 20
64.317603409560149
 30
0.0
 11
40.113935073217867
 21
65.022016330034319
 31
0.0
  0
LINE
  5
246F
  8
3
 10
41.421132512006942
 20
63.390186846680187
 30
0.0
 11
41.421132512006913
 21
63.42282002974769
 31
0.0
  0
LINE
  5
2470
  8
3
 10
35.706132512008068
 20
63.390186846680187
 30
0.0
 11
35.706132512008068
 21
63.42282002974769
 31
0.0
  0
LINE
  5
2471
  8
3
 10
37.013329950796837
 20
64.317603409560093
 30
0.0
 11
37.013329950796837
 21
65.022016330034319
 31
0.0
  0
LINE
  5
2472
  8
3
 10
35.706132512008068
 20
63.390186846680187
 30
0.0
 11
37.013329950796837
 21
64.317603409560093
 31
0.0
  0
LINE
  5
2473
  8
3
 10
38.500132512007028
 20
63.390186846680187
 30
0.0
 11
37.19293507321828
 21
64.317603409560093
 31
0.0
  0
LINE
  5
2474
  8
3
 10
37.19293507321828
 20
64.317603409560093
 30
0.0
 11
37.19293507321828
 21
65.022016330034319
 31
0.0
  0
LINE
  5
2475
  8
3
 10
38.500132512007028
 20
63.390186846680187
 30
0.0
 11
38.500132512007028
 21
63.42282002974769
 31
0.0
  0
LINE
  5
2476
  8
0
 10
42.145339347993158
 20
66.333381961529255
 30
0.0
 11
32.060925676022002
 21
66.333381961529255
 31
0.0
  0
LINE
  5
2477
  8
3
 10
32.658132512008187
 20
63.42282002974769
 30
0.0
 11
32.658132512008187
 21
63.390186846680187
 31
0.0
  0
LINE
  5
2478
  8
3
 10
31.239867520042122
 20
64.394529193541914
 30
0.0
 11
32.658132512008187
 21
63.390186846680187
 31
0.0
  0
LINE
  5
2479
  8
3
 10
42.970532512007559
 20
64.397457393629537
 30
0.0
 11
41.548132512006951
 21
63.390186846680187
 31
0.0
  0
LINE
  5
247A
  8
3
 10
41.548132512006951
 20
63.42282002974769
 30
0.0
 11
41.548132512006951
 21
63.390186846680187
 31
0.0
  0
ARC
  5
247B
  8
3
 10
40.055197923934962
 20
64.227523033342493
 30
0.0
 40
0.1075384902506132
 50
56.893532309049021
 51
106.79074421018559
  0
ARC
  5
247C
  8
3
 10
39.993067100079251
 20
64.227523033342152
 30
0.0
 40
0.1075384902509032
 50
73.209255789872159
 51
123.1064676908361
  0
ARC
  5
247D
  8
3
 10
34.213197923935802
 20
64.227523033341924
 30
0.0
 40
0.1075384902511617
 50
56.893532309268643
 51
106.7907442101108
  0
ARC
  5
247E
  8
3
 10
34.151067100080013
 20
64.227523033342266
 30
0.0
 40
0.1075384902508593
 50
73.209255789839645
 51
123.1064676908361
  0
ARC
  5
247F
  8
3
 10
37.134197923935403
 20
64.227523033342266
 30
0.0
 40
0.1075384902508096
 50
56.893532309132688
 51
106.790744210155
  0
ARC
  5
2480
  8
3
 10
37.072067100079657
 20
64.227523033342194
 30
0.0
 40
0.1075384902508777
 50
73.209255789855163
 51
123.1064676908596
  0
LINE
  5
2481
  8
0
 10
32.353332512007619
 20
66.628526042938802
 30
0.0
 11
41.85293251200757
 21
66.628526042938802
 31
0.0
  0
LINE
  5
2482
  8
0
 10
42.01256929574091
 20
66.333381961529255
 30
0.0
 11
41.85293251200757
 21
66.628526042938802
 31
0.0
  0
LINE
  5
2483
  8
0
 10
41.85293251200757
 20
66.628526042938802
 30
0.0
 11
42.106932512007589
 21
66.569786313417353
 31
0.0
  0
LINE
  5
2484
  8
0
 10
42.459082705029999
 20
66.269759334329251
 30
0.0
 11
42.106932512007589
 21
66.569786313417353
 31
0.0
  0
LINE
  5
2485
  8
3
 10
35.706132512008068
 20
63.390186846680187
 30
0.0
 11
35.579132512008179
 21
63.390186846680187
 31
0.0
  0
LINE
  5
2486
  8
3
 10
41.548132512006951
 20
63.390186846680187
 30
0.0
 11
41.421132512006942
 21
63.390186846680187
 31
0.0
  0
LINE
  5
2487
  8
3
 10
32.78513251200814
 20
63.390186846680187
 30
0.0
 11
32.658132512008187
 21
63.390186846680187
 31
0.0
  0
LINE
  5
2488
  8
3
 10
38.627132512006959
 20
63.390186846680187
 30
0.0
 11
38.500132512007028
 21
63.390186846680187
 31
0.0
  0
LINE
  5
2489
  8
3
 10
42.970532512007573
 20
63.646894183077897
 30
0.0
 11
41.548132512006951
 21
62.639623636128583
 31
0.0
  0
LINE
  5
248A
  8
3
 10
41.548132512006951
 20
62.672256819196029
 30
0.0
 11
41.548132512006951
 21
62.639623636128583
 31
0.0
  0
LINE
  5
248B
  8
3
 10
41.548132512006951
 20
62.672256819196029
 30
0.0
 11
42.970532512007537
 21
64.39039377909171
 31
0.0
  0
LINE
  5
248C
  8
3
 10
41.421132512006913
 20
62.672256819196029
 30
0.0
 11
41.548132512006951
 21
62.672256819196029
 31
0.0
  0
LINE
  5
248D
  8
3
 10
40.113935073217867
 20
64.271453119482644
 30
0.0
 11
41.421132512006913
 21
62.672256819196029
 31
0.0
  0
LINE
  5
248E
  8
3
 10
39.934329950796489
 20
63.567040199008417
 30
0.0
 11
38.627132512006959
 21
62.639623636128583
 31
0.0
  0
LINE
  5
248F
  8
3
 10
38.627132512006959
 20
62.672256819196029
 30
0.0
 11
38.627132512006959
 21
62.639623636128583
 31
0.0
  0
LINE
  5
2490
  8
3
 10
38.627132512006959
 20
62.672256819196029
 30
0.0
 11
39.934329950796489
 21
64.271453119482715
 31
0.0
  0
LINE
  5
2491
  8
3
 10
39.934329950796489
 20
63.567040199008417
 30
0.0
 11
39.934329950796489
 21
64.271453119482715
 31
0.0
  0
LINE
  5
2492
  8
3
 10
38.500132512007028
 20
62.672256819196029
 30
0.0
 11
38.627132512006959
 21
62.672256819196029
 31
0.0
  0
LINE
  5
2493
  8
3
 10
37.19293507321828
 20
64.271453119482644
 30
0.0
 11
38.500132512007028
 21
62.672256819196029
 31
0.0
  0
LINE
  5
2494
  8
3
 10
34.09232995079725
 20
64.271453119482644
 30
0.0
 11
32.78513251200814
 21
62.672256819196029
 31
0.0
  0
LINE
  5
2495
  8
3
 10
32.658132512008187
 20
62.672256819196029
 30
0.0
 11
32.78513251200814
 21
62.672256819196029
 31
0.0
  0
LINE
  5
2496
  8
3
 10
32.658132512008187
 20
62.672256819196029
 30
0.0
 11
31.2398675200421
 21
64.385399044745753
 31
0.0
  0
LINE
  5
2497
  8
3
 10
32.658132512008187
 20
62.672256819196029
 30
0.0
 11
32.658132512008187
 21
62.639623636128583
 31
0.0
  0
LINE
  5
2498
  8
3
 10
31.2398675200421
 20
63.643965982990288
 30
0.0
 11
32.658132512008187
 21
62.639623636128583
 31
0.0
  0
LINE
  5
2499
  8
3
 10
32.78513251200814
 20
62.639623636128583
 30
0.0
 11
32.78513251200814
 21
62.672256819196029
 31
0.0
  0
LINE
  5
249A
  8
3
 10
34.09232995079725
 20
63.567040199008417
 30
0.0
 11
34.09232995079725
 21
64.271453119482644
 31
0.0
  0
LINE
  5
249B
  8
3
 10
32.78513251200814
 20
62.639623636128583
 30
0.0
 11
34.09232995079725
 21
63.567040199008417
 31
0.0
  0
LINE
  5
249C
  8
3
 10
35.706132512008068
 20
62.639623636128583
 30
0.0
 11
35.706132512008068
 21
62.672256819196029
 31
0.0
  0
LINE
  5
249D
  8
3
 10
37.013329950796837
 20
64.271453119482644
 30
0.0
 11
35.706132512008068
 21
62.672256819196029
 31
0.0
  0
LINE
  5
249E
  8
3
 10
37.013329950796837
 20
63.567040199008417
 30
0.0
 11
37.013329950796837
 21
64.271453119482644
 31
0.0
  0
LINE
  5
249F
  8
3
 10
35.706132512008068
 20
62.639623636128583
 30
0.0
 11
37.013329950796837
 21
63.567040199008417
 31
0.0
  0
LINE
  5
24A0
  8
3
 10
35.579132512008179
 20
62.672256819196029
 30
0.0
 11
35.706132512008068
 21
62.672256819196029
 31
0.0
  0
LINE
  5
24A1
  8
3
 10
35.579132512008179
 20
62.672256819196029
 30
0.0
 11
34.271935073218678
 21
64.271453119482715
 31
0.0
  0
LINE
  5
24A2
  8
3
 10
34.271935073218678
 20
63.567040199008481
 30
0.0
 11
34.271935073218678
 21
64.271453119482715
 31
0.0
  0
LINE
  5
24A3
  8
3
 10
35.579132512008179
 20
62.672256819196029
 30
0.0
 11
35.579132512008179
 21
62.639623636128583
 31
0.0
  0
LINE
  5
24A4
  8
3
 10
34.271935073218678
 20
63.567040199008481
 30
0.0
 11
35.579132512008179
 21
62.639623636128583
 31
0.0
  0
LINE
  5
24A5
  8
3
 10
41.421132512006913
 20
62.639623636128583
 30
0.0
 11
40.113935073217867
 21
63.567040199008417
 31
0.0
  0
LINE
  5
24A6
  8
3
 10
40.113935073217867
 20
63.567040199008417
 30
0.0
 11
40.113935073217867
 21
64.271453119482644
 31
0.0
  0
LINE
  5
24A7
  8
3
 10
41.421132512006913
 20
62.639623636128583
 30
0.0
 11
41.421132512006913
 21
62.672256819196029
 31
0.0
  0
LINE
  5
24A8
  8
3
 10
38.500132512007028
 20
62.639623636128583
 30
0.0
 11
37.19293507321828
 21
63.567040199008417
 31
0.0
  0
LINE
  5
24A9
  8
3
 10
37.19293507321828
 20
63.567040199008417
 30
0.0
 11
37.19293507321828
 21
64.271453119482644
 31
0.0
  0
LINE
  5
24AA
  8
3
 10
38.500132512007028
 20
62.639623636128583
 30
0.0
 11
38.500132512007028
 21
62.672256819196029
 31
0.0
  0
ARC
  5
24AB
  8
3
 10
40.070691814893983
 20
64.161810579881546
 30
0.0
 40
0.1749744109016163
 50
105.4318537660852
 51
141.19877863080961
  0
ARC
  5
24AC
  8
3
 10
37.056573209120643
 20
64.16181057988149
 30
0.0
 40
0.1749744109016199
 50
38.801221369179927
 51
74.568146233916437
  0
ARC
  5
24AD
  8
3
 10
39.977573209120543
 20
64.161810579881944
 30
0.0
 40
0.1749744109010767
 50
38.801221369123191
 51
74.568146233982318
  0
ARC
  5
24AE
  8
3
 10
37.149691814894361
 20
64.161810579881546
 30
0.0
 40
0.1749744109015597
 50
105.43185376607509
 51
141.19877863083281
  0
ARC
  5
24AF
  8
3
 10
34.135573209121148
 20
64.161810579881717
 30
0.0
 40
0.1749744109013701
 50
38.801221369172431
 51
74.568146233962025
  0
ARC
  5
24B0
  8
3
 10
34.228691814894418
 20
64.161810579882058
 30
0.0
 40
0.1749744109009991
 50
105.4318537660092
 51
141.1987786308849
  0
ARC
  5
24B1
  8
3
 10
37.134197923935403
 20
63.476959822790491
 30
0.0
 40
0.1075384902509025
 50
56.893532309150359
 51
106.79074421015331
  0
ARC
  5
24B2
  8
3
 10
37.072067100079629
 20
63.476959822790647
 30
0.0
 40
0.1075384902507729
 50
73.209255789826244
 51
123.10646769088081
  0
ARC
  5
24B3
  8
3
 10
40.055197923934962
 20
63.476959822790818
 30
0.0
 40
0.1075384902506255
 50
56.893532309039323
 51
106.7907442101839
  0
ARC
  5
24B4
  8
3
 10
39.993067100079251
 20
63.476959822790491
 30
0.0
 40
0.1075384902509032
 50
73.209255789872159
 51
123.1064676908361
  0
ARC
  5
24B5
  8
3
 10
34.213197923935802
 20
63.47695982279054
 30
0.0
 40
0.1075384902509025
 50
56.893532309163909
 51
106.79074421015331
  0
ARC
  5
24B6
  8
3
 10
34.151067100080013
 20
63.476959822790647
 30
0.0
 40
0.1075384902507729
 50
73.209255789826244
 51
123.10646769088081
  0
LINE
  5
24B7
  8
3
 10
35.706132512008068
 20
62.639623636128583
 30
0.0
 11
35.579132512008179
 21
62.639623636128583
 31
0.0
  0
LINE
  5
24B8
  8
3
 10
32.78513251200814
 20
62.639623636128583
 30
0.0
 11
32.658132512008187
 21
62.639623636128583
 31
0.0
  0
LINE
  5
24B9
  8
3
 10
41.548132512006951
 20
62.639623636128583
 30
0.0
 11
41.421132512006913
 21
62.639623636128583
 31
0.0
  0
LINE
  5
24BA
  8
3
 10
38.627132512006959
 20
62.639623636128583
 30
0.0
 11
38.500132512007028
 21
62.639623636128583
 31
0.0
  0
LINE
  5
24BB
  8
3
 10
42.97053251200758
 20
62.898209678701491
 30
0.0
 11
41.548132512006951
 21
61.889060425576922
 31
0.0
  0
LINE
  5
24BC
  8
3
 10
41.548132512006951
 20
61.921693608644432
 30
0.0
 11
41.548132512006951
 21
61.889060425576922
 31
0.0
  0
LINE
  5
24BD
  8
3
 10
41.548132512006951
 20
61.921693608644432
 30
0.0
 11
42.970532512007573
 21
63.659947456305112
 31
0.0
  0
LINE
  5
24BE
  8
3
 10
41.421132512006913
 20
61.921693608644361
 30
0.0
 11
41.548132512006951
 21
61.921693608644432
 31
0.0
  0
LINE
  5
24BF
  8
3
 10
40.113935073217867
 20
63.52088990893099
 30
0.0
 11
41.421132512006913
 21
61.921693608644361
 31
0.0
  0
LINE
  5
24C0
  8
3
 10
39.934329950796489
 20
62.81647698845682
 30
0.0
 11
38.627132512006959
 21
61.889060425576922
 31
0.0
  0
LINE
  5
24C1
  8
3
 10
38.627132512006959
 20
61.921693608644361
 30
0.0
 11
38.627132512006959
 21
61.889060425576922
 31
0.0
  0
LINE
  5
24C2
  8
3
 10
38.627132512006959
 20
61.921693608644361
 30
0.0
 11
39.934329950796489
 21
63.520889908931039
 31
0.0
  0
LINE
  5
24C3
  8
3
 10
39.934329950796489
 20
62.81647698845682
 30
0.0
 11
39.934329950796489
 21
63.520889908931039
 31
0.0
  0
LINE
  5
24C4
  8
3
 10
38.500132512007028
 20
61.921693608644361
 30
0.0
 11
38.627132512006959
 21
61.921693608644361
 31
0.0
  0
LINE
  5
24C5
  8
3
 10
37.19293507321828
 20
63.52088990893099
 30
0.0
 11
38.500132512007028
 21
61.921693608644361
 31
0.0
  0
LINE
  5
24C6
  8
3
 10
34.09232995079725
 20
63.520889908931039
 30
0.0
 11
32.78513251200814
 21
61.921693608644361
 31
0.0
  0
LINE
  5
24C7
  8
3
 10
32.658132512008187
 20
61.921693608644361
 30
0.0
 11
32.78513251200814
 21
61.921693608644361
 31
0.0
  0
LINE
  5
24C8
  8
3
 10
32.658132512008187
 20
61.921693608644361
 30
0.0
 11
31.239867520042122
 21
63.654894240876132
 31
0.0
  0
LINE
  5
24C9
  8
3
 10
32.658132512008187
 20
61.921693608644361
 30
0.0
 11
32.658132512008187
 21
61.889060425576922
 31
0.0
  0
LINE
  5
24CA
  8
3
 10
31.23986752004209
 20
62.895276017094659
 30
0.0
 11
32.658132512008187
 21
61.889060425576922
 31
0.0
  0
LINE
  5
24CB
  8
3
 10
32.78513251200814
 20
61.889060425576922
 30
0.0
 11
32.78513251200814
 21
61.921693608644361
 31
0.0
  0
LINE
  5
24CC
  8
3
 10
34.09232995079725
 20
62.81647698845682
 30
0.0
 11
34.09232995079725
 21
63.520889908931039
 31
0.0
  0
LINE
  5
24CD
  8
3
 10
32.78513251200814
 20
61.889060425576922
 30
0.0
 11
34.09232995079725
 21
62.81647698845682
 31
0.0
  0
LINE
  5
24CE
  8
3
 10
37.013329950796837
 20
63.52088990893099
 30
0.0
 11
35.706132512008068
 21
61.921693608644361
 31
0.0
  0
LINE
  5
24CF
  8
3
 10
35.579132512008179
 20
61.921693608644361
 30
0.0
 11
35.706132512008068
 21
61.921693608644361
 31
0.0
  0
LINE
  5
24D0
  8
3
 10
35.579132512008179
 20
61.921693608644361
 30
0.0
 11
34.271935073218678
 21
63.520889908931039
 31
0.0
  0
LINE
  5
24D1
  8
3
 10
35.706132512008068
 20
61.889060425576922
 30
0.0
 11
35.706132512008068
 21
61.921693608644361
 31
0.0
  0
LINE
  5
24D2
  8
3
 10
37.013329950796837
 20
62.816476988456763
 30
0.0
 11
37.013329950796837
 21
63.52088990893099
 31
0.0
  0
LINE
  5
24D3
  8
3
 10
35.706132512008068
 20
61.889060425576922
 30
0.0
 11
37.013329950796837
 21
62.816476988456763
 31
0.0
  0
LINE
  5
24D4
  8
3
 10
34.271935073218678
 20
62.81647698845682
 30
0.0
 11
34.271935073218678
 21
63.520889908931039
 31
0.0
  0
LINE
  5
24D5
  8
3
 10
35.579132512008179
 20
61.921693608644361
 30
0.0
 11
35.579132512008179
 21
61.889060425576922
 31
0.0
  0
LINE
  5
24D6
  8
3
 10
34.271935073218678
 20
62.81647698845682
 30
0.0
 11
35.579132512008179
 21
61.889060425576922
 31
0.0
  0
LINE
  5
24D7
  8
3
 10
41.421132512006913
 20
61.889060425576922
 30
0.0
 11
40.113935073217867
 21
62.81647698845682
 31
0.0
  0
LINE
  5
24D8
  8
3
 10
40.113935073217867
 20
62.81647698845682
 30
0.0
 11
40.113935073217867
 21
63.52088990893099
 31
0.0
  0
LINE
  5
24D9
  8
3
 10
41.421132512006913
 20
61.889060425576922
 30
0.0
 11
41.421132512006913
 21
61.921693608644361
 31
0.0
  0
LINE
  5
24DA
  8
3
 10
38.500132512007028
 20
61.889060425576922
 30
0.0
 11
37.19293507321828
 21
62.816476988456763
 31
0.0
  0
LINE
  5
24DB
  8
3
 10
37.19293507321828
 20
62.816476988456763
 30
0.0
 11
37.19293507321828
 21
63.52088990893099
 31
0.0
  0
LINE
  5
24DC
  8
3
 10
38.500132512007028
 20
61.889060425576922
 30
0.0
 11
38.500132512007028
 21
61.921693608644361
 31
0.0
  0
ARC
  5
24DD
  8
3
 10
40.070691814893948
 20
63.411247369329878
 30
0.0
 40
0.1749744109015563
 50
105.4318537660819
 51
141.19877863082229
  0
ARC
  5
24DE
  8
3
 10
37.056573209120749
 20
63.411247369329992
 30
0.0
 40
0.1749744109014363
 50
38.801221369151577
 51
74.568146233945129
  0
ARC
  5
24DF
  8
3
 10
39.977573209120287
 20
63.411247369329878
 30
0.0
 40
0.1749744109015741
 50
38.801221369185143
 51
74.568146233941775
  0
ARC
  5
24E0
  8
3
 10
37.149691814894389
 20
63.411247369329821
 30
0.0
 40
0.1749744109016197
 50
105.4318537660768
 51
141.19877863081999
  0
ARC
  5
24E1
  8
3
 10
34.135573209121148
 20
63.411247369330049
 30
0.0
 40
0.1749744109014504
 50
38.801221369156792
 51
74.568146233931657
  0
ARC
  5
24E2
  8
3
 10
34.22869181489466
 20
63.411247369330113
 30
0.0
 40
0.1749744109013881
 50
105.4318537660599
 51
141.19877863084321
  0
ARC
  5
24E3
  8
3
 10
37.103132512007498
 20
62.677049316115472
 30
0.0
 40
0.1658450355438001
 50
57.215229002570048
 51
122.78477099742049
  0
ARC
  5
24E4
  8
3
 10
34.182132512007911
 20
62.677049316115351
 30
0.0
 40
0.1658450355439708
 50
57.215229002635603
 51
122.7847709973915
  0
ARC
  5
24E5
  8
3
 10
40.024132512007093
 20
62.677049316115351
 30
0.0
 40
0.1658450355438949
 50
57.215229002591272
 51
122.7847709973816
  0
LINE
  5
24E6
  8
3
 10
41.548132512006951
 20
61.889060425576922
 30
0.0
 11
41.421132512006913
 21
61.889060425576922
 31
0.0
  0
LINE
  5
24E7
  8
3
 10
38.627132512006959
 20
61.889060425576922
 30
0.0
 11
38.500132512007028
 21
61.889060425576922
 31
0.0
  0
LINE
  5
24E8
  8
3
 10
35.706132512008068
 20
61.889060425576922
 30
0.0
 11
35.579132512008179
 21
61.889060425576922
 31
0.0
  0
LINE
  5
24E9
  8
3
 10
32.78513251200814
 20
61.889060425576922
 30
0.0
 11
32.658132512008187
 21
61.889060425576922
 31
0.0
  0
ARC
  5
24EA
  8
0
 10
42.697512721075391
 20
66.461168499198351
 30
0.0
 40
0.3746780181691484
 50
1.0101299293362609
 51
90.975709018022187
  0
LINE
  5
24EB
  8
0
 10
42.691132512006178
 20
66.835792190696111
 30
0.0
 11
31.51926752004287
 21
66.835792190696111
 31
0.0
  0
LINE
  5
24EC
  8
0
 10
31.24647349585387
 20
62.890589279498599
 30
0.0
 11
29.960200016024821
 21
62.890589279498563
 31
0.0
  0
LINE
  5
24ED
  8
0
 10
44.250200016024792
 20
62.890589279498499
 30
0.0
 11
42.959791528161361
 21
62.890589279498563
 31
0.0
  0
LINE
  5
24EE
  8
0
 10
43.072132512007528
 20
66.454563233028153
 30
0.0
 11
43.072132512007499
 21
62.890589279498592
 31
0.0
  0
LINE
  5
24EF
  8
3
 10
40.113935073217867
 20
64.271453119482644
 30
0.0
 11
40.178984095850367
 21
64.271453119482715
 31
0.0
  0
LINE
  5
24F0
  8
3
 10
37.19293507321828
 20
64.271453119482644
 30
0.0
 11
37.257984095850752
 21
64.271453119482715
 31
0.0
  0
LINE
  5
24F1
  8
3
 10
39.869280928163953
 20
64.271453119482715
 30
0.0
 11
39.934329950796489
 21
64.271453119482715
 31
0.0
  0
LINE
  5
24F2
  8
3
 10
34.027280928164757
 20
64.271453119482715
 30
0.0
 11
34.09232995079725
 21
64.271453119482644
 31
0.0
  0
LINE
  5
24F3
  8
3
 10
34.271935073218678
 20
64.271453119482715
 30
0.0
 11
34.336984095851157
 21
64.271453119482715
 31
0.0
  0
LINE
  5
24F4
  8
3
 10
36.948280928164387
 20
64.271453119482715
 30
0.0
 11
37.013329950796837
 21
64.271453119482644
 31
0.0
  0
LINE
  5
24F5
  8
3
 10
40.113935073217867
 20
63.52088990893099
 30
0.0
 11
40.178984095850339
 21
63.520889908931103
 31
0.0
  0
LINE
  5
24F6
  8
3
 10
37.19293507321828
 20
63.52088990893099
 30
0.0
 11
37.25798409585073
 21
63.520889908931103
 31
0.0
  0
LINE
  5
24F7
  8
3
 10
39.869280928163981
 20
63.520889908931103
 30
0.0
 11
39.934329950796489
 21
63.520889908931039
 31
0.0
  0
LINE
  5
24F8
  8
3
 10
34.027280928164757
 20
63.520889908931103
 30
0.0
 11
34.09232995079725
 21
63.520889908931039
 31
0.0
  0
LINE
  5
24F9
  8
3
 10
34.271935073218678
 20
63.520889908931039
 30
0.0
 11
34.336984095851157
 21
63.520889908931103
 31
0.0
  0
LINE
  5
24FA
  8
3
 10
36.948280928164422
 20
63.520889908931103
 30
0.0
 11
37.013329950796837
 21
63.52088990893099
 31
0.0
  0
LINE
  5
24FB
  8
1
 10
37.105200016024831
 20
73.301613109847295
 30
0.0
 11
37.10520001602481
 21
59.389060425576922
 31
0.0
  0
LINE
  5
24FC
  8
0
 10
44.250200016024749
 20
65.475286782027581
 30
0.0
 11
43.072132512007528
 21
65.475286782027666
 31
0.0
  0
TEXT
  5
25C4
  8
0
 62
     3
 10
0.0
 20
0.0
 30
0.0
 40
5.0
  1
MCT-127-12
  7
STANDARD1
  0
ENDSEC
  0
EOF
