  0
SECTION
  2
HEADER
  9
$ACADVER
  1
AC1009
  9
$INSBASE
 10
0.0
 20
0.0
 30
0.0
  9
$EXTMIN
 10
-0.0005
 20
-2.960436562073669
 30
0.0
  9
$EXTMAX
 10
328.0
 20
227.99999999999949
 30
0.0
  9
$LIMMIN
 10
0.0
 20
0.0
  9
$LIMMAX
 10
375.0
 20
270.0
  9
$ORTHOMODE
 70
     1
  9
$REGENMODE
 70
     1
  9
$FILLMODE
 70
     1
  9
$QTEXTMODE
 70
     0
  9
$MIRRTEXT
 70
     0
  9
$DRAGMODE
 70
     2
  9
$LTSCALE
 40
10.0
  9
$OSMODE
 70
  3071
  9
$ATTMODE
 70
     1
  9
$TEXTSIZE
 40
0.2
  9
$TRACEWID
 40
0.05
  9
$TEXTSTYLE
  7
STANDARD
  9
$CLAYER
  8
0
  9
$CELTYPE
  6
BYLAYER
  9
$CECOLOR
 62
   256
  9
$DIMSCALE
 40
1.0
  9
$DIMASZ
 40
3.0
  9
$DIMEXO
 40
2.0
  9
$DIMDLI
 40
0.38
  9
$DIMRND
 40
0.0
  9
$DIMDLE
 40
0.0
  9
$DIMEXE
 40
2.0
  9
$DIMTP
 40
0.0
  9
$DIMTM
 40
0.0
  9
$DIMTXT
 40
3.0
  9
$DIMCEN
 40
0.0
  9
$DIMTSZ
 40
0.0
  9
$DIMTOL
 70
     0
  9
$DIMLIM
 70
     0
  9
$DIMTIH
 70
     0
  9
$DIMTOH
 70
     0
  9
$DIMSE1
 70
     0
  9
$DIMSE2
 70
     0
  9
$DIMTAD
 70
     1
  9
$DIMZIN
 70
     0
  9
$DIMBLK
  1

  9
$DIMASO
 70
     1
  9
$DIMSHO
 70
     0
  9
$DIMPOST
  1

  9
$DIMAPOST
  1

  9
$DIMALT
 70
     0
  9
$DIMALTD
 70
     2
  9
$DIMALTF
 40
25.399999999999999
  9
$DIMLFAC
 40
1.0
  9
$DIMTOFL
 70
     1
  9
$DIMTVP
 40
1.6000000000000001
  9
$DIMTIX
 70
     1
  9
$DIMSOXD
 70
     0
  9
$DIMSAH
 70
     0
  9
$DIMBLK1
  1

  9
$DIMBLK2
  1

  9
$DIMSTYLE
  2
STANDARD
  9
$DIMCLRD
 70
     0
  9
$DIMCLRE
 70
     0
  9
$DIMCLRT
 70
     0
  9
$DIMTFAC
 40
1.0
  9
$DIMGAP
 40
0.09
  9
$LUNITS
 70
     2
  9
$LUPREC
 70
     4
  9
$SKETCHINC
 40
0.1
  9
$FILLETRAD
 40
0.0
  9
$AUNITS
 70
     0
  9
$AUPREC
 70
     4
  9
$MENU
  1
E:\r13\win\SUPPORT\ACAD
  9
$ELEVATION
 40
0.0
  9
$PELEVATION
 40
0.0
  9
$THICKNESS
 40
0.0
  9
$LIMCHECK
 70
     0
  9
$BLIPMODE
 70
     0
  9
$CHAMFERA
 40
0.0
  9
$CHAMFERB
 40
0.0
  9
$SKPOLY
 70
     0
  9
$TDCREATE
 40
2449839.7984606479
  9
$TDUPDATE
 40
2456597.65084831
  9
$TDINDWG
 40
0.0063139583
  9
$TDUSRTIMER
 40
0.0063139583
  9
$USRTIMER
 70
     1
  9
$ANGBASE
 50
0.0
  9
$ANGDIR
 70
     0
  9
$PDMODE
 70
     0
  9
$PDSIZE
 40
0.0
  9
$PLINEWID
 40
0.0
  9
$COORDS
 70
     1
  9
$SPLFRAME
 70
     0
  9
$SPLINETYPE
 70
     6
  9
$SPLINESEGS
 70
     8
  9
$ATTDIA
 70
     0
  9
$ATTREQ
 70
     1
  9
$HANDLING
 70
     1
  9
$HANDSEED
  5
40B
  9
$SURFTAB1
 70
     6
  9
$SURFTAB2
 70
     6
  9
$SURFTYPE
 70
     6
  9
$SURFU
 70
     6
  9
$SURFV
 70
     6
  9
$UCSNAME
  2

  9
$UCSORG
 10
0.0
 20
0.0
 30
0.0
  9
$UCSXDIR
 10
1.0
 20
0.0
 30
0.0
  9
$UCSYDIR
 10
0.0
 20
1.0
 30
0.0
  9
$PUCSNAME
  2

  9
$PUCSORG
 10
0.0
 20
0.0
 30
0.0
  9
$PUCSXDIR
 10
1.0
 20
0.0
 30
0.0
  9
$PUCSYDIR
 10
0.0
 20
1.0
 30
0.0
  9
$USERI1
 70
     0
  9
$USERI2
 70
     1
  9
$USERI3
 70
     1
  9
$USERI4
 70
     0
  9
$USERI5
 70
     0
  9
$USERR1
 40
0.0
  9
$USERR2
 40
0.0
  9
$USERR3
 40
0.0
  9
$USERR4
 40
0.0
  9
$USERR5
 40
0.0
  9
$WORLDVIEW
 70
     1
  9
$SHADEDGE
 70
     3
  9
$SHADEDIF
 70
    70
  9
$TILEMODE
 70
     1
  9
$MAXACTVP
 70
    16
  9
$PLIMCHECK
 70
     0
  9
$PEXTMIN
 10
1.0000000000000000E+020
 20
1.0000000000000000E+020
 30
1.0000000000000000E+020
  9
$PEXTMAX
 10
-1.0000000000000000E+020
 20
-1.0000000000000000E+020
 30
-1.0000000000000000E+020
  9
$PLIMMIN
 10
0.0
 20
0.0
  9
$PLIMMAX
 10
12.0
 20
9.0
  9
$UNITMODE
 70
     0
  9
$VISRETAIN
 70
     0
  9
$PLINEGEN
 70
     0
  9
$PSLTSCALE
 70
     0
  0
ENDSEC
  0
SECTION
  2
TABLES
  0
TABLE
  2
VPORT
 70
     1
  0
VPORT
  2
*ACTIVE
 70
     0
 10
0.0
 20
0.0
 11
1.0
 21
1.0
 12
187.49402838302359
 22
134.103411279211
 13
0.0
 23
0.0
 14
10.0
 24
10.0
 15
10.0
 25
10.0
 16
0.0
 26
0.0
 36
1.0
 17
0.0
 27
0.0
 37
0.0
 40
277.29457329451338
 41
2.304913294797688
 42
50.0
 43
0.0
 44
0.0
 50
0.0
 51
0.0
 71
     0
 72
   500
 73
     1
 74
     0
 75
     0
 76
     0
 77
     0
 78
     2
  0
ENDTAB
  0
TABLE
  2
LTYPE
 70
     4
  0
LTYPE
  2
CONTINUOUS
 70
     0
  3
Solid Line
 72
    65
 73
     0
 40
0.0
  0
LTYPE
  2
CENTER
 70
     0
  3
____ _ ____ _ ____ _ ____ _ ____ _ ____ _ ____
 72
    65
 73
     4
 40
2.0
 49
1.25
 49
-0.25
 49
0.25
 49
-0.25
  0
LTYPE
  2
HIDDEN
 70
     0
  3
_ _ _ _ _ _ _ _ _ _ _ _ _ _ _ _ _ _ _ _ _ _ _
 72
    65
 73
     2
 40
0.375
 49
0.25
 49
-0.125
  0
LTYPE
  2
PHANTOM2
 70
     0
  3
___ _ _ ___ _ _ ___ _ _ ___ _ _
 72
    65
 73
     6
 40
1.25
 49
0.625
 49
-0.125
 49
0.125
 49
-0.125
 49
0.125
 49
-0.125
  0
ENDTAB
  0
TABLE
  2
LAYER
 70
     4
  0
LAYER
  2
0
 70
     0
 62
     7
  6
CONTINUOUS
  0
LAYER
  2
1
 70
     0
 62
     1
  6
CENTER
  0
LAYER
  2
2
 70
     0
 62
     2
  6
HIDDEN
  0
LAYER
  2
ITTEN
 70
     0
 62
     1
  6
CENTER
  0
ENDTAB
  0
TABLE
  2
STYLE
 70
     2
  0
STYLE
  2
STANDARD
 70
     0
 40
0.0
 41
1.0
 50
0.0
 71
     0
 42
0.2
  3
TXT
  4
BIGFONT
  0
STYLE
  2
STANDARD1
 70
     0
 40
0.0
 41
1.0
 50
0.0
 71
     0
 42
3.0
  3
txt
  4

  0
ENDTAB
  0
TABLE
  2
VIEW
 70
     1
  0
VIEW
  2
ALL
 70
     0
 40
270.0
 10
220.99159663865549
 20
135.0
 41
0.0
 11
0.0
 21
0.0
 31
1.0
 12
0.0
 22
0.0
 32
0.0
 42
0.0
 43
0.0
 44
0.0
 50
0.0
 71
     0
  0
ENDTAB
  0
TABLE
  2
UCS
 70
     0
  0
ENDTAB
  0
TABLE
  2
APPID
 70
     3
  0
APPID
  2
ACAD
 70
     0
  0
APPID
  2
ACAD_MLEADERVER
 70
     0
  0
APPID
  2
ACAD_NAV_VCDISPLAY
 70
     0
  0
ENDTAB
  0
TABLE
  2
DIMSTYLE
 70
     1
  0
DIMSTYLE
  2
STANDARD
 70
     0
  3

  4

  5

  6

  7

 40
1.0
 41
0.18
 42
0.0625
 43
0.38
 44
0.18
 45
0.0
 46
0.0
 47
0.0
 48
0.0
140
0.18
141
0.09
142
0.0
143
25.399999999999999
144
1.0
145
0.0
146
1.0
147
0.09
 71
     0
 72
     0
 73
     1
 74
     1
 75
     0
 76
     0
 77
     0
 78
     0
170
     0
171
     2
172
     0
173
     0
174
     0
175
     0
176
     0
177
     0
178
     0
  0
ENDTAB
  0
ENDSEC
  0
SECTION
  2
BLOCKS
  0
BLOCK
  8
0
  2
$MODEL_SPACE
 70
     0
 10
0.0
 20
0.0
 30
0.0
  3
$MODEL_SPACE
  1

  0
ENDBLK
  5
247
  8
0
  0
BLOCK
 67
     1
  8
0
  2
$PAPER_SPACE
 70
     0
 10
0.0
 20
0.0
 30
0.0
  3
$PAPER_SPACE
  1

  0
ENDBLK
  5
245
 67
     1
  8
0
  0
BLOCK
  8
0
  2
BATU
 70
     0
 10
0.0
 20
0.0
 30
0.0
  3
BATU
  1

  0
LINE
  5
252
  8
ITTEN
 10
0.5
 20
0.0
 30
0.0
 11
-0.5
 21
0.0
 31
0.0
  0
LINE
  5
253
  8
ITTEN
 10
0.0
 20
0.5
 30
0.0
 11
0.0
 21
-0.5
 31
0.0
  0
ENDBLK
  5
255
  8
0
  0
ENDSEC
  0
SECTION
  2
ENTITIES
  0
LINE
  5
36
  8
2
 10
172.64999999999961
 20
222.99999999999929
 30
0.0
 11
172.64999999999961
 21
219.49999999999849
 31
0.0
  0
LINE
  5
37
  8
2
 10
175.14999999999961
 20
216.99999999999849
 30
0.0
 11
172.64999999999961
 21
219.49999999999849
 31
0.0
  0
LINE
  5
38
  8
2
 10
164.85000000000031
 20
216.99999999999849
 30
0.0
 11
167.35000000000031
 21
219.49999999999849
 31
0.0
  0
LINE
  5
39
  8
2
 10
167.35000000000031
 20
222.99999999999929
 30
0.0
 11
167.35000000000031
 21
219.49999999999849
 31
0.0
  0
LINE
  5
3A
  8
2
 10
167.35000000000031
 20
219.49999999999849
 30
0.0
 11
172.64999999999961
 21
219.49999999999849
 31
0.0
  0
LINE
  5
3B
  8
2
 10
142.64999999999961
 20
222.9999999999998
 30
0.0
 11
142.64999999999961
 21
220.49999999999881
 31
0.0
  0
LINE
  5
3C
  8
2
 10
145.14999999999961
 20
217.99999999999881
 30
0.0
 11
142.64999999999961
 21
220.49999999999881
 31
0.0
  0
LINE
  5
3D
  8
2
 10
134.85000000000031
 20
217.99999999999881
 30
0.0
 11
137.35000000000031
 21
220.49999999999881
 31
0.0
  0
LINE
  5
3E
  8
2
 10
137.35000000000031
 20
222.99999999999949
 30
0.0
 11
137.35000000000031
 21
220.49999999999881
 31
0.0
  0
LINE
  5
3F
  8
2
 10
137.35000000000031
 20
220.49999999999881
 30
0.0
 11
142.64999999999969
 21
220.49999999999881
 31
0.0
  0
LINE
  5
40
  8
2
 10
172.64999999999961
 20
67.000000000000711
 30
0.0
 11
172.64999999999961
 21
70.500000000001506
 31
0.0
  0
LINE
  5
41
  8
2
 10
175.14999999999961
 20
73.000000000001506
 30
0.0
 11
172.64999999999961
 21
70.500000000001506
 31
0.0
  0
LINE
  5
42
  8
2
 10
164.85000000000031
 20
73.000000000001506
 30
0.0
 11
167.35000000000031
 21
70.500000000001506
 31
0.0
  0
LINE
  5
43
  8
2
 10
167.35000000000031
 20
67.000000000000711
 30
0.0
 11
167.35000000000031
 21
70.500000000001506
 31
0.0
  0
LINE
  5
44
  8
2
 10
167.35000000000031
 20
70.500000000001506
 30
0.0
 11
172.64999999999961
 21
70.500000000001506
 31
0.0
  0
LINE
  5
45
  8
2
 10
127.0000000000002
 20
77.350000000000335
 30
0.0
 11
129.50000000000119
 21
77.350000000000335
 31
0.0
  0
LINE
  5
46
  8
2
 10
132.00000000000111
 20
74.850000000000392
 30
0.0
 11
129.50000000000119
 21
77.350000000000335
 31
0.0
  0
LINE
  5
47
  8
2
 10
132.00000000000111
 20
85.149999999999665
 30
0.0
 11
129.50000000000119
 21
82.649999999999665
 31
0.0
  0
LINE
  5
48
  8
2
 10
127.0000000000005
 20
82.649999999999665
 30
0.0
 11
129.50000000000119
 21
82.649999999999665
 31
0.0
  0
LINE
  5
49
  8
2
 10
129.50000000000119
 20
82.649999999999665
 30
0.0
 11
129.50000000000119
 21
77.350000000000335
 31
0.0
  0
LINE
  5
4A
  8
1
 10
328.0
 20
123.0
 30
0.0
 11
311.9999999999992
 21
122.9999999999999
 31
0.0
  0
LINE
  5
4B
  8
2
 10
320.4999999999992
 20
125.64999999999969
 30
0.0
 11
320.4999999999992
 21
120.35000000000031
 31
0.0
  0
LINE
  5
4C
  8
2
 10
323.0
 20
125.64999999999959
 30
0.0
 11
320.4999999999992
 21
125.64999999999959
 31
0.0
  0
LINE
  5
4D
  8
2
 10
317.9999999999992
 20
128.14999999999961
 30
0.0
 11
320.4999999999992
 21
125.64999999999959
 31
0.0
  0
LINE
  5
4E
  8
2
 10
317.9999999999992
 20
117.85000000000031
 30
0.0
 11
320.4999999999992
 21
120.35000000000031
 31
0.0
  0
LINE
  5
4F
  8
2
 10
323.0
 20
120.35000000000031
 30
0.0
 11
320.4999999999992
 21
120.35000000000031
 31
0.0
  0
CIRCLE
  5
50
  8
0
 10
280.0
 20
120.0
 30
0.0
 40
2.649999999999999
  0
CIRCLE
  5
51
  8
2
 10
280.0
 20
120.0
 30
0.0
 40
5.1500000000000004
  0
LINE
  5
52
  8
1
 10
288.14999999999998
 20
120.0
 30
0.0
 11
271.85000000000002
 21
120.0
 31
0.0
  0
LINE
  5
53
  8
1
 10
280.0
 20
111.84999999999999
 30
0.0
 11
280.0
 21
128.15000000000001
 31
0.0
  0
LINE
  5
54
  8
1
 10
222.0
 20
119.9999999999995
 30
0.0
 11
237.9999999999994
 21
119.9999999999995
 31
0.0
  0
LINE
  5
55
  8
2
 10
229.49999999999861
 20
122.6499999999991
 30
0.0
 11
229.49999999999861
 21
117.3499999999997
 31
0.0
  0
LINE
  5
56
  8
2
 10
232.9999999999994
 20
122.6499999999991
 30
0.0
 11
229.49999999999861
 21
122.6499999999991
 31
0.0
  0
LINE
  5
57
  8
2
 10
226.99999999999861
 20
125.1499999999991
 30
0.0
 11
229.49999999999861
 21
122.6499999999991
 31
0.0
  0
LINE
  5
58
  8
2
 10
226.99999999999861
 20
114.8499999999998
 30
0.0
 11
229.49999999999861
 21
117.3499999999997
 31
0.0
  0
LINE
  5
59
  8
2
 10
232.9999999999994
 20
117.3499999999997
 30
0.0
 11
229.49999999999861
 21
117.3499999999997
 31
0.0
  0
LINE
  5
5A
  8
1
 10
280.0
 20
168.14999999999989
 30
0.0
 11
280.0
 21
151.84999999999999
 31
0.0
  0
LINE
  5
5B
  8
1
 10
288.14999999999998
 20
160.0
 30
0.0
 11
271.85000000000002
 21
160.0
 31
0.0
  0
CIRCLE
  5
5C
  8
2
 10
280.0
 20
160.0
 30
0.0
 40
5.1500000000000004
  0
CIRCLE
  5
5D
  8
0
 10
280.0
 20
160.0
 30
0.0
 40
2.649999999999999
  0
LINE
  5
5E
  8
2
 10
323.0
 20
159.64999999999969
 30
0.0
 11
320.4999999999992
 21
159.64999999999969
 31
0.0
  0
LINE
  5
5F
  8
2
 10
317.9999999999992
 20
162.14999999999961
 30
0.0
 11
320.4999999999992
 21
159.64999999999969
 31
0.0
  0
LINE
  5
60
  8
2
 10
317.9999999999992
 20
151.85000000000031
 30
0.0
 11
320.4999999999992
 21
154.35000000000031
 31
0.0
  0
LINE
  5
61
  8
2
 10
323.0
 20
154.35000000000031
 30
0.0
 11
320.4999999999992
 21
154.35000000000031
 31
0.0
  0
LINE
  5
62
  8
2
 10
320.4999999999992
 20
154.35000000000031
 30
0.0
 11
320.4999999999992
 21
159.64999999999969
 31
0.0
  0
LINE
  5
63
  8
2
 10
232.9999999999994
 20
162.64999999999941
 30
0.0
 11
229.49999999999861
 21
162.64999999999941
 31
0.0
  0
LINE
  5
64
  8
2
 10
226.99999999999861
 20
165.1499999999993
 30
0.0
 11
229.49999999999861
 21
162.64999999999941
 31
0.0
  0
LINE
  5
65
  8
2
 10
226.99999999999861
 20
154.84999999999999
 30
0.0
 11
229.49999999999861
 21
157.34999999999999
 31
0.0
  0
LINE
  5
66
  8
2
 10
232.9999999999994
 20
157.34999999999999
 30
0.0
 11
229.49999999999861
 21
157.34999999999999
 31
0.0
  0
LINE
  5
67
  8
2
 10
229.49999999999861
 20
157.34999999999999
 30
0.0
 11
229.49999999999861
 21
162.64999999999941
 31
0.0
  0
LINE
  5
68
  8
1
 10
170.0
 20
128.15000000000001
 30
0.0
 11
170.0
 21
111.84999999999999
 31
0.0
  0
LINE
  5
69
  8
1
 10
178.15000000000001
 20
120.0
 30
0.0
 11
161.84999999999999
 21
120.0
 31
0.0
  0
LINE
  5
6A
  8
1
 10
170.0
 20
168.15000000000001
 30
0.0
 11
170.0
 21
151.84999999999999
 31
0.0
  0
LINE
  5
6B
  8
1
 10
178.15000000000001
 20
160.0
 30
0.0
 11
161.84999999999999
 21
160.0
 31
0.0
  0
LINE
  5
6C
  8
1
 10
122.0
 20
122.9999999999999
 30
0.0
 11
138.0000000000008
 21
122.9999999999999
 31
0.0
  0
LINE
  5
6D
  8
2
 10
129.5000000000008
 20
120.35000000000031
 30
0.0
 11
129.5000000000008
 21
125.64999999999959
 31
0.0
  0
LINE
  5
6E
  8
2
 10
127.0
 20
120.35000000000031
 30
0.0
 11
129.5000000000008
 21
120.35000000000031
 31
0.0
  0
LINE
  5
6F
  8
2
 10
132.00000000000071
 20
117.85000000000019
 30
0.0
 11
129.5000000000008
 21
120.35000000000031
 31
0.0
  0
LINE
  5
70
  8
2
 10
132.00000000000071
 20
128.14999999999949
 30
0.0
 11
129.5000000000008
 21
125.64999999999959
 31
0.0
  0
LINE
  5
71
  8
2
 10
127.0
 20
125.64999999999959
 30
0.0
 11
129.5000000000008
 21
125.64999999999959
 31
0.0
  0
LINE
  5
72
  8
2
 10
127.0
 20
154.35000000000031
 30
0.0
 11
129.5000000000008
 21
154.35000000000031
 31
0.0
  0
LINE
  5
73
  8
2
 10
132.00000000000071
 20
151.85000000000039
 30
0.0
 11
129.5000000000008
 21
154.35000000000031
 31
0.0
  0
LINE
  5
74
  8
2
 10
132.00000000000071
 20
162.14999999999961
 30
0.0
 11
129.5000000000008
 21
159.64999999999961
 31
0.0
  0
LINE
  5
75
  8
2
 10
127.0
 20
159.64999999999961
 30
0.0
 11
129.5000000000008
 21
159.64999999999961
 31
0.0
  0
LINE
  5
76
  8
2
 10
129.5000000000008
 20
159.64999999999961
 30
0.0
 11
129.5000000000008
 21
154.35000000000031
 31
0.0
  0
CIRCLE
  5
77
  8
0
 10
89.999999999999986
 20
123.0
 30
0.0
 40
2.649999999999999
  0
CIRCLE
  5
78
  8
2
 10
89.999999999999986
 20
123.0
 30
0.0
 40
5.1500000000000004
  0
LINE
  5
79
  8
1
 10
98.149999999999991
 20
123.0
 30
0.0
 11
81.84999999999998
 21
123.0
 31
0.0
  0
LINE
  5
7A
  8
1
 10
98.149999999999991
 20
157.0
 30
0.0
 11
81.84999999999998
 21
157.0
 31
0.0
  0
CIRCLE
  5
7B
  8
2
 10
89.999999999999986
 20
157.0
 30
0.0
 40
5.1500000000000004
  0
CIRCLE
  5
7C
  8
0
 10
89.999999999999986
 20
157.0
 30
0.0
 40
2.649999999999999
  0
LINE
  5
7D
  8
1
 10
328.0
 20
157.0
 30
0.0
 11
311.9999999999992
 21
157.0
 31
0.0
  0
LINE
  5
7E
  8
2
 10
307.5
 20
171.7000000000001
 30
0.0
 11
307.5
 21
171.09999999999999
 31
0.0
  0
LINE
  5
7F
  8
2
 10
312.5
 20
171.7000000000001
 30
0.0
 11
312.5
 21
171.09999999999999
 31
0.0
  0
LINE
  5
80
  8
0
 10
312.5
 20
171.10000000000011
 30
0.0
 11
312.5
 21
171.0500000000001
 31
0.0
  0
LINE
  5
81
  8
0
 10
307.5
 20
171.10000000000011
 30
0.0
 11
307.5
 21
171.0500000000001
 31
0.0
  0
LINE
  5
82
  8
0
 10
315.5
 20
171.09999999999999
 30
0.0
 11
304.5
 21
171.10000000000019
 31
0.0
  0
LINE
  5
83
  8
0
 10
315.5
 20
171.7000000000001
 30
0.0
 11
304.49999999999989
 21
171.7000000000001
 31
0.0
  0
LINE
  5
84
  8
0
 10
304.49999999999989
 20
171.7000000000001
 30
0.0
 11
304.5
 21
171.10000000000019
 31
0.0
  0
LINE
  5
85
  8
0
 10
315.5
 20
171.7000000000001
 30
0.0
 11
315.5
 21
171.09999999999999
 31
0.0
  0
LINE
  5
86
  8
0
 10
312.5
 20
171.75
 30
0.0
 11
312.5
 21
171.7000000000001
 31
0.0
  0
LINE
  5
87
  8
0
 10
307.5
 20
171.75
 30
0.0
 11
307.5
 21
171.7000000000001
 31
0.0
  0
LINE
  5
88
  8
0
 10
306.75
 20
171.74999999999989
 30
0.0
 11
306.75
 21
173.75
 31
0.0
  0
LINE
  5
89
  8
0
 10
313.25000000000011
 20
171.75
 30
0.0
 11
313.25000000000011
 21
173.75
 31
0.0
  0
LINE
  5
8A
  8
0
 10
306.75000000000011
 20
171.75
 30
0.0
 11
313.25000000000011
 21
171.75
 31
0.0
  0
LINE
  5
8B
  8
0
 10
306.75000000000011
 20
171.0500000000001
 30
0.0
 11
313.25000000000011
 21
171.0500000000001
 31
0.0
  0
LINE
  5
8C
  8
0
 10
313.25
 20
170.0
 30
0.0
 11
313.25
 21
171.0500000000001
 31
0.0
  0
LINE
  5
8D
  8
0
 10
306.75
 20
170.0
 30
0.0
 11
306.75
 21
171.05000000000001
 31
0.0
  0
LINE
  5
8E
  8
0
 10
312.25000000000011
 20
174.75
 30
0.0
 11
307.75
 21
174.75
 31
0.0
  0
LINE
  5
8F
  8
0
 10
313.25000000000011
 20
173.75
 30
0.0
 11
306.75
 21
173.75
 31
0.0
  0
LINE
  5
90
  8
0
 10
313.25000000000011
 20
173.75
 30
0.0
 11
312.25000000000011
 21
174.75
 31
0.0
  0
LINE
  5
91
  8
0
 10
307.75
 20
174.75
 30
0.0
 11
306.75
 21
173.75
 31
0.0
  0
LINE
  5
92
  8
0
 10
307.75
 20
105.25
 30
0.0
 11
306.75
 21
106.25
 31
0.0
  0
LINE
  5
93
  8
0
 10
313.25000000000011
 20
106.25
 30
0.0
 11
312.25000000000011
 21
105.25
 31
0.0
  0
LINE
  5
94
  8
0
 10
313.25000000000011
 20
106.25
 30
0.0
 11
306.75
 21
106.25
 31
0.0
  0
LINE
  5
95
  8
0
 10
312.25000000000011
 20
105.25
 30
0.0
 11
307.75
 21
105.25
 31
0.0
  0
LINE
  5
96
  8
0
 10
306.75
 20
110.0
 30
0.0
 11
306.75
 21
108.95
 31
0.0
  0
LINE
  5
97
  8
0
 10
313.25
 20
110.0
 30
0.0
 11
313.25
 21
108.9499999999999
 31
0.0
  0
LINE
  5
98
  8
0
 10
306.75000000000011
 20
108.95
 30
0.0
 11
313.25000000000011
 21
108.9499999999999
 31
0.0
  0
LINE
  5
99
  8
0
 10
306.75000000000011
 20
108.25
 30
0.0
 11
313.25000000000011
 21
108.2499999999999
 31
0.0
  0
LINE
  5
9A
  8
0
 10
313.25000000000011
 20
108.25
 30
0.0
 11
313.25000000000011
 21
106.25
 31
0.0
  0
LINE
  5
9B
  8
0
 10
306.75
 20
108.25
 30
0.0
 11
306.75
 21
106.25
 31
0.0
  0
LINE
  5
9C
  8
0
 10
307.5
 20
108.25
 30
0.0
 11
307.5
 21
108.2999999999999
 31
0.0
  0
LINE
  5
9D
  8
0
 10
312.5
 20
108.25
 30
0.0
 11
312.5
 21
108.2999999999999
 31
0.0
  0
LINE
  5
9E
  8
0
 10
315.5
 20
108.2999999999999
 30
0.0
 11
315.5
 21
108.90000000000001
 31
0.0
  0
LINE
  5
9F
  8
0
 10
304.49999999999989
 20
108.2999999999999
 30
0.0
 11
304.5
 21
108.89999999999981
 31
0.0
  0
LINE
  5
A0
  8
0
 10
315.5
 20
108.2999999999999
 30
0.0
 11
304.49999999999989
 21
108.2999999999999
 31
0.0
  0
LINE
  5
A1
  8
0
 10
315.5
 20
108.90000000000001
 30
0.0
 11
304.5
 21
108.89999999999981
 31
0.0
  0
LINE
  5
A2
  8
0
 10
307.5
 20
108.89999999999991
 30
0.0
 11
307.5
 21
108.95
 31
0.0
  0
LINE
  5
A3
  8
0
 10
312.5
 20
108.89999999999991
 30
0.0
 11
312.5
 21
108.95
 31
0.0
  0
LINE
  5
A4
  8
2
 10
312.5
 20
108.2999999999999
 30
0.0
 11
312.5
 21
108.90000000000001
 31
0.0
  0
LINE
  5
A5
  8
2
 10
307.5
 20
108.2999999999999
 30
0.0
 11
307.5
 21
108.90000000000001
 31
0.0
  0
LINE
  5
A6
  8
1
 10
328.0
 20
140.0
 30
0.0
 11
265.0
 21
140.0
 31
0.0
  0
LINE
  5
A7
  8
0
 10
299.61483400499321
 20
153.0
 30
0.0
 11
299.61483400499333
 21
127.0
 31
0.0
  0
LINE
  5
A8
  8
2
 10
313.25
 20
170.0
 30
0.0
 11
313.24999999999989
 21
110.0
 31
0.0
  0
LINE
  5
A9
  8
0
 10
316.5
 20
161.5
 30
0.0
 11
302.49910525811259
 21
161.5
 31
0.0
  0
LINE
  5
AA
  8
0
 10
316.5
 20
118.5
 30
0.0
 11
302.49910525811259
 21
118.5
 31
0.0
  0
LINE
  5
AB
  8
0
 10
316.5
 20
118.5
 30
0.0
 11
316.5
 21
161.5
 31
0.0
  0
LINE
  5
AC
  8
0
 10
303.5
 20
163.0
 30
0.0
 11
303.5
 21
170.0
 31
0.0
  0
LINE
  5
AD
  8
0
 10
317.9999999999992
 20
163.0
 30
0.0
 11
303.5
 21
163.0
 31
0.0
  0
LINE
  5
AE
  8
0
 10
317.9999999999992
 20
117.0
 30
0.0
 11
303.5
 21
117.0
 31
0.0
  0
LINE
  5
AF
  8
0
 10
303.5
 20
110.0
 30
0.0
 11
303.5
 21
117.0
 31
0.0
  0
LINE
  5
B0
  8
0
 10
323.0
 20
170.0
 30
0.0
 11
303.5
 21
170.0
 31
0.0
  0
LINE
  5
B1
  8
0
 10
270.0
 20
170.0
 30
0.0
 11
270.0
 21
110.0
 31
0.0
  0
LINE
  5
B2
  8
0
 10
323.0
 20
110.0
 30
0.0
 11
303.5
 21
110.0
 31
0.0
  0
LINE
  5
B3
  8
1
 10
310.0
 20
100.25
 30
0.0
 11
310.0
 21
179.75
 31
0.0
  0
LINE
  5
B4
  8
0
 10
317.9999999999992
 20
117.0
 30
0.0
 11
317.9999999999992
 21
163.0
 31
0.0
  0
LINE
  5
B5
  8
0
 10
323.0
 20
110.0
 30
0.0
 11
323.0
 21
170.0
 31
0.0
  0
LINE
  5
B6
  8
0
 10
302.49910525811259
 20
169.99999999999989
 30
0.0
 11
270.0
 21
170.0
 31
0.0
  0
LINE
  5
B7
  8
0
 10
302.49910525811259
 20
110.0
 30
0.0
 11
270.0
 21
110.0
 31
0.0
  0
LINE
  5
B8
  8
0
 10
302.49910525811259
 20
110.0
 30
0.0
 11
302.49910525811259
 21
169.99999999999989
 31
0.0
  0
LINE
  5
B9
  8
0
 10
316.0
 20
162.99999999999989
 30
0.0
 11
316.0
 21
161.5
 31
0.0
  0
LINE
  5
BA
  8
0
 10
304.0
 20
162.99999999999989
 30
0.0
 11
304.0
 21
161.5
 31
0.0
  0
LINE
  5
BB
  8
0
 10
304.0
 20
117.0
 30
0.0
 11
304.0
 21
118.4999999999999
 31
0.0
  0
LINE
  5
BC
  8
0
 10
316.0
 20
117.0
 30
0.0
 11
316.0
 21
118.4999999999999
 31
0.0
  0
LINE
  5
BD
  8
0
 10
295.0000000000004
 20
169.99999999999989
 30
0.0
 11
295.0000000000004
 21
153.0
 31
0.0
  0
LINE
  5
BE
  8
0
 10
274.0
 20
127.0000000000001
 30
0.0
 11
274.0
 21
153.0
 31
0.0
  0
LINE
  5
BF
  8
0
 10
299.61483400499321
 20
153.0
 30
0.0
 11
274.0
 21
153.0
 31
0.0
  0
LINE
  5
C0
  8
0
 10
299.61483400499333
 20
127.0
 30
0.0
 11
274.0
 21
127.0000000000001
 31
0.0
  0
LINE
  5
C1
  8
0
 10
295.0000000000004
 20
127.0000000000001
 30
0.0
 11
295.00000000000063
 21
110.0
 31
0.0
  0
LINE
  5
C2
  8
2
 10
306.75
 20
170.0
 30
0.0
 11
306.74999999999989
 21
110.0
 31
0.0
  0
LINE
  5
C3
  8
2
 10
314.0
 20
161.5
 30
0.0
 11
314.0
 21
118.5
 31
0.0
  0
LINE
  5
C4
  8
2
 10
306.0
 20
161.5
 30
0.0
 11
306.0
 21
118.5
 31
0.0
  0
LINE
  5
C5
  8
2
 10
314.0
 20
157.0
 30
0.0
 11
306.0
 21
157.0
 31
0.0
  0
LINE
  5
C6
  8
2
 10
314.0
 20
123.0000000000001
 30
0.0
 11
306.0
 21
123.0000000000001
 31
0.0
  0
LINE
  5
C7
  8
0
 10
77.000000000000682
 20
126.9999999999997
 30
0.0
 11
81.000000000000668
 21
126.9999999999997
 31
0.0
  0
LINE
  5
C8
  8
0
 10
77.000000000000654
 20
152.9999999999996
 30
0.0
 11
81.000000000000668
 21
152.99999999999969
 31
0.0
  0
LINE
  5
C9
  8
0
 10
81.000000000000668
 20
126.9999999999997
 30
0.0
 11
81.000000000000668
 21
152.99999999999969
 31
0.0
  0
LINE
  5
CA
  8
0
 10
77.000000000000654
 20
110.0000000000007
 30
0.0
 11
77.000000000000654
 21
169.9999999999996
 31
0.0
  0
LINE
  5
CB
  8
1
 10
222.0
 20
159.9999999999996
 30
0.0
 11
237.9999999999994
 21
159.9999999999996
 31
0.0
  0
LINE
  5
CC
  8
0
 10
214.0
 20
162.99999999999949
 30
0.0
 11
214.0
 21
161.4999999999996
 31
0.0
  0
LINE
  5
CD
  8
0
 10
214.0
 20
116.9999999999996
 30
0.0
 11
214.0
 21
118.4999999999995
 31
0.0
  0
LINE
  5
CE
  8
0
 10
230.0
 20
110.0000000000003
 30
0.0
 11
230.0
 21
169.99999999999949
 31
0.0
  0
LINE
  5
CF
  8
0
 10
217.89968978580299
 20
118.5000000000004
 30
0.0
 11
217.89968978580299
 21
110.0000000000003
 31
0.0
  0
LINE
  5
D0
  8
0
 10
213.5
 20
118.5000000000004
 30
0.0
 11
217.89968978580299
 21
118.5000000000004
 31
0.0
  0
LINE
  5
D1
  8
0
 10
217.89968978580299
 20
117.0000000000003
 30
0.0
 11
213.22859274351919
 21
117.0000000000003
 31
0.0
  0
LINE
  5
D2
  8
0
 10
217.89968978580299
 20
161.49999999999949
 30
0.0
 11
217.89968978580299
 21
169.9999999999996
 31
0.0
  0
LINE
  5
D3
  8
0
 10
232.99999999999929
 20
169.99999999999949
 30
0.0
 11
232.99999999999929
 21
110.0000000000007
 31
0.0
  0
LINE
  5
D4
  8
1
 10
140.0
 20
91.499999999999957
 30
0.0
 11
140.0
 21
68.499999999999972
 31
0.0
  0
LINE
  5
D5
  8
1
 10
151.5
 20
79.999999999999972
 30
0.0
 11
122.0000000000004
 21
80.000000000000028
 31
0.0
  0
LINE
  5
D6
  8
0
 10
140.0
 20
73.499999999999972
 30
0.0
 11
147.50089474188729
 21
73.499999999999915
 31
0.0
  0
ARC
  5
D7
  8
2
 10
140.0
 20
79.999999999999972
 30
0.0
 40
6.5
 50
87.818155348681415
 51
270.0
  0
LINE
  5
D8
  8
2
 10
132.0000000000008
 20
73.228592743519101
 30
0.0
 11
132.0000000000008
 21
86.771407256480856
 31
0.0
  0
LINE
  5
D9
  8
0
 10
127.0
 20
72.999999999999972
 30
0.0
 11
127.0000000000008
 21
86.999999999999972
 31
0.0
  0
ARC
  5
DC
  8
0
 10
140.0
 20
79.999999999999972
 30
0.0
 40
6.5
 50
272.18184465131839
 51
87.818155348681586
  0
CIRCLE
  5
DD
  8
0
 10
140.0
 20
79.999999999999972
 30
0.0
 40
2.25
  0
LINE
  5
DE
  8
0
 10
139.01335736222029
 20
76.903383087090873
 30
0.0
 11
138.60324249342409
 21
76.193043297396429
 31
0.0
  0
LINE
  5
DF
  8
0
 10
136.75
 20
79.999999999999972
 30
0.0
 11
136.03137303340679
 21
79.999999999999972
 31
0.0
  0
LINE
  5
E0
  8
0
 10
137.54091291424729
 20
82.124944870975099
 30
0.0
 11
136.95703896001879
 21
83.729125376025621
 31
0.0
  0
LINE
  5
E1
  8
2
 10
140.59999999999991
 20
77.573067780097944
 30
0.0
 11
140.98664263777971
 21
76.903383087090873
 31
0.0
  0
LINE
  5
E2
  8
2
 10
142.49999999999409
 20
79.999999999999972
 30
0.0
 11
143.25
 21
79.999999999999972
 31
0.0
  0
LINE
  5
E3
  8
2
 10
142.14999999999989
 20
81.275735082223918
 30
0.0
 11
142.45908708575271
 21
82.124944870974915
 31
0.0
  0
CIRCLE
  5
E4
  8
0
 10
140.0
 20
79.999999999999972
 30
0.0
 40
3.25
  0
CIRCLE
  5
E5
  8
2
 10
140.0
 20
79.999999999999972
 30
0.0
 40
2.5
  0
ARC
  5
E6
  8
0
 10
140.0
 20
79.999999999999972
 30
0.0
 40
5.5
 50
134.63287407582311
 51
45.367125924211187
  0
ARC
  5
E7
  8
0
 10
140.0
 20
79.999999999999972
 30
0.0
 40
4.5
 50
187.1807557814648
 51
242.7777972062961
  0
LINE
  5
E8
  8
2
 10
137.84999999999999
 20
81.275735082223918
 30
0.0
 11
137.5409129142472
 21
82.124944870974915
 31
0.0
  0
LINE
  5
E9
  8
0
 10
142.4590870857526
 20
82.124944870975099
 30
0.0
 11
143.04296103998109
 21
83.729125376025621
 31
0.0
  0
ARC
  5
EA
  8
0
 10
136.48719264962801
 20
83.558115304356164
 30
0.0
 40
0.5
 50
19.99999999999315
 51
134.6328740758218
  0
ARC
  5
EB
  8
0
 10
143.5128073503742
 20
83.558115304362744
 30
0.0
 40
0.5
 50
45.367125924210427
 51
160.00000000000679
  0
LINE
  5
EC
  8
2
 10
137.5000000000058
 20
79.999999999999972
 30
0.0
 11
136.75
 21
79.999999999999972
 31
0.0
  0
LINE
  5
ED
  8
0
 10
143.25
 20
79.999999999999972
 30
0.0
 11
143.96862696659309
 21
79.999999999999972
 31
0.0
  0
ARC
  5
EE
  8
0
 10
136.03137303340679
 20
79.499999999999972
 30
0.0
 40
0.5
 50
89.999999999999986
 51
187.1807557814646
  0
ARC
  5
EF
  8
0
 10
143.96862696659321
 20
79.499999999999972
 30
0.0
 40
0.5
 50
352.81924421853529
 51
90.000000000006494
  0
LINE
  5
F0
  8
2
 10
139.40000000000009
 20
77.573067780097944
 30
0.0
 11
139.01335736222029
 21
76.903383087090873
 31
0.0
  0
LINE
  5
F1
  8
0
 10
140.98664263777971
 20
76.903383087090873
 30
0.0
 11
141.3967575065758
 21
76.193043297396429
 31
0.0
  0
ARC
  5
F2
  8
0
 10
140.0
 20
79.999999999999972
 30
0.0
 40
4.5
 50
297.22220279370788
 51
352.81924421853518
  0
ARC
  5
F3
  8
0
 10
138.1702297915345
 20
76.443043297401076
 30
0.0
 40
0.5
 50
242.77779720629911
 51
330.00000000000551
  0
ARC
  5
F4
  8
0
 10
141.82977020846809
 20
76.443043297396429
 30
0.0
 40
0.5
 50
209.9999999999973
 51
297.22220279370953
  0
LINE
  5
F5
  8
0
 10
180.0
 20
67.000000000000767
 30
0.0
 11
180.0
 21
70.000000000000767
 31
0.0
  0
LINE
  5
F6
  8
0
 10
180.0
 20
70.000000000000767
 30
0.0
 11
177.0
 21
73.000000000000767
 31
0.0
  0
LINE
  5
F7
  8
0
 10
177.0
 20
73.000000000000767
 30
0.0
 11
158.00000000000031
 21
73.000000000000767
 31
0.0
  0
LINE
  5
F8
  8
0
 10
180.0
 20
67.000000000000711
 30
0.0
 11
154.99999999999969
 21
67.000000000000711
 31
0.0
  0
LINE
  5
F9
  8
1
 10
170.0
 20
78.000000000000767
 30
0.0
 11
170.0
 21
62.000000000000647
 31
0.0
  0
LINE
  5
FA
  8
0
 10
158.00000000000139
 20
73.000000000000767
 30
0.0
 11
144.25733853435889
 21
84.911727659781477
 31
0.0
  0
LINE
  5
FB
  8
0
 10
154.99999999999969
 20
67.000000000000711
 30
0.0
 11
147.50089474188729
 21
73.499999999999915
 31
0.0
  0
LINE
  5
FC
  8
0
 10
147.50089474188729
 20
73.499999999999915
 30
0.0
 11
147.50089474188729
 21
82.10031021419698
 31
0.0
  0
LINE
  5
FD
  8
2
 10
176.0
 20
71.000000000000711
 30
0.0
 11
150.3851659950069
 21
71.000000000000711
 31
0.0
  0
LINE
  5
FE
  8
2
 10
176.0
 20
67.000000000000767
 30
0.0
 11
176.0
 21
71.000000000000654
 31
0.0
  0
LINE
  5
FF
  8
2
 10
136.0
 20
123.0000000000001
 30
0.0
 11
144.0
 21
123.0000000000001
 31
0.0
  0
LINE
  5
100
  8
2
 10
136.0
 20
157.0
 30
0.0
 11
144.0
 21
157.0
 31
0.0
  0
LINE
  5
101
  8
2
 10
144.0
 20
161.5
 30
0.0
 11
144.0
 21
118.5
 31
0.0
  0
LINE
  5
102
  8
2
 10
136.0
 20
161.5
 30
0.0
 11
136.0
 21
118.5
 31
0.0
  0
LINE
  5
103
  8
2
 10
143.25
 20
170.0
 30
0.0
 11
143.25000000000011
 21
110.0
 31
0.0
  0
LINE
  5
104
  8
2
 10
154.99999999999949
 20
127.0000000000001
 30
0.0
 11
154.99999999999949
 21
110.0
 31
0.0
  0
LINE
  5
105
  8
2
 10
150.3851659950067
 20
127.0
 30
0.0
 11
176.0
 21
127.0000000000001
 31
0.0
  0
LINE
  5
106
  8
2
 10
150.38516599500679
 20
153.0
 30
0.0
 11
176.0
 21
153.0
 31
0.0
  0
LINE
  5
107
  8
2
 10
176.0
 20
127.0000000000001
 30
0.0
 11
176.0
 21
153.0
 31
0.0
  0
LINE
  5
108
  8
2
 10
154.9999999999996
 20
169.99999999999989
 30
0.0
 11
154.99999999999949
 21
153.0
 31
0.0
  0
LINE
  5
109
  8
0
 10
134.0
 20
117.0
 30
0.0
 11
134.0
 21
118.4999999999999
 31
0.0
  0
LINE
  5
10A
  8
0
 10
146.0
 20
117.0
 30
0.0
 11
146.0
 21
118.4999999999999
 31
0.0
  0
LINE
  5
10B
  8
0
 10
146.0
 20
162.99999999999989
 30
0.0
 11
146.0
 21
161.5
 31
0.0
  0
LINE
  5
10C
  8
0
 10
134.0
 20
162.99999999999989
 30
0.0
 11
134.0
 21
161.5
 31
0.0
  0
CIRCLE
  5
10D
  8
0
 10
170.0
 20
120.0
 30
0.0
 40
5.1500000000000004
  0
CIRCLE
  5
10E
  8
0
 10
170.0
 20
120.0
 30
0.0
 40
2.649999999999999
  0
CIRCLE
  5
10F
  8
0
 10
170.0
 20
160.0
 30
0.0
 40
2.649999999999999
  0
CIRCLE
  5
110
  8
0
 10
170.0
 20
160.0
 30
0.0
 40
5.1500000000000004
  0
LINE
  5
111
  8
0
 10
147.50089474188729
 20
110.0
 30
0.0
 11
147.50089474188729
 21
118.5
 31
0.0
  0
LINE
  5
112
  8
0
 10
147.50089474188729
 20
161.5
 30
0.0
 11
147.50089474188729
 21
169.99999999999989
 31
0.0
  0
LINE
  5
113
  8
0
 10
147.50089474188729
 20
110.0
 30
0.0
 11
180.0
 21
109.9999999999999
 31
0.0
  0
LINE
  5
114
  8
0
 10
147.50089474188729
 20
169.99999999999989
 30
0.0
 11
180.0
 21
170.0
 31
0.0
  0
LINE
  5
115
  8
0
 10
158.00000000000139
 20
170.0
 30
0.0
 11
158.00000000000131
 21
109.9999999999999
 31
0.0
  0
LINE
  5
116
  8
0
 10
177.0
 20
170.0
 30
0.0
 11
177.0
 21
109.9999999999999
 31
0.0
  0
LINE
  5
117
  8
2
 10
176.0
 20
222.9999999999992
 30
0.0
 11
176.0
 21
218.99999999999929
 31
0.0
  0
LINE
  5
118
  8
2
 10
176.0
 20
218.99999999999929
 30
0.0
 11
150.3851659950069
 21
218.99999999999929
 31
0.0
  0
LINE
  5
119
  8
0
 10
147.50089474188729
 20
216.5
 30
0.0
 11
147.50089474188729
 21
207.89968978580299
 31
0.0
  0
LINE
  5
11A
  8
0
 10
154.99999999999969
 20
222.99999999999929
 30
0.0
 11
147.50089474188729
 21
216.5
 31
0.0
  0
LINE
  5
11B
  8
0
 10
158.00000000000139
 20
216.9999999999992
 30
0.0
 11
144.25733853435889
 21
205.08827234021851
 31
0.0
  0
LINE
  5
11C
  8
1
 10
170.0
 20
211.9999999999992
 30
0.0
 11
170.0
 21
227.99999999999929
 31
0.0
  0
LINE
  5
11D
  8
0
 10
180.0
 20
222.99999999999929
 30
0.0
 11
154.99999999999969
 21
222.99999999999929
 31
0.0
  0
LINE
  5
11E
  8
0
 10
177.0
 20
216.9999999999992
 30
0.0
 11
158.00000000000031
 21
216.9999999999992
 31
0.0
  0
LINE
  5
11F
  8
0
 10
180.0
 20
219.9999999999992
 30
0.0
 11
177.0
 21
216.9999999999992
 31
0.0
  0
LINE
  5
120
  8
0
 10
180.0
 20
222.9999999999992
 30
0.0
 11
180.0
 21
219.9999999999992
 31
0.0
  0
LINE
  5
121
  8
0
 10
146.75235786118759
 20
216.5
 30
0.0
 11
147.50089474188729
 21
216.5
 31
0.0
  0
LINE
  5
122
  8
2
 10
140.0
 20
216.5
 30
0.0
 11
146.75235786118759
 21
216.5
 31
0.0
  0
ARC
  5
123
  8
0
 10
141.82977020846809
 20
213.55695670260349
 30
0.0
 40
0.5
 50
62.777797206290558
 51
150.0000000000027
  0
ARC
  5
124
  8
0
 10
138.1702297915345
 20
213.55695670259891
 30
0.0
 40
0.5
 50
29.999999999994479
 51
117.2222027937009
  0
ARC
  5
125
  8
0
 10
140.0
 20
210.0
 30
0.0
 40
4.5
 50
7.180755781464863
 51
62.777797206292092
  0
LINE
  5
126
  8
0
 10
140.98664263777971
 20
213.0966169129091
 30
0.0
 11
141.3967575065758
 21
213.8069567026036
 31
0.0
  0
LINE
  5
127
  8
2
 10
139.40000000000009
 20
212.426932219902
 30
0.0
 11
139.01335736222029
 21
213.0966169129091
 31
0.0
  0
ARC
  5
128
  8
0
 10
143.96862696659321
 20
210.5
 30
0.0
 40
0.5
 50
269.99999999999352
 51
7.1807557814646596
  0
ARC
  5
129
  8
0
 10
136.03137303340679
 20
210.5
 30
0.0
 40
0.5
 50
172.8192442185354
 51
270.00000000000011
  0
LINE
  5
12A
  8
0
 10
143.25
 20
210.0
 30
0.0
 11
143.96862696659309
 21
210.0
 31
0.0
  0
LINE
  5
12B
  8
2
 10
137.5000000000058
 20
210.0
 30
0.0
 11
136.75
 21
210.0
 31
0.0
  0
ARC
  5
12C
  8
0
 10
143.5128073503742
 20
206.44188469563721
 30
0.0
 40
0.5
 50
199.99999999999321
 51
314.63287407578957
  0
ARC
  5
12D
  8
0
 10
136.48719264962801
 20
206.44188469564381
 30
0.0
 40
0.5
 50
225.3671259241782
 51
340.00000000000688
  0
LINE
  5
12E
  8
0
 10
142.4590870857526
 20
207.8750551290249
 30
0.0
 11
143.04296103998109
 21
206.27087462397429
 31
0.0
  0
LINE
  5
12F
  8
2
 10
137.84999999999999
 20
208.72426491777611
 30
0.0
 11
137.5409129142472
 21
207.8750551290251
 31
0.0
  0
ARC
  5
130
  8
0
 10
140.0
 20
210.0
 30
0.0
 40
4.5
 50
117.2222027937039
 51
172.8192442185352
  0
ARC
  5
131
  8
0
 10
140.0
 20
210.0
 30
0.0
 40
5.5
 50
314.63287407578878
 51
225.367125924177
  0
CIRCLE
  5
132
  8
2
 10
140.0
 20
210.0
 30
0.0
 40
2.5
  0
CIRCLE
  5
133
  8
0
 10
140.0
 20
210.0
 30
0.0
 40
3.25
  0
LINE
  5
134
  8
2
 10
142.14999999999989
 20
208.72426491777611
 30
0.0
 11
142.45908708575271
 21
207.8750551290251
 31
0.0
  0
LINE
  5
135
  8
2
 10
142.49999999999409
 20
210.0
 30
0.0
 11
143.25
 21
210.0
 31
0.0
  0
LINE
  5
136
  8
2
 10
140.59999999999991
 20
212.426932219902
 30
0.0
 11
140.98664263777971
 21
213.0966169129091
 31
0.0
  0
LINE
  5
137
  8
0
 10
137.54091291424729
 20
207.8750551290249
 30
0.0
 11
136.95703896001879
 21
206.27087462397429
 31
0.0
  0
LINE
  5
138
  8
0
 10
136.75
 20
210.0
 30
0.0
 11
136.03137303340679
 21
210.0
 31
0.0
  0
LINE
  5
139
  8
0
 10
139.01335736222029
 20
213.0966169129091
 30
0.0
 11
138.60324249342409
 21
213.8069567026036
 31
0.0
  0
CIRCLE
  5
13A
  8
0
 10
140.0
 20
210.0
 30
0.0
 40
2.25
  0
ARC
  5
13B
  8
0
 10
140.0
 20
210.0
 30
0.0
 40
6.5
 50
182.18184465131841
 51
357.81815534868161
  0
LINE
  5
13E
  8
0
 10
147.0
 20
223.0
 30
0.0
 11
133.0
 21
222.9999999999992
 31
0.0
  0
LINE
  5
13F
  8
1
 10
154.5
 20
210.0
 30
0.0
 11
128.5
 21
210.0
 31
0.0
  0
LINE
  5
140
  8
1
 10
140.0
 20
198.5
 30
0.0
 11
140.0
 21
227.99999999999949
 31
0.0
  0
LINE
  5
141
  8
2
 10
146.7714072564809
 20
217.9999999999992
 30
0.0
 11
133.2285927435191
 21
217.9999999999992
 31
0.0
  0
ARC
  5
142
  8
2
 10
140.0
 20
210.0
 30
0.0
 40
6.5
 50
90.000000000000028
 51
182.1818446513185
  0
LINE
  5
143
  8
0
 10
127.0
 20
110.0
 30
0.0
 11
127.0
 21
170.0
 31
0.0
  0
LINE
  5
144
  8
0
 10
132.0000000000008
 20
117.0
 30
0.0
 11
132.00000000000071
 21
162.99999999999989
 31
0.0
  0
LINE
  5
145
  8
1
 10
140.0
 20
100.25
 30
0.0
 11
140.0
 21
179.75
 31
0.0
  0
LINE
  5
146
  8
0
 10
127.0
 20
110.0
 30
0.0
 11
146.5
 21
110.0
 31
0.0
  0
LINE
  5
147
  8
0
 10
180.0
 20
170.0
 30
0.0
 11
180.0
 21
109.9999999999999
 31
0.0
  0
LINE
  5
148
  8
0
 10
127.0
 20
170.0
 30
0.0
 11
146.5
 21
170.0
 31
0.0
  0
LINE
  5
149
  8
0
 10
146.5
 20
110.0
 30
0.0
 11
146.5
 21
117.0
 31
0.0
  0
LINE
  5
14A
  8
0
 10
132.0000000000008
 20
117.0
 30
0.0
 11
146.5
 21
117.0
 31
0.0
  0
LINE
  5
14B
  8
0
 10
132.00000000000071
 20
162.99999999999989
 30
0.0
 11
146.5
 21
163.0
 31
0.0
  0
LINE
  5
14C
  8
0
 10
146.5
 20
163.0
 30
0.0
 11
146.5
 21
170.0
 31
0.0
  0
LINE
  5
14D
  8
0
 10
133.5
 20
118.5
 30
0.0
 11
133.49999999999989
 21
161.5
 31
0.0
  0
LINE
  5
14E
  8
0
 10
133.5
 20
118.5
 30
0.0
 11
147.50089474188729
 21
118.5
 31
0.0
  0
LINE
  5
14F
  8
0
 10
133.49999999999989
 20
161.5
 30
0.0
 11
147.50089474188729
 21
161.5
 31
0.0
  0
LINE
  5
150
  8
2
 10
136.75
 20
170.0
 30
0.0
 11
136.75000000000011
 21
110.0
 31
0.0
  0
LINE
  5
151
  8
2
 10
150.38516599500679
 20
153.0
 30
0.0
 11
150.3851659950067
 21
127.0
 31
0.0
  0
LINE
  5
152
  8
1
 10
120.9999999999999
 20
139.99999999999989
 30
0.0
 11
185.0
 21
140.0
 31
0.0
  0
LINE
  5
153
  8
2
 10
142.5
 20
108.2999999999999
 30
0.0
 11
142.5
 21
108.90000000000001
 31
0.0
  0
LINE
  5
154
  8
2
 10
137.5
 20
108.2999999999999
 30
0.0
 11
137.5
 21
108.90000000000001
 31
0.0
  0
LINE
  5
155
  8
0
 10
137.5
 20
108.89999999999991
 30
0.0
 11
137.5
 21
108.9499999999999
 31
0.0
  0
LINE
  5
156
  8
0
 10
142.5
 20
108.89999999999991
 30
0.0
 11
142.5
 21
108.9499999999999
 31
0.0
  0
LINE
  5
157
  8
0
 10
134.5
 20
108.90000000000001
 30
0.0
 11
145.5
 21
108.89999999999981
 31
0.0
  0
LINE
  5
158
  8
0
 10
134.5
 20
108.2999999999999
 30
0.0
 11
145.50000000000011
 21
108.2999999999999
 31
0.0
  0
LINE
  5
159
  8
0
 10
145.50000000000011
 20
108.2999999999999
 30
0.0
 11
145.5
 21
108.89999999999981
 31
0.0
  0
LINE
  5
15A
  8
0
 10
134.5
 20
108.2999999999999
 30
0.0
 11
134.5
 21
108.90000000000001
 31
0.0
  0
LINE
  5
15B
  8
0
 10
137.5
 20
108.25
 30
0.0
 11
137.5
 21
108.2999999999999
 31
0.0
  0
LINE
  5
15C
  8
0
 10
142.5
 20
108.25
 30
0.0
 11
142.5
 21
108.2999999999999
 31
0.0
  0
LINE
  5
15D
  8
0
 10
143.24999999999989
 20
108.25
 30
0.0
 11
143.25
 21
106.25
 31
0.0
  0
LINE
  5
15E
  8
0
 10
136.74999999999989
 20
108.25
 30
0.0
 11
136.74999999999989
 21
106.25
 31
0.0
  0
LINE
  5
15F
  8
0
 10
143.24999999999989
 20
108.25
 30
0.0
 11
136.74999999999989
 21
108.2499999999999
 31
0.0
  0
LINE
  5
160
  8
0
 10
143.24999999999989
 20
108.9499999999999
 30
0.0
 11
136.74999999999989
 21
108.9499999999999
 31
0.0
  0
LINE
  5
161
  8
0
 10
136.74999999999989
 20
110.0
 30
0.0
 11
136.74999999999989
 21
108.9499999999999
 31
0.0
  0
LINE
  5
162
  8
0
 10
143.25
 20
110.0
 30
0.0
 11
143.24999999999989
 21
108.95
 31
0.0
  0
LINE
  5
163
  8
0
 10
137.74999999999989
 20
105.2499999999999
 30
0.0
 11
142.25
 21
105.25
 31
0.0
  0
LINE
  5
164
  8
0
 10
136.74999999999989
 20
106.25
 30
0.0
 11
143.24999999999989
 21
106.25
 31
0.0
  0
LINE
  5
165
  8
0
 10
136.74999999999989
 20
106.25
 30
0.0
 11
137.74999999999989
 21
105.2499999999999
 31
0.0
  0
LINE
  5
166
  8
0
 10
142.25
 20
105.25
 30
0.0
 11
143.25
 21
106.25
 31
0.0
  0
LINE
  5
167
  8
0
 10
142.25
 20
174.75
 30
0.0
 11
143.25
 21
173.75
 31
0.0
  0
LINE
  5
168
  8
0
 10
136.74999999999989
 20
173.75
 30
0.0
 11
137.74999999999989
 21
174.75
 31
0.0
  0
LINE
  5
169
  8
0
 10
136.74999999999989
 20
173.75
 30
0.0
 11
143.24999999999989
 21
173.75
 31
0.0
  0
LINE
  5
16A
  8
0
 10
137.74999999999989
 20
174.75
 30
0.0
 11
142.25
 21
174.75
 31
0.0
  0
LINE
  5
16B
  8
0
 10
143.25
 20
170.0
 30
0.0
 11
143.24999999999989
 21
171.05000000000001
 31
0.0
  0
LINE
  5
16C
  8
0
 10
136.74999999999989
 20
170.0
 30
0.0
 11
136.74999999999989
 21
171.0500000000001
 31
0.0
  0
LINE
  5
16D
  8
0
 10
143.24999999999989
 20
171.05000000000001
 30
0.0
 11
136.74999999999989
 21
171.0500000000001
 31
0.0
  0
LINE
  5
16E
  8
0
 10
143.24999999999989
 20
171.75
 30
0.0
 11
136.74999999999989
 21
171.75
 31
0.0
  0
LINE
  5
16F
  8
0
 10
136.74999999999989
 20
171.75
 30
0.0
 11
136.74999999999989
 21
173.75
 31
0.0
  0
LINE
  5
170
  8
0
 10
143.24999999999989
 20
171.74999999999989
 30
0.0
 11
143.25
 21
173.75
 31
0.0
  0
LINE
  5
171
  8
0
 10
142.5
 20
171.75
 30
0.0
 11
142.5
 21
171.69999999999999
 31
0.0
  0
LINE
  5
172
  8
0
 10
137.5
 20
171.75
 30
0.0
 11
137.5
 21
171.69999999999999
 31
0.0
  0
LINE
  5
173
  8
0
 10
134.5
 20
171.69999999999999
 30
0.0
 11
134.5
 21
171.09999999999999
 31
0.0
  0
LINE
  5
174
  8
0
 10
145.50000000000011
 20
171.69999999999999
 30
0.0
 11
145.5
 21
171.10000000000011
 31
0.0
  0
LINE
  5
175
  8
0
 10
134.5
 20
171.69999999999999
 30
0.0
 11
145.50000000000011
 21
171.69999999999999
 31
0.0
  0
LINE
  5
176
  8
0
 10
134.5
 20
171.09999999999999
 30
0.0
 11
145.5
 21
171.10000000000011
 31
0.0
  0
LINE
  5
177
  8
0
 10
142.5
 20
171.10000000000011
 30
0.0
 11
142.5
 21
171.05000000000001
 31
0.0
  0
LINE
  5
178
  8
0
 10
137.5
 20
171.09999999999999
 30
0.0
 11
137.5
 21
171.05000000000001
 31
0.0
  0
LINE
  5
179
  8
2
 10
137.5
 20
171.69999999999999
 30
0.0
 11
137.5
 21
171.09999999999999
 31
0.0
  0
LINE
  5
17A
  8
2
 10
142.5
 20
171.69999999999999
 30
0.0
 11
142.5
 21
171.09999999999999
 31
0.0
  0
LINE
  5
17B
  8
0
 10
97.000000000000014
 20
109.9999999999995
 30
0.0
 11
77.000000000000654
 21
110.0000000000007
 31
0.0
  0
LINE
  5
17C
  8
0
 10
77.000000000000654
 20
169.9999999999996
 30
0.0
 11
96.999999999999986
 21
169.9999999999996
 31
0.0
  0
LINE
  5
17D
  8
0
 10
83.000000000000014
 20
110.0000000000003
 30
0.0
 11
83.000000000000014
 21
169.9999999999996
 31
0.0
  0
LINE
  5
17E
  8
0
 10
97.000000000000014
 20
109.9999999999995
 30
0.0
 11
96.999999999999986
 21
169.9999999999996
 31
0.0
  0
LINE
  5
17F
  8
2
 10
92.500000000000028
 20
171.6999999999997
 30
0.0
 11
92.500000000000028
 21
171.09999999999951
 31
0.0
  0
LINE
  5
180
  8
2
 10
87.500000000000028
 20
171.6999999999997
 30
0.0
 11
87.500000000000028
 21
171.09999999999951
 31
0.0
  0
LINE
  5
181
  8
0
 10
87.500000000000028
 20
171.0999999999996
 30
0.0
 11
87.500000000000028
 21
171.04999999999961
 31
0.0
  0
LINE
  5
182
  8
0
 10
92.500000000000028
 20
171.0999999999996
 30
0.0
 11
92.500000000000028
 21
171.04999999999961
 31
0.0
  0
LINE
  5
183
  8
0
 10
84.500000000000014
 20
171.09999999999951
 30
0.0
 11
95.499999999999972
 21
171.0999999999998
 31
0.0
  0
LINE
  5
184
  8
0
 10
84.500000000000014
 20
171.6999999999997
 30
0.0
 11
95.500000000000085
 21
171.6999999999997
 31
0.0
  0
LINE
  5
185
  8
0
 10
95.500000000000085
 20
171.6999999999997
 30
0.0
 11
95.499999999999972
 21
171.0999999999998
 31
0.0
  0
LINE
  5
186
  8
0
 10
84.500000000000014
 20
171.6999999999997
 30
0.0
 11
84.500000000000014
 21
171.09999999999951
 31
0.0
  0
LINE
  5
187
  8
0
 10
87.500000000000028
 20
171.7499999999996
 30
0.0
 11
87.499999999999986
 21
171.6999999999997
 31
0.0
  0
LINE
  5
188
  8
0
 10
92.500000000000028
 20
171.7499999999996
 30
0.0
 11
92.500000000000028
 21
171.6999999999997
 31
0.0
  0
LINE
  5
189
  8
0
 10
93.249999999999972
 20
171.74999999999949
 30
0.0
 11
93.249999999999986
 21
173.7499999999996
 31
0.0
  0
LINE
  5
18A
  8
0
 10
86.749999999999915
 20
171.7499999999996
 30
0.0
 11
86.749999999999915
 21
173.7499999999996
 31
0.0
  0
LINE
  5
18B
  8
0
 10
93.249999999999915
 20
171.7499999999996
 30
0.0
 11
86.749999999999915
 21
171.7499999999996
 31
0.0
  0
LINE
  5
18C
  8
0
 10
93.249999999999915
 20
171.04999999999961
 30
0.0
 11
86.749999999999915
 21
171.0499999999997
 31
0.0
  0
LINE
  5
18D
  8
0
 10
86.749999999999972
 20
169.9999999999996
 30
0.0
 11
86.749999999999972
 21
171.0499999999997
 31
0.0
  0
LINE
  5
18E
  8
0
 10
93.249999999999986
 20
169.9999999999996
 30
0.0
 11
93.249999999999972
 21
171.04999999999961
 31
0.0
  0
LINE
  5
18F
  8
0
 10
87.749999999999915
 20
174.7499999999996
 30
0.0
 11
92.249999999999986
 21
174.7499999999996
 31
0.0
  0
LINE
  5
190
  8
0
 10
86.749999999999915
 20
173.7499999999996
 30
0.0
 11
93.249999999999972
 21
173.7499999999996
 31
0.0
  0
LINE
  5
191
  8
0
 10
86.749999999999915
 20
173.7499999999996
 30
0.0
 11
87.749999999999915
 21
174.7499999999996
 31
0.0
  0
LINE
  5
192
  8
0
 10
92.249999999999986
 20
174.7499999999996
 30
0.0
 11
93.249999999999986
 21
173.7499999999996
 31
0.0
  0
LINE
  5
193
  8
1
 10
89.999999999999986
 20
100.2499999999996
 30
0.0
 11
89.999999999999986
 21
179.7499999999996
 31
0.0
  0
LINE
  5
194
  8
0
 10
92.249999999999986
 20
105.2499999999996
 30
0.0
 11
93.249999999999986
 21
106.2499999999996
 31
0.0
  0
LINE
  5
195
  8
0
 10
86.749999999999915
 20
106.2499999999996
 30
0.0
 11
87.749999999999915
 21
105.2499999999996
 31
0.0
  0
LINE
  5
196
  8
0
 10
86.749999999999915
 20
106.2499999999996
 30
0.0
 11
93.249999999999972
 21
106.2499999999996
 31
0.0
  0
LINE
  5
197
  8
0
 10
87.749999999999915
 20
105.2499999999996
 30
0.0
 11
92.249999999999986
 21
105.2499999999996
 31
0.0
  0
LINE
  5
198
  8
0
 10
93.249999999999986
 20
109.9999999999996
 30
0.0
 11
93.249999999999972
 21
108.9499999999996
 31
0.0
  0
LINE
  5
199
  8
0
 10
86.749999999999972
 20
109.9999999999996
 30
0.0
 11
86.749999999999972
 21
108.94999999999951
 31
0.0
  0
LINE
  5
19A
  8
0
 10
93.249999999999915
 20
108.9499999999996
 30
0.0
 11
86.749999999999915
 21
108.94999999999951
 31
0.0
  0
LINE
  5
19B
  8
0
 10
93.249999999999915
 20
108.2499999999996
 30
0.0
 11
86.749999999999915
 21
108.2499999999995
 31
0.0
  0
LINE
  5
19C
  8
0
 10
86.749999999999915
 20
108.2499999999996
 30
0.0
 11
86.749999999999915
 21
106.2499999999996
 31
0.0
  0
LINE
  5
19D
  8
0
 10
93.249999999999972
 20
108.2499999999996
 30
0.0
 11
93.249999999999986
 21
106.2499999999996
 31
0.0
  0
LINE
  5
19E
  8
0
 10
92.500000000000028
 20
108.2499999999996
 30
0.0
 11
92.500000000000028
 21
108.2999999999995
 31
0.0
  0
LINE
  5
19F
  8
0
 10
87.500000000000028
 20
108.2499999999996
 30
0.0
 11
87.499999999999986
 21
108.2999999999995
 31
0.0
  0
LINE
  5
1A0
  8
0
 10
84.500000000000014
 20
108.2999999999995
 30
0.0
 11
84.500000000000014
 21
108.89999999999959
 31
0.0
  0
LINE
  5
1A1
  8
0
 10
95.500000000000085
 20
108.2999999999995
 30
0.0
 11
95.499999999999972
 21
108.89999999999939
 31
0.0
  0
LINE
  5
1A2
  8
0
 10
84.500000000000014
 20
108.2999999999995
 30
0.0
 11
95.500000000000085
 21
108.2999999999995
 31
0.0
  0
LINE
  5
1A3
  8
0
 10
84.500000000000014
 20
108.89999999999959
 30
0.0
 11
95.499999999999972
 21
108.89999999999939
 31
0.0
  0
LINE
  5
1A4
  8
0
 10
92.500000000000028
 20
108.89999999999949
 30
0.0
 11
92.500000000000028
 21
108.9499999999996
 31
0.0
  0
LINE
  5
1A5
  8
0
 10
87.500000000000028
 20
108.89999999999949
 30
0.0
 11
87.500000000000028
 21
108.9499999999996
 31
0.0
  0
LINE
  5
1A6
  8
2
 10
87.500000000000028
 20
108.2999999999995
 30
0.0
 11
87.500000000000028
 21
108.89999999999959
 31
0.0
  0
LINE
  5
1A7
  8
2
 10
92.500000000000028
 20
108.2999999999995
 30
0.0
 11
92.500000000000028
 21
108.89999999999959
 31
0.0
  0
LINE
  5
1A8
  8
2
 10
83.000000000000014
 20
116.9999999999996
 30
0.0
 11
97.000000000000014
 21
116.9999999999996
 31
0.0
  0
LINE
  5
1A9
  8
2
 10
83.000000000000014
 20
162.9999999999996
 30
0.0
 11
96.999999999999986
 21
162.9999999999996
 31
0.0
  0
LINE
  5
1AA
  8
1
 10
72.000000000000654
 20
140.0
 30
0.0
 11
102.0
 21
140.0
 31
0.0
  0
LINE
  5
1AB
  8
1
 10
237.9999999999994
 20
140.0
 30
0.0
 11
208.0
 21
139.99999999999989
 31
0.0
  0
LINE
  5
1AC
  8
0
 10
217.89968978580299
 20
162.99999999999949
 30
0.0
 11
213.22859274351919
 21
162.99999999999949
 31
0.0
  0
LINE
  5
1AD
  8
2
 10
217.5
 20
108.2999999999995
 30
0.0
 11
217.5
 21
108.89999999999959
 31
0.0
  0
LINE
  5
1AE
  8
2
 10
222.5
 20
108.2999999999995
 30
0.0
 11
222.5
 21
108.89999999999959
 31
0.0
  0
LINE
  5
1AF
  8
0
 10
222.5
 20
108.89999999999949
 30
0.0
 11
222.5
 21
108.94999999999951
 31
0.0
  0
LINE
  5
1B0
  8
0
 10
217.5
 20
108.89999999999949
 30
0.0
 11
217.5
 21
108.94999999999951
 31
0.0
  0
LINE
  5
1B1
  8
0
 10
225.5
 20
108.89999999999959
 30
0.0
 11
214.5
 21
108.89999999999939
 31
0.0
  0
LINE
  5
1B2
  8
0
 10
225.5
 20
108.2999999999995
 30
0.0
 11
214.5
 21
108.2999999999995
 31
0.0
  0
LINE
  5
1B3
  8
0
 10
214.5
 20
108.2999999999995
 30
0.0
 11
214.5
 21
108.89999999999939
 31
0.0
  0
LINE
  5
1B4
  8
0
 10
225.5
 20
108.2999999999995
 30
0.0
 11
225.5
 21
108.89999999999959
 31
0.0
  0
LINE
  5
1B5
  8
0
 10
222.5
 20
108.2499999999996
 30
0.0
 11
222.5
 21
108.2999999999995
 31
0.0
  0
LINE
  5
1B6
  8
0
 10
217.5
 20
108.2499999999996
 30
0.0
 11
217.5
 21
108.2999999999995
 31
0.0
  0
LINE
  5
1B7
  8
0
 10
216.75
 20
108.2499999999996
 30
0.0
 11
216.75
 21
106.2499999999996
 31
0.0
  0
LINE
  5
1B8
  8
0
 10
223.25000000000011
 20
108.2499999999996
 30
0.0
 11
223.25000000000011
 21
106.2499999999996
 31
0.0
  0
LINE
  5
1B9
  8
0
 10
216.75000000000011
 20
108.2499999999996
 30
0.0
 11
223.25000000000011
 21
108.2499999999995
 31
0.0
  0
LINE
  5
1BA
  8
0
 10
216.75000000000011
 20
108.94999999999951
 30
0.0
 11
223.25000000000011
 21
108.94999999999951
 31
0.0
  0
LINE
  5
1BB
  8
0
 10
223.25000000000011
 20
109.9999999999996
 30
0.0
 11
223.25000000000011
 21
108.94999999999951
 31
0.0
  0
LINE
  5
1BC
  8
0
 10
216.75
 20
109.9999999999996
 30
0.0
 11
216.75
 21
108.9499999999996
 31
0.0
  0
LINE
  5
1BD
  8
0
 10
222.25000000000011
 20
105.2499999999995
 30
0.0
 11
217.75
 21
105.2499999999995
 31
0.0
  0
LINE
  5
1BE
  8
0
 10
223.25000000000011
 20
106.2499999999996
 30
0.0
 11
216.75
 21
106.2499999999996
 31
0.0
  0
LINE
  5
1BF
  8
0
 10
223.25000000000011
 20
106.2499999999996
 30
0.0
 11
222.25000000000011
 21
105.2499999999995
 31
0.0
  0
LINE
  5
1C0
  8
0
 10
217.75
 20
105.2499999999995
 30
0.0
 11
216.75
 21
106.2499999999996
 31
0.0
  0
LINE
  5
1C1
  8
1
 10
220.0
 20
100.2499999999996
 30
0.0
 11
220.0
 21
179.7499999999996
 31
0.0
  0
LINE
  5
1C2
  8
0
 10
217.75
 20
174.7499999999996
 30
0.0
 11
216.75
 21
173.7499999999996
 31
0.0
  0
LINE
  5
1C3
  8
0
 10
223.25000000000011
 20
173.7499999999996
 30
0.0
 11
222.25000000000011
 21
174.7499999999996
 31
0.0
  0
LINE
  5
1C4
  8
0
 10
223.25000000000011
 20
173.7499999999996
 30
0.0
 11
216.75
 21
173.7499999999996
 31
0.0
  0
LINE
  5
1C5
  8
0
 10
222.25000000000011
 20
174.7499999999996
 30
0.0
 11
217.75
 21
174.7499999999996
 31
0.0
  0
LINE
  5
1C6
  8
0
 10
216.75
 20
169.99999999999949
 30
0.0
 11
216.75
 21
171.04999999999961
 31
0.0
  0
LINE
  5
1C7
  8
0
 10
223.25000000000011
 20
169.9999999999996
 30
0.0
 11
223.25000000000011
 21
171.0499999999997
 31
0.0
  0
LINE
  5
1C8
  8
0
 10
216.75000000000011
 20
171.04999999999961
 30
0.0
 11
223.25000000000011
 21
171.0499999999997
 31
0.0
  0
LINE
  5
1C9
  8
0
 10
216.75000000000011
 20
171.7499999999996
 30
0.0
 11
223.25000000000011
 21
171.7499999999996
 31
0.0
  0
LINE
  5
1CA
  8
0
 10
223.25000000000011
 20
171.7499999999996
 30
0.0
 11
223.25000000000011
 21
173.7499999999996
 31
0.0
  0
LINE
  5
1CB
  8
0
 10
216.75
 20
171.74999999999949
 30
0.0
 11
216.75
 21
173.7499999999996
 31
0.0
  0
LINE
  5
1CC
  8
0
 10
217.5
 20
171.7499999999996
 30
0.0
 11
217.5
 21
171.69999999999959
 31
0.0
  0
LINE
  5
1CD
  8
0
 10
222.5
 20
171.7499999999996
 30
0.0
 11
222.5
 21
171.69999999999959
 31
0.0
  0
LINE
  5
1CE
  8
0
 10
225.5
 20
171.69999999999959
 30
0.0
 11
225.5
 21
171.09999999999951
 31
0.0
  0
LINE
  5
1CF
  8
0
 10
214.5
 20
171.69999999999959
 30
0.0
 11
214.5
 21
171.09999999999971
 31
0.0
  0
LINE
  5
1D0
  8
0
 10
225.5
 20
171.69999999999959
 30
0.0
 11
214.5
 21
171.69999999999959
 31
0.0
  0
LINE
  5
1D1
  8
0
 10
225.5
 20
171.09999999999951
 30
0.0
 11
214.5
 21
171.09999999999971
 31
0.0
  0
LINE
  5
1D2
  8
0
 10
217.5
 20
171.0999999999996
 30
0.0
 11
217.5
 21
171.04999999999961
 31
0.0
  0
LINE
  5
1D3
  8
0
 10
222.5
 20
171.0999999999996
 30
0.0
 11
222.5
 21
171.04999999999961
 31
0.0
  0
LINE
  5
1D4
  8
2
 10
222.5
 20
171.69999999999959
 30
0.0
 11
222.5
 21
171.09999999999951
 31
0.0
  0
LINE
  5
1D5
  8
2
 10
217.5
 20
171.69999999999959
 30
0.0
 11
217.5
 21
171.09999999999951
 31
0.0
  0
LINE
  5
1D6
  8
0
 10
213.0
 20
109.9999999999994
 30
0.0
 11
213.0
 21
169.99999999999949
 31
0.0
  0
LINE
  5
1D7
  8
0
 10
227.0
 20
110.0000000000003
 30
0.0
 11
227.0
 21
169.99999999999949
 31
0.0
  0
LINE
  5
1D8
  8
0
 10
232.99999999999929
 20
169.99999999999949
 30
0.0
 11
213.0
 21
169.99999999999949
 31
0.0
  0
LINE
  5
1D9
  8
0
 10
213.0
 20
109.9999999999994
 30
0.0
 11
232.99999999999929
 21
110.0000000000007
 31
0.0
  0
LINE
  5
1DA
  8
0
 10
213.22859274351919
 20
116.9999999999995
 30
0.0
 11
213.22859274351919
 21
162.99999999999949
 31
0.0
  0
LINE
  5
1DB
  8
0
 10
213.5
 20
118.4999999999996
 30
0.0
 11
213.5
 21
161.49999999999949
 31
0.0
  0
LINE
  5
1DC
  8
0
 10
213.5
 20
161.49999999999949
 30
0.0
 11
217.89968978580299
 21
161.49999999999949
 31
0.0
  0
LINE
  5
1DD
  8
1
 10
122.0
 20
157.0
 30
0.0
 11
138.0000000000008
 21
157.0
 31
0.0
  0
INSERT
  5
256
  8
0
  2
BATU
 10
0.0
 20
0.0
 30
0.0
 41
0.001
 42
0.001
 43
0.001
  0
LINE
  5
257
  8
0
 10
127.0000000000008
 20
86.999999999999972
 30
0.0
 11
140.24746260574361
 21
86.495287696380984
 31
0.0
  0
LINE
  5
258
  8
0
 10
127.0
 20
72.999999999999972
 30
0.0
 11
140.24746260574361
 21
73.504712303618959
 31
0.0
  0
LINE
  5
259
  8
0
 10
147.0
 20
223.0
 30
0.0
 11
146.50471572237521
 21
210.0
 31
0.0
  0
LINE
  5
25A
  8
0
 10
133.0
 20
222.9999999999992
 30
0.0
 11
133.50471230361899
 21
209.75253739425639
 31
0.0
  0
TEXT
  5
37C
  8
0
 62
     3
 10
0.0
 20
0.0
 30
0.0
 40
10.0
  1
MCH7053B
  7
STANDARD1
  0
ENDSEC
  0
EOF
