  0
SECTION
  2
HEADER
  9
$ACADVER
  1
AC1009
  9
$INSBASE
 10
0.0
 20
0.0
 30
0.0
  9
$EXTMIN
 10
0.0
 20
-2.960436562073669
 30
0.0
  9
$EXTMAX
 10
158.500000000000199
 20
121.0
 30
0.0
  9
$LIMMIN
 10
0.0
 20
0.0
  9
$LIMMAX
 10
187.5
 20
135.0
  9
$ORTHOMODE
 70
     1
  9
$REGENMODE
 70
     1
  9
$FILLMODE
 70
     1
  9
$QTEXTMODE
 70
     0
  9
$MIRRTEXT
 70
     0
  9
$DRAGMODE
 70
     2
  9
$LTSCALE
 40
5.0
  9
$OSMODE
 70
    37
  9
$ATTMODE
 70
     1
  9
$TEXTSIZE
 40
0.2
  9
$TRACEWID
 40
0.05
  9
$TEXTSTYLE
  7
STANDARD
  9
$CLAYER
  8
0
  9
$CELTYPE
  6
BYLAYER
  9
$CECOLOR
 62
   256
  9
$DIMSCALE
 40
0.5
  9
$DIMASZ
 40
3.0
  9
$DIMEXO
 40
2.0
  9
$DIMDLI
 40
0.38
  9
$DIMRND
 40
0.0
  9
$DIMDLE
 40
0.0
  9
$DIMEXE
 40
2.0
  9
$DIMTP
 40
0.0
  9
$DIMTM
 40
0.0
  9
$DIMTXT
 40
3.2000000000000002
  9
$DIMCEN
 40
0.0
  9
$DIMTSZ
 40
0.0
  9
$DIMTOL
 70
     0
  9
$DIMLIM
 70
     0
  9
$DIMTIH
 70
     0
  9
$DIMTOH
 70
     0
  9
$DIMSE1
 70
     0
  9
$DIMSE2
 70
     0
  9
$DIMTAD
 70
     1
  9
$DIMZIN
 70
     0
  9
$DIMBLK
  1

  9
$DIMASO
 70
     1
  9
$DIMSHO
 70
     0
  9
$DIMPOST
  1

  9
$DIMAPOST
  1

  9
$DIMALT
 70
     0
  9
$DIMALTD
 70
     2
  9
$DIMALTF
 40
25.3999999999999986
  9
$DIMLFAC
 40
1.0
  9
$DIMTOFL
 70
     1
  9
$DIMTVP
 40
1.6000000000000001
  9
$DIMTIX
 70
     1
  9
$DIMSOXD
 70
     0
  9
$DIMSAH
 70
     0
  9
$DIMBLK1
  1

  9
$DIMBLK2
  1

  9
$DIMSTYLE
  2
STANDARD
  9
$DIMCLRD
 70
     0
  9
$DIMCLRE
 70
     0
  9
$DIMCLRT
 70
     0
  9
$DIMTFAC
 40
1.0
  9
$DIMGAP
 40
0.09
  9
$LUNITS
 70
     2
  9
$LUPREC
 70
     4
  9
$SKETCHINC
 40
0.1
  9
$FILLETRAD
 40
0.0
  9
$AUNITS
 70
     0
  9
$AUPREC
 70
     4
  9
$MENU
  1
E:\r13\win\SUPPORT\ACAD
  9
$ELEVATION
 40
0.0
  9
$PELEVATION
 40
0.0
  9
$THICKNESS
 40
0.0
  9
$LIMCHECK
 70
     0
  9
$BLIPMODE
 70
     0
  9
$CHAMFERA
 40
0.0
  9
$CHAMFERB
 40
0.0
  9
$SKPOLY
 70
     0
  9
$TDCREATE
 40
2449839.7984143518842757
  9
$TDUPDATE
 40
2460137.5837500002235174
  9
$TDINDWG
 40
0.0005063889
  9
$TDUSRTIMER
 40
0.0005063889
  9
$USRTIMER
 70
     1
  9
$ANGBASE
 50
0.0
  9
$ANGDIR
 70
     0
  9
$PDMODE
 70
     0
  9
$PDSIZE
 40
0.0
  9
$PLINEWID
 40
0.0
  9
$COORDS
 70
     1
  9
$SPLFRAME
 70
     0
  9
$SPLINETYPE
 70
     6
  9
$SPLINESEGS
 70
     8
  9
$ATTDIA
 70
     1
  9
$ATTREQ
 70
     1
  9
$HANDLING
 70
     1
  9
$HANDSEED
  5
3B0
  9
$SURFTAB1
 70
     6
  9
$SURFTAB2
 70
     6
  9
$SURFTYPE
 70
     6
  9
$SURFU
 70
     6
  9
$SURFV
 70
     6
  9
$UCSNAME
  2

  9
$UCSORG
 10
0.0
 20
0.0
 30
0.0
  9
$UCSXDIR
 10
1.0
 20
0.0
 30
0.0
  9
$UCSYDIR
 10
0.0
 20
1.0
 30
0.0
  9
$PUCSNAME
  2

  9
$PUCSORG
 10
0.0
 20
0.0
 30
0.0
  9
$PUCSXDIR
 10
1.0
 20
0.0
 30
0.0
  9
$PUCSYDIR
 10
0.0
 20
1.0
 30
0.0
  9
$USERI1
 70
     0
  9
$USERI2
 70
     1
  9
$USERI3
 70
     1
  9
$USERI4
 70
     0
  9
$USERI5
 70
     0
  9
$USERR1
 40
0.0
  9
$USERR2
 40
0.0
  9
$USERR3
 40
0.0
  9
$USERR4
 40
0.0
  9
$USERR5
 40
0.0
  9
$WORLDVIEW
 70
     1
  9
$SHADEDGE
 70
     3
  9
$SHADEDIF
 70
    70
  9
$TILEMODE
 70
     1
  9
$MAXACTVP
 70
    16
  9
$PLIMCHECK
 70
     0
  9
$PEXTMIN
 10
1.0000000000000000E+20
 20
1.0000000000000000E+20
 30
1.0000000000000000E+20
  9
$PEXTMAX
 10
-1.0000000000000000E+20
 20
-1.0000000000000000E+20
 30
-1.0000000000000000E+20
  9
$PLIMMIN
 10
0.0
 20
0.0
  9
$PLIMMAX
 10
12.0
 20
9.0
  9
$UNITMODE
 70
     0
  9
$VISRETAIN
 70
     0
  9
$PLINEGEN
 70
     0
  9
$PSLTSCALE
 70
     0
  0
ENDSEC
  0
SECTION
  2
TABLES
  0
TABLE
  2
VPORT
 70
     1
  0
VPORT
  2
*ACTIVE
 70
     0
 10
0.0
 20
0.0
 11
1.0
 21
1.0
 12
135.9621056188539114
 22
66.0179439751457977
 13
0.0
 23
0.0
 14
5.0
 24
5.0
 15
5.0
 25
5.0
 16
0.0
 26
0.0
 36
1.0
 17
0.0
 27
0.0
 37
0.0
 40
139.1154120111802968
 41
2.325609756097561
 42
50.0
 43
0.0
 44
0.0
 50
0.0
 51
0.0
 71
     0
 72
   500
 73
     1
 74
     0
 75
     0
 76
     0
 77
     0
 78
     2
  0
ENDTAB
  0
TABLE
  2
LTYPE
 70
     8
  0
LTYPE
  2
CONTINUOUS
 70
     0
  3
Solid Line
 72
    65
 73
     0
 40
0.0
  0
LTYPE
  2
CENTER
 70
     0
  3
____ _ ____ _ ____ _ ____ _ ____ _ ____ _ ____
 72
    65
 73
     4
 40
2.0
 49
1.25
 49
-0.25
 49
0.25
 49
-0.25
  0
LTYPE
  2
HIDDEN
 70
     0
  3
_ _ _ _ _ _ _ _ _ _ _ _ _ _ _ _ _ _ _ _ _ _ _
 72
    65
 73
     2
 40
0.375
 49
0.25
 49
-0.125
  0
LTYPE
  2
PHANTOM2
 70
     0
  3
Phantom (.5x) ___ _ _ ___ _ _ ___ _ _ ___ _ _
 72
    65
 73
     6
 40
1.25
 49
0.625
 49
-0.125
 49
0.125
 49
-0.125
 49
0.125
 49
-0.125
  0
LTYPE
  2
CENTER2
 70
     0
  3
Center (.5x) ___ _ ___ _ ___ _ ___ _ ___ _ ___
 72
    65
 73
     4
 40
1.125
 49
0.75
 49
-0.125
 49
0.125
 49
-0.125
  0
LTYPE
  2
HIDDEN2
 70
     0
  3
Hidden (.5x) _ _ _ _ _ _ _ _ _ _ _ _ _ _ _ _ _
 72
    65
 73
     2
 40
0.1875
 49
0.125
 49
-0.0625
  0
LTYPE
  2
ACANSTGB
 70
     0
  3
__ . . __ . .
 72
    65
 73
     6
 40
0.35433070866
 49
0.15748031496
 49
-0.03937007874
 49
0.03937007874
 49
-0.03937007874
 49
0.03937007874
 49
-0.03937007874
  0
LTYPE
  2
ACANSTGL
 70
     0
  3
_ _ _ _ _
 72
    65
 73
     2
 40
0.11811023622
 49
0.07874015748
 49
-0.03937007874
  0
ENDTAB
  0
TABLE
  2
LAYER
 70
     3
  0
LAYER
  2
0
 70
     0
 62
     7
  6
CONTINUOUS
  0
LAYER
  2
1
 70
     0
 62
     1
  6
CENTER
  0
LAYER
  2
2
 70
     0
 62
     2
  6
HIDDEN
  0
ENDTAB
  0
TABLE
  2
STYLE
 70
     4
  0
STYLE
  2
STANDARD
 70
     0
 40
0.0
 41
1.0
 50
0.0
 71
     0
 42
0.2
  3
TXT
  4
BIGFONT
  0
STYLE
  2
STANDARD1
 70
     0
 40
0.0
 41
1.0
 50
0.0
 71
     0
 42
3.0
  3
txt
  4

  0
STYLE
  2
ACANSTS
 70
     0
 40
1.0
 41
1.0
 50
0.0
 71
     0
 42
0.2
  3
romans.shx
  4
extfont.shx
  0
STYLE
  2
ACANSGDT
 70
     0
 40
0.0
 41
1.0
 50
0.0
 71
     0
 42
0.2
  3
amgdt.shx
  4

  0
ENDTAB
  0
TABLE
  2
VIEW
 70
     1
  0
VIEW
  2
ALL
 70
     0
 40
270.0
 10
220.9915966386554942
 20
135.0
 41
0.0
 11
0.0
 21
0.0
 31
1.0
 12
0.0
 22
0.0
 32
0.0
 42
0.0
 43
0.0
 44
0.0
 50
0.0
 71
     0
  0
ENDTAB
  0
TABLE
  2
UCS
 70
     0
  0
ENDTAB
  0
TABLE
  2
APPID
 70
     9
  0
APPID
  2
ACAD
 70
     0
  0
APPID
  2
ACAD_MLEADERVER
 70
     0
  0
APPID
  2
MCAD_NO_VIS
 70
     0
  0
APPID
  2
ACAD_TEMP_GRAPHIC
 70
     0
  0
APPID
  2
ACATTRIBSERVICES
 70
     0
  0
APPID
  2
DESIGNERASSEMBLIES
 70
     0
  0
APPID
  2
ACAD_DSTYLE_DIMJAG
 70
     0
  0
APPID
  2
ACAD_DSTYLE_DIMBREAK
 70
     0
  0
APPID
  2
ACAD_NAV_VCDISPLAY
 70
     0
  0
ENDTAB
  0
TABLE
  2
DIMSTYLE
 70
     7
  0
DIMSTYLE
  2
STANDARD
 70
     0
  3

  4

  5

  6

  7

 40
1.0
 41
0.18
 42
0.0625
 43
0.38
 44
0.18
 45
0.0
 46
0.0
 47
0.0
 48
0.0
140
0.18
141
0.09
142
0.0
143
25.3999999999999986
144
1.0
145
0.0
146
1.0
147
0.09
 71
     0
 72
     0
 73
     1
 74
     1
 75
     0
 76
     0
 77
     0
 78
     0
170
     0
171
     2
172
     0
173
     0
174
     0
175
     0
176
     0
177
     0
178
     0
  0
DIMSTYLE
  2
AM_ANSI
 70
     0
  3

  4
mm
  5

  6

  7

 40
1.0
 41
0.12
 42
0.05
 43
0.5
 44
0.1
 45
0.0
 46
0.0
 47
0.1
 48
0.1
140
0.12
141
0.0
142
0.0
143
25.3999999999999986
144
1.0
145
0.0
146
0.71
147
0.06
 71
     0
 72
     0
 73
     1
 74
     1
 75
     0
 76
     0
 77
     0
 78
     7
170
     0
171
     2
172
     0
173
     0
174
     0
175
     0
176
   256
177
   256
178
     2
  0
DIMSTYLE
  2
AM_ANSI$3
 70
     0
  3

  4
mm
  5

  6

  7

 40
1.0
 41
0.12
 42
0.05
 43
0.5
 44
0.1
 45
0.0
 46
0.0
 47
0.1
 48
0.1
140
0.12
141
0.0
142
0.0
143
25.3999999999999986
144
1.0
145
0.0
146
0.71
147
0.06
 71
     0
 72
     0
 73
     1
 74
     1
 75
     0
 76
     0
 77
     0
 78
     7
170
     0
171
     2
172
     0
173
     0
174
     0
175
     0
176
   256
177
   256
178
     2
  0
DIMSTYLE
  2
AM_ANSI$4
 70
     0
  3

  4
mm
  5

  6

  7

 40
1.0
 41
0.12
 42
0.05
 43
0.5
 44
0.1
 45
0.0
 46
0.0
 47
0.1
 48
0.1
140
0.12
141
0.0
142
0.0
143
25.3999999999999986
144
1.0
145
0.0
146
0.71
147
0.06
 71
     0
 72
     0
 73
     1
 74
     1
 75
     0
 76
     0
 77
     0
 78
     7
170
     0
171
     2
172
     0
173
     0
174
     0
175
     0
176
   256
177
   256
178
     2
  0
DIMSTYLE
  2
AM_ANSI$7
 70
     0
  3

  4
mm
  5

  6

  7

 40
1.0
 41
0.12
 42
0.05
 43
0.5
 44
0.1
 45
0.0
 46
0.0
 47
0.1
 48
0.1
140
0.12
141
0.0
142
0.0
143
25.3999999999999986
144
1.0
145
0.0
146
0.71
147
0.06
 71
     0
 72
     0
 73
     1
 74
     1
 75
     0
 76
     0
 77
     0
 78
     7
170
     0
171
     2
172
     0
173
     0
174
     0
175
     0
176
   256
177
   256
178
     2
  0
DIMSTYLE
  2
AM_ANSI$SF
 70
     0
  3

  4
mm
  5

  6

  7

 40
1.0
 41
0.12
 42
0.05
 43
0.5
 44
0.1
 45
0.0
 46
0.0
 47
0.1
 48
0.1
140
0.12
141
0.0
142
0.0
143
25.3999999999999986
144
1.0
145
0.0
146
0.71
147
0.06
 71
     0
 72
     0
 73
     1
 74
     1
 75
     1
 76
     1
 77
     0
 78
     7
170
     0
171
     2
172
     0
173
     0
174
     0
175
     0
176
   256
177
   256
178
     2
  0
DIMSTYLE
  2
AM_ANSI$SH
 70
     0
  3

  4
mm
  5

  6
GENAXEH
  7

 40
1.0
 41
0.12
 42
0.05
 43
0.5
 44
0.1
 45
0.0
 46
0.0
 47
0.1
 48
0.1
140
0.12
141
0.0
142
0.0
143
25.3999999999999986
144
1.0
145
0.0
146
0.71
147
0.06
 71
     0
 72
     0
 73
     1
 74
     1
 75
     1
 76
     1
 77
     0
 78
     7
170
     0
171
     2
172
     0
173
     1
174
     0
175
     0
176
   256
177
   256
178
     2
  0
ENDTAB
  0
ENDSEC
  0
SECTION
  2
BLOCKS
  0
BLOCK
  8
0
  2
$MODEL_SPACE
 70
     0
 10
0.0
 20
0.0
 30
0.0
  3
$MODEL_SPACE
  1

  0
ENDBLK
  5
18C
  8
0
  0
BLOCK
 67
     1
  8
0
  2
$PAPER_SPACE
 70
     0
 10
0.0
 20
0.0
 30
0.0
  3
$PAPER_SPACE
  1

  0
ENDBLK
  5
18A
 67
     1
  8
0
  0
BLOCK
  8
0
  2
*U0
 70
     1
 10
0.0
 20
0.0
 30
0.0
  3
*U0
  1

  0
ENDBLK
  5
2EB
  8
0
  0
BLOCK
  8
0
  2
GENAXEH
 70
     0
 10
0.0
 20
0.0
 30
0.0
  3
GENAXEH
  1

  0
LINE
  5
315
  8
0
 10
-1.0
 20
0.0
 30
0.0
 11
1.0
 21
0.0
 31
0.0
  0
ENDBLK
  5
317
  8
0
  0
ENDSEC
  0
SECTION
  2
ENTITIES
  0
LINE
  5
40
  8
2
 10
117.5000000000024016
 20
5.8500000000012689
 30
0.0
 11
120.0000000000024016
 21
8.3500000000012413
 31
0.0
  0
LINE
  5
41
  8
2
 10
121.9999999999994031
 20
8.3500000000012413
 30
0.0
 11
120.0000000000024016
 21
8.3500000000012413
 31
0.0
  0
LINE
  5
42
  8
2
 10
120.0000000000024016
 20
8.3500000000012413
 30
0.0
 11
120.0000000000024016
 21
13.6500000000005706
 31
0.0
  0
LINE
  5
43
  8
2
 10
117.5000000000024016
 20
16.1500000000005386
 30
0.0
 11
120.0000000000024016
 21
13.6500000000005706
 31
0.0
  0
LINE
  5
44
  8
2
 10
121.9999999999994031
 20
13.6500000000005706
 30
0.0
 11
120.0000000000024016
 21
13.6500000000005706
 31
0.0
  0
LINE
  5
45
  8
2
 10
97.0000000000002842
 20
12.35000000000033
 30
0.0
 11
100.5000000000010942
 21
12.35000000000033
 31
0.0
  0
LINE
  5
46
  8
2
 10
103.0000000000010942
 20
9.8500000000003602
 30
0.0
 11
100.5000000000010942
 21
12.35000000000033
 31
0.0
  0
LINE
  5
47
  8
2
 10
103.0000000000010942
 20
20.1499999999996291
 30
0.0
 11
100.5000000000010942
 21
17.6499999999996611
 31
0.0
  0
LINE
  5
48
  8
2
 10
97.0000000000002842
 20
17.6499999999996611
 30
0.0
 11
100.5000000000010942
 21
17.6499999999996611
 31
0.0
  0
LINE
  5
49
  8
2
 10
100.5000000000010942
 20
17.6499999999996717
 30
0.0
 11
100.5000000000010942
 21
12.3500000000003194
 31
0.0
  0
LINE
  5
4A
  8
1
 10
148.9999999999980105
 20
82.8500000000004917
 30
0.0
 11
148.9999999999980105
 21
96.1500000000001904
 31
0.0
  0
CIRCLE
  5
4B
  8
0
 10
148.9999999999980105
 20
89.5000000000003411
 30
0.0
 40
2.649999999999999
  0
LINE
  5
4C
  8
1
 10
155.6499999999979877
 20
89.5000000000003411
 30
0.0
 11
142.349999999998289
 21
89.5000000000003411
 31
0.0
  0
CIRCLE
  5
4D
  8
2
 10
148.9999999999980105
 20
89.5000000000003411
 30
0.0
 40
5.1500000000000004
  0
LINE
  5
4E
  8
1
 10
148.9999999999980105
 20
42.1499999999997428
 30
0.0
 11
148.9999999999980105
 21
28.8499999999998309
 31
0.0
  0
LINE
  5
4F
  8
1
 10
155.6499999999979877
 20
35.4999999999996518
 30
0.0
 11
142.3499999999980048
 21
35.4999999999996518
 31
0.0
  0
CIRCLE
  5
50
  8
2
 10
148.9999999999980105
 20
35.4999999999996518
 30
0.0
 40
5.1500000000000004
  0
CIRCLE
  5
51
  8
0
 10
148.9999999999980105
 20
35.4999999999996518
 30
0.0
 40
2.649999999999999
  0
LINE
  5
52
  8
1
 10
71.0000000000018616
 20
28.8499999999996213
 30
0.0
 11
71.0000000000018616
 21
42.1499999999996575
 31
0.0
  0
ARC
  5
53
  8
0
 10
71.0000000000018616
 20
35.4999999999996021
 30
0.0
 40
5.1500000000000004
 50
125.628283035339706
 51
324.3717169646578213
  0
LINE
  5
54
  8
1
 10
77.6500000000018531
 20
35.4999999999996021
 30
0.0
 11
64.3500000000018133
 21
35.4999999999996021
 31
0.0
  0
LINE
  5
55
  8
1
 10
71.0000000000018616
 20
96.1500000000004604
 30
0.0
 11
71.0000000000018616
 21
82.8500000000002075
 31
0.0
  0
LINE
  5
56
  8
1
 10
77.650000000002052
 20
89.5000000000003411
 30
0.0
 11
64.3500000000018133
 21
89.5000000000003411
 31
0.0
  0
ARC
  5
57
  8
0
 10
71.0000000000018616
 20
89.5000000000003411
 30
0.0
 40
5.1500000000000004
 50
35.628283035342271
 51
234.371716964660294
  0
LINE
  5
58
  8
1
 10
81.6499999999999204
 20
45.4999999999999787
 30
0.0
 11
68.3499999999999659
 21
45.4999999999999787
 31
0.0
  0
LINE
  5
59
  8
1
 10
81.6499999999999204
 20
79.5
 30
0.0
 11
68.3500000000000654
 21
79.5
 31
0.0
  0
CIRCLE
  5
5A
  8
2
 10
74.9999999999999147
 20
45.4999999999999787
 30
0.0
 40
5.1500000000000004
  0
CIRCLE
  5
5B
  8
0
 10
74.9999999999999147
 20
45.4999999999999787
 30
0.0
 40
2.649999999999999
  0
CIRCLE
  5
5C
  8
2
 10
74.9999999999999147
 20
79.5
 30
0.0
 40
5.1500000000000004
  0
CIRCLE
  5
5D
  8
0
 10
74.9999999999999147
 20
79.5
 30
0.0
 40
2.649999999999999
  0
LINE
  5
5E
  8
2
 10
120.0000000000019043
 20
92.1499999999995651
 30
0.0
 11
120.0000000000019043
 21
86.8500000000002359
 31
0.0
  0
LINE
  5
5F
  8
2
 10
121.9999999999988063
 20
92.1499999999995651
 30
0.0
 11
120.0000000000019043
 21
92.1499999999995651
 31
0.0
  0
LINE
  5
60
  8
2
 10
117.5000000000018048
 20
94.6499999999995367
 30
0.0
 11
120.0000000000019043
 21
92.1499999999995651
 31
0.0
  0
LINE
  5
61
  8
2
 10
117.5000000000018048
 20
84.3500000000002643
 30
0.0
 11
120.0000000000019043
 21
86.8500000000002359
 31
0.0
  0
LINE
  5
62
  8
2
 10
121.9999999999988063
 20
86.8500000000002359
 30
0.0
 11
120.0000000000019043
 21
86.8500000000002359
 31
0.0
  0
LINE
  5
63
  8
2
 10
117.5000000000018048
 20
30.3500000000005485
 30
0.0
 11
120.0000000000019043
 21
32.8500000000005201
 31
0.0
  0
LINE
  5
64
  8
2
 10
121.9999999999988063
 20
32.8500000000005201
 30
0.0
 11
120.0000000000019043
 21
32.8500000000005201
 31
0.0
  0
LINE
  5
65
  8
2
 10
120.0000000000019043
 20
32.8500000000005201
 30
0.0
 11
120.0000000000019043
 21
38.1499999999998494
 31
0.0
  0
LINE
  5
66
  8
2
 10
121.9999999999988063
 20
38.1499999999998494
 30
0.0
 11
120.0000000000019043
 21
38.1499999999998494
 31
0.0
  0
LINE
  5
67
  8
2
 10
117.5000000000018048
 20
40.6499999999998209
 30
0.0
 11
120.0000000000019043
 21
38.1499999999998494
 31
0.0
  0
LINE
  5
68
  8
2
 10
100.5000000000000995
 20
76.8500000000002927
 30
0.0
 11
100.5000000000000995
 21
82.1499999999996646
 31
0.0
  0
LINE
  5
69
  8
2
 10
96.999999999999261
 20
76.8500000000003212
 30
0.0
 11
100.5000000000000995
 21
76.8500000000003212
 31
0.0
  0
LINE
  5
6A
  8
2
 10
103.0
 20
74.3500000000003212
 30
0.0
 11
100.5000000000000995
 21
76.8500000000003212
 31
0.0
  0
LINE
  5
6B
  8
2
 10
103.0
 20
84.6499999999995936
 30
0.0
 11
100.5000000000000995
 21
82.1499999999996646
 31
0.0
  0
LINE
  5
6C
  8
2
 10
96.999999999999261
 20
82.1499999999996646
 30
0.0
 11
100.5000000000000995
 21
82.1499999999996646
 31
0.0
  0
LINE
  5
6D
  8
2
 10
100.5000000000000995
 20
42.8500000000002927
 30
0.0
 11
100.5000000000000995
 21
48.1499999999996504
 31
0.0
  0
LINE
  5
6E
  8
2
 10
96.999999999999261
 20
42.850000000000307
 30
0.0
 11
100.5000000000000995
 21
42.850000000000307
 31
0.0
  0
LINE
  5
6F
  8
2
 10
103.0
 20
40.3500000000003283
 30
0.0
 11
100.5000000000000995
 21
42.850000000000307
 31
0.0
  0
LINE
  5
70
  8
2
 10
103.0
 20
50.6499999999996078
 30
0.0
 11
100.5000000000000995
 21
48.1499999999996291
 31
0.0
  0
LINE
  5
71
  8
2
 10
96.999999999999261
 20
48.1499999999996291
 30
0.0
 11
100.5000000000000995
 21
48.1499999999996291
 31
0.0
  0
LINE
  5
72
  8
2
 10
48.0000000000000568
 20
48.1499999999996078
 30
0.0
 11
44.4999999999991971
 21
48.1499999999996078
 31
0.0
  0
LINE
  5
73
  8
2
 10
41.999999999999261
 20
50.6499999999995794
 30
0.0
 11
44.4999999999991971
 21
48.1499999999996078
 31
0.0
  0
LINE
  5
74
  8
2
 10
41.999999999999261
 20
40.350000000000307
 30
0.0
 11
44.4999999999991971
 21
42.8500000000002714
 31
0.0
  0
LINE
  5
75
  8
2
 10
48.0000000000000568
 20
42.8500000000002714
 30
0.0
 11
44.4999999999991971
 21
42.8500000000002714
 31
0.0
  0
LINE
  5
76
  8
2
 10
44.4999999999991971
 20
42.8500000000002572
 30
0.0
 11
44.4999999999991971
 21
48.149999999999622
 31
0.0
  0
LINE
  5
77
  8
2
 10
27.4999999999974385
 20
40.6499999999997925
 30
0.0
 11
24.9999999999974385
 21
38.1499999999998209
 31
0.0
  0
LINE
  5
78
  8
2
 10
23.0000000000004583
 20
38.1499999999998209
 30
0.0
 11
24.9999999999974385
 21
38.1499999999998209
 31
0.0
  0
LINE
  5
79
  8
2
 10
24.9999999999974385
 20
32.8500000000004917
 30
0.0
 11
24.9999999999974385
 21
38.1499999999998209
 31
0.0
  0
LINE
  5
7A
  8
2
 10
23.0000000000004583
 20
32.8500000000004917
 30
0.0
 11
24.9999999999974385
 21
32.8500000000004917
 31
0.0
  0
LINE
  5
7B
  8
2
 10
27.4999999999974385
 20
30.3500000000005201
 30
0.0
 11
24.9999999999974385
 21
32.8500000000004917
 31
0.0
  0
LINE
  5
7C
  8
2
 10
48.0000000000000568
 20
82.149999999999622
 30
0.0
 11
44.4999999999991971
 21
82.149999999999622
 31
0.0
  0
LINE
  5
7D
  8
2
 10
41.999999999999261
 20
84.6499999999995651
 30
0.0
 11
44.4999999999991971
 21
82.149999999999622
 31
0.0
  0
LINE
  5
7E
  8
2
 10
41.999999999999261
 20
74.3500000000002927
 30
0.0
 11
44.4999999999991971
 21
76.8500000000002927
 31
0.0
  0
LINE
  5
7F
  8
2
 10
48.0000000000000568
 20
76.8500000000002927
 30
0.0
 11
44.4999999999991971
 21
76.8500000000002927
 31
0.0
  0
LINE
  5
80
  8
2
 10
44.4999999999991971
 20
76.8500000000002643
 30
0.0
 11
44.4999999999991971
 21
82.149999999999622
 31
0.0
  0
LINE
  5
81
  8
2
 10
23.0000000000004583
 20
86.8500000000002075
 30
0.0
 11
24.9999999999974385
 21
86.8500000000002075
 31
0.0
  0
LINE
  5
82
  8
2
 10
27.4999999999974385
 20
84.3500000000002359
 30
0.0
 11
24.9999999999974385
 21
86.8500000000002075
 31
0.0
  0
LINE
  5
83
  8
2
 10
27.4999999999974385
 20
94.6499999999995083
 30
0.0
 11
24.9999999999974385
 21
92.1499999999995367
 31
0.0
  0
LINE
  5
84
  8
2
 10
23.0000000000004583
 20
92.1499999999995367
 30
0.0
 11
24.9999999999974385
 21
92.1499999999995367
 31
0.0
  0
LINE
  5
85
  8
2
 10
24.9999999999974385
 20
92.1499999999995367
 30
0.0
 11
24.9999999999974385
 21
86.8500000000002075
 31
0.0
  0
LINE
  5
86
  8
2
 10
113.25
 20
86.5000000000000142
 30
0.0
 11
106.7499999999999005
 21
86.5000000000000142
 31
0.0
  0
LINE
  5
87
  8
2
 10
107.4000000000000057
 20
86.5000000000000142
 30
0.0
 11
107.3999999999999062
 21
92.5000000000000142
 31
0.0
  0
LINE
  5
88
  8
2
 10
108.0499999999999972
 20
86.5000000000000142
 30
0.0
 11
108.0499999999998977
 21
92.5000000000000142
 31
0.0
  0
LINE
  5
89
  8
2
 10
108.7000000000000028
 20
86.5000000000000142
 30
0.0
 11
108.6999999999999034
 21
92.5000000000000142
 31
0.0
  0
LINE
  5
8A
  8
2
 10
109.3499999999999943
 20
86.5000000000000142
 30
0.0
 11
109.3499999999998948
 21
92.5000000000000142
 31
0.0
  0
LINE
  5
8B
  8
2
 10
110.0
 20
86.5000000000000142
 30
0.0
 11
109.9999999999999005
 21
92.5000000000000142
 31
0.0
  0
LINE
  5
8C
  8
2
 10
110.6500000000000057
 20
86.5000000000000142
 30
0.0
 11
110.6499999999999062
 21
92.5000000000000142
 31
0.0
  0
LINE
  5
8D
  8
2
 10
111.2999999999999972
 20
86.5000000000000142
 30
0.0
 11
111.2999999999998977
 21
92.5000000000000142
 31
0.0
  0
LINE
  5
8E
  8
2
 10
111.9500000000000028
 20
86.5000000000000142
 30
0.0
 11
111.9499999999999034
 21
92.5000000000000142
 31
0.0
  0
LINE
  5
8F
  8
2
 10
112.5999999999999943
 20
86.5000000000000142
 30
0.0
 11
112.5999999999998948
 21
92.5000000000000142
 31
0.0
  0
LINE
  5
90
  8
2
 10
37.6000000000000227
 20
86.4999999999999858
 30
0.0
 11
37.599999999999973
 21
92.4999999999999858
 31
0.0
  0
LINE
  5
91
  8
2
 10
36.9499999999999886
 20
86.4999999999999858
 30
0.0
 11
36.9499999999999318
 21
92.4999999999999858
 31
0.0
  0
LINE
  5
92
  8
2
 10
36.3000000000000114
 20
86.4999999999999858
 30
0.0
 11
36.2999999999999474
 21
92.4999999999999858
 31
0.0
  0
LINE
  5
93
  8
2
 10
35.6499999999999773
 20
86.4999999999999858
 30
0.0
 11
35.6499999999999204
 21
92.4999999999999858
 31
0.0
  0
LINE
  5
94
  8
2
 10
35.0
 20
86.4999999999999858
 30
0.0
 11
34.9999999999999503
 21
92.4999999999999858
 31
0.0
  0
LINE
  5
95
  8
2
 10
34.3500000000000227
 20
86.4999999999999858
 30
0.0
 11
34.349999999999973
 21
92.4999999999999858
 31
0.0
  0
LINE
  5
96
  8
2
 10
33.6999999999999886
 20
86.4999999999999858
 30
0.0
 11
33.6999999999999318
 21
92.4999999999999858
 31
0.0
  0
LINE
  5
97
  8
2
 10
33.0500000000000114
 20
86.4999999999999858
 30
0.0
 11
33.0499999999999616
 21
92.4999999999999858
 31
0.0
  0
LINE
  5
98
  8
2
 10
32.3999999999999773
 20
86.4999999999999858
 30
0.0
 11
32.3999999999999204
 21
92.4999999999999858
 31
0.0
  0
LINE
  5
99
  8
2
 10
38.2500000000000568
 20
86.4999999999999858
 30
0.0
 11
31.7499999999999396
 21
86.4999999999999858
 31
0.0
  0
LINE
  5
9A
  8
0
 10
77.9999999999999858
 20
32.4999999999997513
 30
0.0
 11
78.0000000000000426
 21
29.5000000000004015
 31
0.0
  0
LINE
  5
9B
  8
0
 10
78.0000000000000426
 20
29.5000000000004015
 30
0.0
 11
64.00000000000135
 21
29.4999999999996696
 31
0.0
  0
LINE
  5
9C
  8
0
 10
77.9999999999994742
 20
95.5000000000003411
 30
0.0
 11
77.9999999999994742
 21
92.4999999999996163
 31
0.0
  0
LINE
  5
9D
  8
0
 10
64.00000000000135
 20
29.4999999999996696
 30
0.0
 11
63.9999999999980531
 21
95.4999999999996305
 31
0.0
  0
LINE
  5
9E
  8
0
 10
77.9999999999994742
 20
95.5000000000003411
 30
0.0
 11
63.9999999999980531
 21
95.4999999999996305
 31
0.0
  0
LINE
  5
9F
  8
0
 10
142.0000000000003979
 20
32.5000000000003411
 30
0.0
 11
138.0
 21
32.5000000000003695
 31
0.0
  0
LINE
  5
A0
  8
0
 10
142.0000000000003126
 20
39.5000000000003695
 30
0.0
 11
138.2285927435191866
 21
39.5000000000003695
 31
0.0
  0
LINE
  5
A1
  8
0
 10
138.5
 20
41.0000000000002487
 30
0.0
 11
142.0000000000003126
 21
41.0000000000002771
 31
0.0
  0
LINE
  5
A2
  8
2
 10
141.9999999999998863
 20
92.5000000000002558
 30
0.0
 11
151.9999999999998863
 21
92.4999999999996589
 31
0.0
  0
LINE
  5
A3
  8
2
 10
151.7714072564808134
 20
85.5000000000003411
 30
0.0
 11
141.9999999999998863
 21
85.5000000000003411
 31
0.0
  0
LINE
  5
A4
  8
2
 10
142.0
 20
84.0000000000003695
 30
0.0
 11
151.5
 21
84.0000000000003837
 31
0.0
  0
LINE
  5
A5
  8
0
 10
141.9999999999998863
 20
29.5000000000004015
 30
0.0
 11
155.9999999999986073
 21
29.4999999999996696
 31
0.0
  0
LINE
  5
A6
  8
0
 10
142.0000000000003979
 20
95.5000000000003411
 30
0.0
 11
156.0000000000017906
 21
95.4999999999996305
 31
0.0
  0
LINE
  5
A7
  8
0
 10
155.9999999999986073
 20
29.4999999999996696
 30
0.0
 11
156.0000000000017906
 21
95.4999999999996305
 31
0.0
  0
LINE
  5
A8
  8
0
 10
142.0000000000003979
 20
95.5000000000003411
 30
0.0
 11
141.9999999999998863
 21
29.5000000000004015
 31
0.0
  0
LINE
  5
A9
  8
2
 10
151.0
 20
40.9999999999996518
 30
0.0
 11
151.0
 21
39.4999999999996589
 31
0.0
  0
LINE
  5
AA
  8
0
 10
139.0
 20
40.9999999999996518
 30
0.0
 11
139.0
 21
39.4999999999996589
 31
0.0
  0
LINE
  5
AB
  8
0
 10
138.9999999999998863
 20
83.9999999999996305
 30
0.0
 11
138.9999999999998863
 21
85.4999999999996305
 31
0.0
  0
LINE
  5
AC
  8
2
 10
151.0
 20
83.9999999999996305
 30
0.0
 11
151.0
 21
85.4999999999996305
 31
0.0
  0
LINE
  5
AD
  8
1
 10
49.5000000000000071
 20
79.4999999999999289
 30
0.0
 11
40.4999999999991971
 21
79.4999999999999432
 31
0.0
  0
LINE
  5
AE
  8
1
 10
49.5000000000000071
 20
45.4999999999999503
 30
0.0
 11
40.4999999999991971
 21
45.4999999999999787
 31
0.0
  0
LINE
  5
AF
  8
1
 10
50.5
 20
62.4999999999999716
 30
0.0
 11
20.5
 21
62.4999999999999929
 31
0.0
  0
LINE
  5
B0
  8
2
 10
31.75
 20
32.4999999999999929
 30
0.0
 11
31.75
 21
92.4999999999999858
 31
0.0
  0
LINE
  5
B1
  8
2
 10
38.25
 20
32.4999999999999716
 30
0.0
 11
38.25
 21
92.4999999999999858
 31
0.0
  0
LINE
  5
B2
  8
0
 10
41.5
 20
83.9999999999999289
 30
0.0
 11
27.4999999999979607
 21
83.9999999999999858
 31
0.0
  0
LINE
  5
B3
  8
0
 10
41.5
 20
41.0
 30
0.0
 11
27.5000000000006786
 21
40.9999999999999574
 31
0.0
  0
LINE
  5
B4
  8
0
 10
41.5
 20
41.0
 30
0.0
 11
41.5
 21
83.9999999999999289
 31
0.0
  0
LINE
  5
B5
  8
0
 10
28.5
 20
85.4999999999999858
 30
0.0
 11
28.5
 21
92.4999999999999858
 31
0.0
  0
LINE
  5
B6
  8
0
 10
41.9999999999991971
 20
85.4999999999999432
 30
0.0
 11
28.5
 21
85.4999999999999858
 31
0.0
  0
LINE
  5
B7
  8
0
 10
41.9999999999991971
 20
39.4999999999999929
 30
0.0
 11
28.5
 21
39.4999999999999716
 31
0.0
  0
LINE
  5
B8
  8
0
 10
28.5
 20
32.4999999999999929
 30
0.0
 11
28.5
 21
39.4999999999999716
 31
0.0
  0
LINE
  5
B9
  8
0
 10
48.0
 20
92.4999999999999858
 30
0.0
 11
28.5
 21
92.4999999999999858
 31
0.0
  0
LINE
  5
BA
  8
0
 10
48.0
 20
32.4999999999999716
 30
0.0
 11
28.5
 21
32.4999999999999929
 31
0.0
  0
LINE
  5
BB
  8
1
 10
35.0
 20
30.0
 30
0.0
 11
35.0
 21
94.9999999999999858
 31
0.0
  0
LINE
  5
BC
  8
0
 10
41.9999999999991971
 20
39.4999999999999929
 30
0.0
 11
41.9999999999991971
 21
85.4999999999999432
 31
0.0
  0
LINE
  5
BD
  8
0
 10
48.0
 20
32.4999999999999929
 30
0.0
 11
48.0
 21
92.4999999999999858
 31
0.0
  0
LINE
  5
BE
  8
0
 10
27.500000000001311
 20
29.5000000000002203
 30
0.0
 11
23.0000000000004583
 21
29.4999999999999893
 31
0.0
  0
LINE
  5
BF
  8
0
 10
23.0000000000004583
 20
29.4999999999999893
 30
0.0
 11
23.0000000000004583
 21
95.4999999999999289
 31
0.0
  0
LINE
  5
C0
  8
0
 10
27.4999999999973888
 20
95.5000000000001563
 30
0.0
 11
27.5000000000006786
 21
29.5000000000002203
 31
0.0
  0
LINE
  5
C1
  8
0
 10
27.4999999999973888
 20
95.5000000000001563
 30
0.0
 11
23.0000000000004583
 21
95.4999999999999289
 31
0.0
  0
LINE
  5
C2
  8
1
 10
21.5000000000004583
 20
35.4999999999999716
 30
0.0
 11
29.0000000000003908
 21
35.4999999999999503
 31
0.0
  0
LINE
  5
C3
  8
1
 10
21.5000000000004583
 20
89.4999999999999432
 30
0.0
 11
28.9999999999976907
 21
89.4999999999999289
 31
0.0
  0
LINE
  5
C4
  8
0
 10
41.0
 20
40.9999999999999787
 30
0.0
 11
41.0
 21
39.4999999999999929
 31
0.0
  0
LINE
  5
C5
  8
0
 10
29.0
 20
40.9999999999999787
 30
0.0
 11
29.0
 21
39.4999999999999929
 31
0.0
  0
LINE
  5
C6
  8
2
 10
39.0
 20
83.9999999999999289
 30
0.0
 11
38.9999999999999503
 21
41.0
 31
0.0
  0
LINE
  5
C7
  8
2
 10
31.0
 20
83.9999999999999858
 30
0.0
 11
31.0
 21
40.9999999999999787
 31
0.0
  0
LINE
  5
C8
  8
2
 10
38.9999999999999503
 20
45.4999999999999787
 30
0.0
 11
30.9999999999999396
 21
45.4999999999999787
 31
0.0
  0
LINE
  5
C9
  8
2
 10
38.9999999999999503
 20
79.4999999999999432
 30
0.0
 11
30.9999999999999396
 21
79.4999999999999432
 31
0.0
  0
LINE
  5
CA
  8
0
 10
41.0
 20
83.9999999999999574
 30
0.0
 11
41.0
 21
85.4999999999999432
 31
0.0
  0
LINE
  5
CB
  8
0
 10
29.0
 20
83.9999999999999574
 30
0.0
 11
29.0
 21
85.4999999999999432
 31
0.0
  0
LINE
  5
CC
  8
0
 10
116.0
 20
83.9999999999999858
 30
0.0
 11
116.0
 21
85.4999999999999858
 31
0.0
  0
LINE
  5
CD
  8
0
 10
104.0
 20
83.9999999999999858
 30
0.0
 11
104.0
 21
85.4999999999999858
 31
0.0
  0
LINE
  5
CE
  8
2
 10
106.0
 20
79.4999999999999858
 30
0.0
 11
114.0
 21
79.4999999999999858
 31
0.0
  0
LINE
  5
CF
  8
2
 10
106.0
 20
45.5000000000000071
 30
0.0
 11
114.0
 21
45.5000000000000071
 31
0.0
  0
LINE
  5
D0
  8
2
 10
114.0
 20
84.0000000000000142
 30
0.0
 11
114.0
 21
41.0000000000000071
 31
0.0
  0
LINE
  5
D1
  8
2
 10
106.0
 20
83.9999999999999574
 30
0.0
 11
106.0
 21
41.0000000000000284
 31
0.0
  0
LINE
  5
D2
  8
0
 10
116.0
 20
41.0000000000000071
 30
0.0
 11
116.0
 21
39.5000000000000071
 31
0.0
  0
LINE
  5
D3
  8
0
 10
104.0
 20
41.0000000000000071
 30
0.0
 11
104.0
 21
39.5000000000000071
 31
0.0
  0
CIRCLE
  5
D4
  8
2
 10
110.0
 20
15.0
 30
0.0
 40
6.0
  0
LINE
  5
D5
  8
1
 10
123.4999999999995026
 20
89.4999999999999858
 30
0.0
 11
116.0000000000023022
 21
89.4999999999999716
 31
0.0
  0
LINE
  5
D6
  8
1
 10
123.4999999999995026
 20
35.4999999999999929
 30
0.0
 11
115.9999999999990052
 21
35.4999999999999787
 31
0.0
  0
LINE
  5
D7
  8
0
 10
115.7662812973366044
 20
40.9999999999999787
 30
0.0
 11
115.766281297336505
 21
83.9999999999999858
 31
0.0
  0
LINE
  5
D8
  8
0
 10
117.4999999999993037
 20
41.0
 30
0.0
 11
117.4999999999987068
 21
29.5000000000002416
 31
0.0
  0
LINE
  5
D9
  8
0
 10
117.5000000000026006
 20
95.5000000000001847
 30
0.0
 11
121.9999999999995026
 21
95.4999999999999432
 31
0.0
  0
LINE
  5
DA
  8
0
 10
117.5000000000026006
 20
95.5000000000001847
 30
0.0
 11
117.5000000000020037
 21
84.0000000000000142
 31
0.0
  0
LINE
  5
DB
  8
0
 10
121.9999999999995026
 20
29.5000000000000107
 30
0.0
 11
121.9999999999995026
 21
95.4999999999999432
 31
0.0
  0
LINE
  5
DC
  8
0
 10
117.4999999999987068
 20
29.5000000000002416
 30
0.0
 11
121.9999999999995026
 21
29.5000000000000107
 31
0.0
  0
LINE
  5
DD
  8
0
 10
110.1237761698638025
 20
8.4999999999999964
 30
0.0
 11
117.4999999999990052
 21
8.4999999999995417
 31
0.0
  0
LINE
  5
DE
  8
0
 10
117.4999999999987068
 20
4.0000000000001812
 30
0.0
 11
121.9999999999995026
 21
3.9999999999999529
 31
0.0
  0
LINE
  5
DF
  8
1
 10
124.4999999999995026
 20
11.0000000000008296
 30
0.0
 11
114.9999999999991047
 21
11.00000000000081
 31
0.0
  0
LINE
  5
E0
  8
0
 10
121.9999999999995026
 20
3.9999999999999529
 30
0.0
 11
121.9999999999995026
 21
17.9999999999999503
 31
0.0
  0
LINE
  5
E1
  8
0
 10
121.9999999999996021
 20
17.9999999999999005
 30
0.0
 11
115.7662812973353965
 21
17.9999999999999787
 31
0.0
  0
LINE
  5
E2
  8
0
 10
117.4999999999995026
 20
17.9999999999999503
 30
0.0
 11
117.4999999999987068
 21
4.0000000000001812
 31
0.0
  0
ARC
  5
F3
  8
2
 10
110.0
 20
15.0
 30
0.0
 40
6.5
 50
87.8181553486815432
 51
272.1818446513183858
  0
LINE
  5
F4
  8
2
 10
103.0000000000007958
 20
8.2285927435191333
 30
0.0
 11
103.0000000000007958
 21
21.7714072564808383
 31
0.0
  0
LINE
  5
F5
  8
1
 10
119.0
 20
15.0
 30
0.0
 11
94.5000000000003979
 21
15.0
 31
0.0
  0
LINE
  5
F6
  8
1
 10
110.0
 20
5.9934705382496718
 30
0.0
 11
110.0
 21
24.0065294617503184
 31
0.0
  0
LINE
  5
F7
  8
0
 10
97.0
 20
8.0000000000000036
 30
0.0
 11
97.00000000000081
 21
21.9999999999999716
 31
0.0
  0
LINE
  5
F8
  8
0
 10
110.2474626057436069
 20
8.5047123036189838
 30
0.0
 11
97.0
 21
8.0000000000000036
 31
0.0
  0
LINE
  5
F9
  8
0
 10
97.0
 20
22.0
 30
0.0
 11
110.2474626057436069
 21
21.4952876963810091
 31
0.0
  0
ARC
  5
FA
  8
0
 10
110.0
 20
15.0
 30
0.0
 40
6.5
 50
272.1818446513183858
 51
87.8181553486815858
  0
CIRCLE
  5
FB
  8
0
 10
110.0
 20
15.0
 30
0.0
 40
3.25
  0
LINE
  5
FC
  8
0
 10
97.0
 20
32.5000000000000213
 30
0.0
 11
97.0
 21
92.5000000000000142
 31
0.0
  0
LINE
  5
FD
  8
0
 10
103.0000000000007958
 20
39.5000000000000071
 30
0.0
 11
103.0000000000007958
 21
85.4999999999999858
 31
0.0
  0
LINE
  5
FE
  8
1
 10
110.0
 20
30.0000000000000213
 30
0.0
 11
110.0
 21
95.0000000000000142
 31
0.0
  0
LINE
  5
FF
  8
0
 10
97.0
 20
32.5
 30
0.0
 11
116.5
 21
32.5000000000000213
 31
0.0
  0
LINE
  5
100
  8
0
 10
97.0
 20
92.5000000000000142
 30
0.0
 11
116.5
 21
92.5000000000000142
 31
0.0
  0
LINE
  5
101
  8
0
 10
116.5
 20
32.5000000000000213
 30
0.0
 11
116.5
 21
39.5
 31
0.0
  0
LINE
  5
102
  8
0
 10
103.0000000000007958
 20
39.5000000000000071
 30
0.0
 11
116.5
 21
39.5
 31
0.0
  0
LINE
  5
103
  8
0
 10
103.0000000000007958
 20
85.4999999999999858
 30
0.0
 11
116.5
 21
85.5000000000000142
 31
0.0
  0
LINE
  5
104
  8
0
 10
116.5
 20
85.5000000000000142
 30
0.0
 11
116.5
 21
92.5000000000000142
 31
0.0
  0
LINE
  5
105
  8
0
 10
103.5
 20
41.0000000000000284
 30
0.0
 11
103.5
 21
83.9999999999999574
 31
0.0
  0
LINE
  5
106
  8
0
 10
103.5
 20
41.0000000000000284
 30
0.0
 11
117.4999999999993037
 21
41.0
 31
0.0
  0
LINE
  5
107
  8
0
 10
103.5
 20
83.9999999999999574
 30
0.0
 11
117.5000000000020037
 21
84.0000000000000142
 31
0.0
  0
LINE
  5
108
  8
2
 10
106.75
 20
32.5
 30
0.0
 11
106.75
 21
92.5000000000000142
 31
0.0
  0
LINE
  5
109
  8
2
 10
113.25
 20
32.5000000000000213
 30
0.0
 11
113.25
 21
92.5000000000000142
 31
0.0
  0
LINE
  5
10A
  8
1
 10
94.5000000000000142
 20
62.5
 30
0.0
 11
124.5
 21
62.5000000000000071
 31
0.0
  0
LINE
  5
10B
  8
0
 10
81.9999999999999858
 20
32.4999999999995168
 30
0.0
 11
68.0000000000000426
 21
32.5000000000003268
 31
0.0
  0
LINE
  5
10C
  8
0
 10
67.9999999999999858
 20
92.4999999999996163
 30
0.0
 11
81.9999999999999858
 21
92.4999999999996163
 31
0.0
  0
LINE
  5
10D
  8
0
 10
68.0000000000000426
 20
32.5000000000003268
 30
0.0
 11
67.9999999999999858
 21
92.4999999999996163
 31
0.0
  0
LINE
  5
10E
  8
0
 10
81.9999999999999858
 20
32.4999999999995168
 30
0.0
 11
81.9999999999999858
 21
92.4999999999996163
 31
0.0
  0
LINE
  5
10F
  8
1
 10
74.9999999999999858
 20
29.9999999999996589
 30
0.0
 11
74.9999999999999858
 21
94.9999999999996589
 31
0.0
  0
LINE
  5
110
  8
2
 10
68.0000000000000426
 20
39.4999999999996732
 30
0.0
 11
81.9999999999999858
 21
39.4999999999996518
 31
0.0
  0
LINE
  5
111
  8
2
 10
67.9999999999999858
 20
85.4999999999996305
 30
0.0
 11
81.9999999999999858
 21
85.4999999999996305
 31
0.0
  0
LINE
  5
112
  8
1
 10
61.4999999999997016
 20
62.5
 30
0.0
 11
84.4999999999999716
 21
62.5
 31
0.0
  0
LINE
  5
113
  8
1
 10
158.500000000000199
 20
62.5
 30
0.0
 11
135.4999999999998863
 21
62.5
 31
0.0
  0
LINE
  5
114
  8
0
 10
142.0000000000003126
 20
85.4999999999996305
 30
0.0
 11
138.2285927435191866
 21
85.4999999999996305
 31
0.0
  0
LINE
  5
115
  8
2
 10
151.7714072564808134
 20
39.4999999999996732
 30
0.0
 11
141.9999999999998863
 21
39.4999999999996518
 31
0.0
  0
LINE
  5
116
  8
1
 10
145.0
 20
29.9999999999996589
 30
0.0
 11
145.0
 21
94.9999999999996589
 31
0.0
  0
LINE
  5
117
  8
0
 10
137.9999999999998863
 20
32.4999999999995168
 30
0.0
 11
138.0
 21
92.4999999999996163
 31
0.0
  0
LINE
  5
118
  8
2
 10
151.9999999999998863
 20
32.5000000000003268
 30
0.0
 11
151.9999999999998863
 21
92.4999999999996163
 31
0.0
  0
LINE
  5
119
  8
0
 10
142.0000000000003979
 20
92.4999999999996589
 30
0.0
 11
138.0
 21
92.4999999999996163
 31
0.0
  0
LINE
  5
11A
  8
2
 10
141.9999999999998863
 20
32.4999999999997513
 30
0.0
 11
151.9999999999998863
 21
32.5000000000003268
 31
0.0
  0
LINE
  5
11B
  8
0
 10
138.2285927435191013
 20
39.4999999999996305
 30
0.0
 11
138.2285927435191866
 21
85.4999999999996305
 31
0.0
  0
LINE
  5
11C
  8
2
 10
151.7714072564808134
 20
39.4999999999996732
 30
0.0
 11
151.7714072564808134
 21
85.4999999999996305
 31
0.0
  0
LINE
  5
11D
  8
0
 10
138.5
 20
40.9999999999996305
 30
0.0
 11
138.5
 21
83.9999999999997442
 31
0.0
  0
LINE
  5
11E
  8
2
 10
151.5
 20
40.9999999999996021
 30
0.0
 11
151.5
 21
83.9999999999997726
 31
0.0
  0
LINE
  5
11F
  8
2
 10
142.0
 20
40.9999999999996305
 30
0.0
 11
151.5
 21
40.9999999999996021
 31
0.0
  0
LINE
  5
120
  8
0
 10
138.5
 20
83.9999999999997442
 30
0.0
 11
142.0000000000003126
 21
83.9999999999997158
 31
0.0
  0
LINE
  5
121
  8
1
 10
95.5
 20
45.4999999999999716
 30
0.0
 11
104.5000000000007958
 21
45.5
 31
0.0
  0
LINE
  5
122
  8
1
 10
95.5
 20
79.4999999999999432
 30
0.0
 11
104.5000000000007958
 21
79.5
 31
0.0
  0
TEXT
  5
27E
  8
0
 62
     3
 10
0.0
 20
0.0
 30
0.0
 40
10.0
  1
MCH6025C
  7
STANDARD1
  0
LINE
  5
32E
  8
2
 10
117.5000000000024016
 20
119.1499999999986983
 30
0.0
 11
120.0000000000024016
 21
116.6499999999987978
 31
0.0
  0
LINE
  5
32F
  8
2
 10
121.9999999999994031
 20
116.6499999999987978
 30
0.0
 11
120.0000000000024016
 21
116.6499999999987978
 31
0.0
  0
LINE
  5
330
  8
2
 10
120.0000000000024016
 20
116.6499999999987978
 30
0.0
 11
120.0000000000024016
 21
111.3499999999993975
 31
0.0
  0
LINE
  5
331
  8
2
 10
117.5000000000024016
 20
108.8499999999994969
 30
0.0
 11
120.0000000000024016
 21
111.3499999999993975
 31
0.0
  0
LINE
  5
332
  8
2
 10
121.9999999999994031
 20
111.3499999999993975
 30
0.0
 11
120.0000000000024016
 21
111.3499999999993975
 31
0.0
  0
LINE
  5
333
  8
2
 10
97.0000000000002842
 20
112.649999999999693
 30
0.0
 11
100.5000000000010942
 21
112.649999999999693
 31
0.0
  0
LINE
  5
334
  8
2
 10
103.0000000000010942
 20
115.1499999999995936
 30
0.0
 11
100.5000000000010942
 21
112.649999999999693
 31
0.0
  0
LINE
  5
335
  8
2
 10
103.0000000000010942
 20
104.8500000000004064
 30
0.0
 11
100.5000000000010942
 21
107.350000000000307
 31
0.0
  0
LINE
  5
336
  8
2
 10
97.0000000000002842
 20
107.350000000000307
 30
0.0
 11
100.5000000000010942
 21
107.350000000000307
 31
0.0
  0
LINE
  5
337
  8
2
 10
100.5000000000010942
 20
107.350000000000307
 30
0.0
 11
100.5000000000010942
 21
112.649999999999693
 31
0.0
  0
CIRCLE
  5
338
  8
2
 10
110.0
 20
110.0
 30
0.0
 40
6.0
  0
LINE
  5
339
  8
0
 10
110.1237761698638025
 20
116.5
 30
0.0
 11
117.4999999999990052
 21
116.5000000000004974
 31
0.0
  0
LINE
  5
33A
  8
0
 10
117.4999999999987068
 20
120.999999999999801
 30
0.0
 11
121.9999999999995026
 21
121.0
 31
0.0
  0
LINE
  5
33B
  8
1
 10
124.4999999999995026
 20
113.9999999999992042
 30
0.0
 11
114.9999999999991047
 21
113.9999999999992042
 31
0.0
  0
LINE
  5
33C
  8
0
 10
121.9999999999995026
 20
121.0
 30
0.0
 11
121.9999999999995026
 21
107.0
 31
0.0
  0
LINE
  5
33D
  8
0
 10
121.9999999999996021
 20
107.0000000000000995
 30
0.0
 11
115.7662812973353965
 21
107.0
 31
0.0
  0
LINE
  5
33E
  8
0
 10
117.4999999999995026
 20
107.0
 30
0.0
 11
117.4999999999987068
 21
120.999999999999801
 31
0.0
  0
ARC
  5
33F
  8
2
 10
110.0
 20
110.0
 30
0.0
 40
6.5
 50
87.8181553486815574
 51
272.1818446513184995
  0
LINE
  5
340
  8
2
 10
103.0000000000007958
 20
116.7714072564808987
 30
0.0
 11
103.0000000000007958
 21
103.2285927435192008
 31
0.0
  0
LINE
  5
341
  8
1
 10
119.0
 20
110.0
 30
0.0
 11
94.5000000000003979
 21
110.0
 31
0.0
  0
LINE
  5
342
  8
1
 10
110.0
 20
119.0065294617503042
 30
0.0
 11
110.0
 21
100.9934705382496958
 31
0.0
  0
LINE
  5
343
  8
0
 10
97.0
 20
117.0
 30
0.0
 11
97.00000000000081
 21
103.0
 31
0.0
  0
LINE
  5
344
  8
0
 10
110.2474626057436069
 20
116.4952876963809985
 30
0.0
 11
97.0
 21
117.0
 31
0.0
  0
LINE
  5
345
  8
0
 10
97.0
 20
103.0
 30
0.0
 11
110.2474626057436069
 21
103.5047123036190015
 31
0.0
  0
ARC
  5
346
  8
0
 10
110.0
 20
110.0
 30
0.0
 40
6.5
 50
272.1818446513183858
 51
87.8181553486815574
  0
CIRCLE
  5
347
  8
0
 10
110.0
 20
110.0
 30
0.0
 40
3.25
  0
ENDSEC
  0
EOF
