  0
SECTION
  2
HEADER
  9
$ACADVER
  1
AC1009
  9
$INSBASE
 10
0.0
 20
0.0
 30
0.0
  9
$EXTMIN
 10
0.0
 20
-2.960436562073669
 30
0.0
  9
$EXTMAX
 10
309.49999999999937
 20
219.49999999999929
 30
0.0
  9
$LIMMIN
 10
0.0
 20
0.0
  9
$LIMMAX
 10
375.0
 20
270.0
  9
$ORTHOMODE
 70
     1
  9
$REGENMODE
 70
     1
  9
$FILLMODE
 70
     1
  9
$QTEXTMODE
 70
     0
  9
$MIRRTEXT
 70
     0
  9
$DRAGMODE
 70
     2
  9
$LTSCALE
 40
10.0
  9
$OSMODE
 70
  3071
  9
$ATTMODE
 70
     1
  9
$TEXTSIZE
 40
0.2
  9
$TRACEWID
 40
0.05
  9
$TEXTSTYLE
  7
STANDARD
  9
$CLAYER
  8
0
  9
$CELTYPE
  6
BYLAYER
  9
$CECOLOR
 62
   256
  9
$DIMSCALE
 40
1.0
  9
$DIMASZ
 40
3.0
  9
$DIMEXO
 40
2.0
  9
$DIMDLI
 40
0.38
  9
$DIMRND
 40
0.0
  9
$DIMDLE
 40
0.0
  9
$DIMEXE
 40
2.0
  9
$DIMTP
 40
0.0
  9
$DIMTM
 40
0.0
  9
$DIMTXT
 40
3.2000000000000002
  9
$DIMCEN
 40
0.0
  9
$DIMTSZ
 40
0.0
  9
$DIMTOL
 70
     0
  9
$DIMLIM
 70
     0
  9
$DIMTIH
 70
     0
  9
$DIMTOH
 70
     0
  9
$DIMSE1
 70
     0
  9
$DIMSE2
 70
     0
  9
$DIMTAD
 70
     1
  9
$DIMZIN
 70
     0
  9
$DIMBLK
  1

  9
$DIMASO
 70
     1
  9
$DIMSHO
 70
     0
  9
$DIMPOST
  1

  9
$DIMAPOST
  1

  9
$DIMALT
 70
     0
  9
$DIMALTD
 70
     2
  9
$DIMALTF
 40
25.399999999999999
  9
$DIMLFAC
 40
1.0
  9
$DIMTOFL
 70
     1
  9
$DIMTVP
 40
1.6000000000000001
  9
$DIMTIX
 70
     1
  9
$DIMSOXD
 70
     0
  9
$DIMSAH
 70
     0
  9
$DIMBLK1
  1

  9
$DIMBLK2
  1

  9
$DIMSTYLE
  2
STANDARD
  9
$DIMCLRD
 70
     0
  9
$DIMCLRE
 70
     0
  9
$DIMCLRT
 70
     0
  9
$DIMTFAC
 40
1.0
  9
$DIMGAP
 40
0.09
  9
$LUNITS
 70
     2
  9
$LUPREC
 70
     4
  9
$SKETCHINC
 40
0.1
  9
$FILLETRAD
 40
0.0
  9
$AUNITS
 70
     0
  9
$AUPREC
 70
     4
  9
$MENU
  1
E:\r13\win\SUPPORT\ACAD
  9
$ELEVATION
 40
0.0
  9
$PELEVATION
 40
0.0
  9
$THICKNESS
 40
0.0
  9
$LIMCHECK
 70
     0
  9
$BLIPMODE
 70
     0
  9
$CHAMFERA
 40
0.0
  9
$CHAMFERB
 40
0.0
  9
$SKPOLY
 70
     0
  9
$TDCREATE
 40
2449839.798553241
  9
$TDUPDATE
 40
2456597.6507768058
  9
$TDINDWG
 40
0.0001889583
  9
$TDUSRTIMER
 40
0.0001889583
  9
$USRTIMER
 70
     1
  9
$ANGBASE
 50
0.0
  9
$ANGDIR
 70
     0
  9
$PDMODE
 70
     0
  9
$PDSIZE
 40
0.0
  9
$PLINEWID
 40
0.0
  9
$COORDS
 70
     1
  9
$SPLFRAME
 70
     0
  9
$SPLINETYPE
 70
     6
  9
$SPLINESEGS
 70
     8
  9
$ATTDIA
 70
     0
  9
$ATTREQ
 70
     1
  9
$HANDLING
 70
     1
  9
$HANDSEED
  5
2E0
  9
$SURFTAB1
 70
     6
  9
$SURFTAB2
 70
     6
  9
$SURFTYPE
 70
     6
  9
$SURFU
 70
     6
  9
$SURFV
 70
     6
  9
$UCSNAME
  2

  9
$UCSORG
 10
0.0
 20
0.0
 30
0.0
  9
$UCSXDIR
 10
1.0
 20
0.0
 30
0.0
  9
$UCSYDIR
 10
0.0
 20
1.0
 30
0.0
  9
$PUCSNAME
  2

  9
$PUCSORG
 10
0.0
 20
0.0
 30
0.0
  9
$PUCSXDIR
 10
1.0
 20
0.0
 30
0.0
  9
$PUCSYDIR
 10
0.0
 20
1.0
 30
0.0
  9
$USERI1
 70
     0
  9
$USERI2
 70
     1
  9
$USERI3
 70
     1
  9
$USERI4
 70
     0
  9
$USERI5
 70
     0
  9
$USERR1
 40
0.0
  9
$USERR2
 40
0.0
  9
$USERR3
 40
0.0
  9
$USERR4
 40
0.0
  9
$USERR5
 40
0.0
  9
$WORLDVIEW
 70
     1
  9
$SHADEDGE
 70
     3
  9
$SHADEDIF
 70
    70
  9
$TILEMODE
 70
     1
  9
$MAXACTVP
 70
    16
  9
$PLIMCHECK
 70
     0
  9
$PEXTMIN
 10
1.0000000000000000E+020
 20
1.0000000000000000E+020
 30
1.0000000000000000E+020
  9
$PEXTMAX
 10
-1.0000000000000000E+020
 20
-1.0000000000000000E+020
 30
-1.0000000000000000E+020
  9
$PLIMMIN
 10
0.0
 20
0.0
  9
$PLIMMAX
 10
12.0
 20
9.0
  9
$UNITMODE
 70
     0
  9
$VISRETAIN
 70
     0
  9
$PLINEGEN
 70
     0
  9
$PSLTSCALE
 70
     0
  0
ENDSEC
  0
SECTION
  2
TABLES
  0
TABLE
  2
VPORT
 70
     1
  0
VPORT
  2
*ACTIVE
 70
     0
 10
0.0
 20
0.0
 11
1.0
 21
1.0
 12
187.49427839065231
 22
134.10366293909439
 13
0.0
 23
0.0
 14
10.0
 24
10.0
 15
10.0
 25
10.0
 16
0.0
 26
0.0
 36
1.0
 17
0.0
 27
0.0
 37
0.0
 40
277.29405978699532
 41
2.304913294797688
 42
50.0
 43
0.0
 44
0.0
 50
0.0
 51
0.0
 71
     0
 72
   500
 73
     1
 74
     0
 75
     0
 76
     0
 77
     0
 78
     2
  0
ENDTAB
  0
TABLE
  2
LTYPE
 70
     4
  0
LTYPE
  2
CONTINUOUS
 70
     0
  3
Solid Line
 72
    65
 73
     0
 40
0.0
  0
LTYPE
  2
CENTER
 70
     0
  3
____ _ ____ _ ____ _ ____ _ ____ _ ____ _ ____
 72
    65
 73
     4
 40
2.0
 49
1.25
 49
-0.25
 49
0.25
 49
-0.25
  0
LTYPE
  2
HIDDEN
 70
     0
  3
_ _ _ _ _ _ _ _ _ _ _ _ _ _ _ _ _ _ _ _ _ _ _
 72
    65
 73
     2
 40
0.375
 49
0.25
 49
-0.125
  0
LTYPE
  2
PHANTOM2
 70
     0
  3
___ _ _ ___ _ _ ___ _ _ ___ _ _
 72
    65
 73
     6
 40
1.25
 49
0.625
 49
-0.125
 49
0.125
 49
-0.125
 49
0.125
 49
-0.125
  0
ENDTAB
  0
TABLE
  2
LAYER
 70
     3
  0
LAYER
  2
0
 70
     0
 62
     7
  6
CONTINUOUS
  0
LAYER
  2
1
 70
     0
 62
     1
  6
CENTER
  0
LAYER
  2
2
 70
     0
 62
     2
  6
HIDDEN
  0
ENDTAB
  0
TABLE
  2
STYLE
 70
     2
  0
STYLE
  2
STANDARD
 70
     0
 40
0.0
 41
1.0
 50
0.0
 71
     0
 42
0.2
  3
TXT
  4
BIGFONT
  0
STYLE
  2
STANDARD1
 70
     0
 40
0.0
 41
1.0
 50
0.0
 71
     0
 42
3.0
  3
txt
  4

  0
ENDTAB
  0
TABLE
  2
VIEW
 70
     1
  0
VIEW
  2
ALL
 70
     0
 40
270.0
 10
220.99159663865549
 20
135.0
 41
0.0
 11
0.0
 21
0.0
 31
1.0
 12
0.0
 22
0.0
 32
0.0
 42
0.0
 43
0.0
 44
0.0
 50
0.0
 71
     0
  0
ENDTAB
  0
TABLE
  2
UCS
 70
     0
  0
ENDTAB
  0
TABLE
  2
APPID
 70
     3
  0
APPID
  2
ACAD
 70
     0
  0
APPID
  2
ACAD_MLEADERVER
 70
     0
  0
APPID
  2
ACAD_NAV_VCDISPLAY
 70
     0
  0
ENDTAB
  0
TABLE
  2
DIMSTYLE
 70
     1
  0
DIMSTYLE
  2
STANDARD
 70
     0
  3

  4

  5

  6

  7

 40
1.0
 41
0.18
 42
0.0625
 43
0.38
 44
0.18
 45
0.0
 46
0.0
 47
0.0
 48
0.0
140
0.18
141
0.09
142
0.0
143
25.399999999999999
144
1.0
145
0.0
146
1.0
147
0.09
 71
     0
 72
     0
 73
     1
 74
     1
 75
     0
 76
     0
 77
     0
 78
     0
170
     0
171
     2
172
     0
173
     0
174
     0
175
     0
176
     0
177
     0
178
     0
  0
ENDTAB
  0
ENDSEC
  0
SECTION
  2
BLOCKS
  0
BLOCK
  8
0
  2
$MODEL_SPACE
 70
     0
 10
0.0
 20
0.0
 30
0.0
  3
$MODEL_SPACE
  1

  0
ENDBLK
  5
15F
  8
0
  0
BLOCK
 67
     1
  8
0
  2
$PAPER_SPACE
 70
     0
 10
0.0
 20
0.0
 30
0.0
  3
$PAPER_SPACE
  1

  0
ENDBLK
  5
15D
 67
     1
  8
0
  0
ENDSEC
  0
SECTION
  2
ENTITIES
  0
LINE
  5
35
  8
2
 10
177.35000000000039
 20
59.00000000000145
 30
0.0
 11
182.64999999999969
 21
59.00000000000145
 31
0.0
  0
LINE
  5
36
  8
2
 10
177.35000000000039
 20
55.500000000000647
 30
0.0
 11
177.35000000000039
 21
59.00000000000145
 31
0.0
  0
LINE
  5
37
  8
2
 10
174.85000000000039
 20
61.50000000000145
 30
0.0
 11
177.35000000000039
 21
59.00000000000145
 31
0.0
  0
LINE
  5
38
  8
2
 10
185.14999999999961
 20
61.50000000000145
 30
0.0
 11
182.64999999999969
 21
59.00000000000145
 31
0.0
  0
LINE
  5
39
  8
2
 10
182.64999999999969
 20
55.500000000000647
 30
0.0
 11
182.64999999999969
 21
59.00000000000145
 31
0.0
  0
LINE
  5
3A
  8
1
 10
180.0
 20
66.500000000000753
 30
0.0
 11
180.0
 21
50.500000000000647
 31
0.0
  0
LINE
  5
3B
  8
2
 10
132.59999999999999
 20
154.00000000000011
 30
0.0
 11
132.59999999999999
 21
160.00000000000011
 31
0.0
  0
LINE
  5
3C
  8
2
 10
131.94999999999999
 20
154.00000000000011
 30
0.0
 11
131.94999999999999
 21
160.00000000000011
 31
0.0
  0
LINE
  5
3D
  8
2
 10
131.30000000000001
 20
154.00000000000011
 30
0.0
 11
131.30000000000001
 21
160.00000000000011
 31
0.0
  0
LINE
  5
3E
  8
2
 10
130.65000000000001
 20
154.00000000000011
 30
0.0
 11
130.65000000000001
 21
160.00000000000011
 31
0.0
  0
LINE
  5
3F
  8
2
 10
130.0
 20
154.00000000000011
 30
0.0
 11
130.0
 21
160.00000000000011
 31
0.0
  0
LINE
  5
40
  8
2
 10
129.34999999999999
 20
154.00000000000011
 30
0.0
 11
129.34999999999999
 21
160.00000000000011
 31
0.0
  0
LINE
  5
41
  8
2
 10
128.69999999999999
 20
154.00000000000011
 30
0.0
 11
128.69999999999999
 21
160.00000000000011
 31
0.0
  0
LINE
  5
42
  8
2
 10
128.05000000000001
 20
154.00000000000011
 30
0.0
 11
128.05000000000001
 21
160.00000000000011
 31
0.0
  0
LINE
  5
43
  8
2
 10
127.40000000000001
 20
154.00000000000011
 30
0.0
 11
127.40000000000001
 21
160.00000000000011
 31
0.0
  0
LINE
  5
44
  8
2
 10
126.75
 20
154.00000000000011
 30
0.0
 11
133.25
 21
154.00000000000011
 31
0.0
  0
LINE
  5
45
  8
2
 10
242.64999999999961
 20
214.49999999999929
 30
0.0
 11
242.64999999999961
 21
210.99999999999849
 31
0.0
  0
LINE
  5
46
  8
2
 10
245.14999999999961
 20
208.49999999999849
 30
0.0
 11
242.64999999999961
 21
210.99999999999849
 31
0.0
  0
LINE
  5
47
  8
2
 10
234.85000000000039
 20
208.49999999999849
 30
0.0
 11
237.35000000000031
 21
210.99999999999849
 31
0.0
  0
LINE
  5
48
  8
2
 10
237.35000000000031
 20
214.49999999999929
 30
0.0
 11
237.35000000000031
 21
210.99999999999849
 31
0.0
  0
LINE
  5
49
  8
2
 10
237.35000000000031
 20
210.99999999999849
 30
0.0
 11
242.64999999999961
 21
210.99999999999849
 31
0.0
  0
LINE
  5
4A
  8
2
 10
246.0
 20
214.4999999999992
 30
0.0
 11
246.0
 21
210.49999999999929
 31
0.0
  0
LINE
  5
4B
  8
1
 10
240.0
 20
203.4999999999992
 30
0.0
 11
240.0
 21
219.49999999999929
 31
0.0
  0
LINE
  5
4C
  8
1
 10
240.0
 20
118.15000000000011
 30
0.0
 11
240.0
 21
101.85000000000009
 31
0.0
  0
LINE
  5
4D
  8
1
 10
248.15000000000001
 20
110.0000000000001
 30
0.0
 11
231.84999999999999
 21
110.0000000000001
 31
0.0
  0
CIRCLE
  5
4E
  8
0
 10
240.0
 20
110.0000000000001
 30
0.0
 40
5.1500000000000004
  0
CIRCLE
  5
4F
  8
0
 10
240.0
 20
110.0000000000001
 30
0.0
 40
2.649999999999999
  0
LINE
  5
50
  8
1
 10
240.0
 20
158.15000000000009
 30
0.0
 11
240.0
 21
141.85000000000011
 31
0.0
  0
LINE
  5
51
  8
1
 10
248.15000000000001
 20
150.00000000000011
 30
0.0
 11
231.84999999999999
 21
150.00000000000011
 31
0.0
  0
CIRCLE
  5
52
  8
0
 10
240.0
 20
150.00000000000011
 30
0.0
 40
2.649999999999999
  0
CIRCLE
  5
53
  8
0
 10
240.0
 20
150.00000000000011
 30
0.0
 40
5.1500000000000004
  0
LINE
  5
54
  8
1
 10
240.0
 20
66.500000000000753
 30
0.0
 11
240.0
 21
50.500000000000647
 31
0.0
  0
LINE
  5
55
  8
2
 10
242.64999999999969
 20
55.500000000000647
 30
0.0
 11
242.64999999999969
 21
59.00000000000145
 31
0.0
  0
LINE
  5
56
  8
2
 10
245.14999999999969
 20
61.50000000000145
 30
0.0
 11
242.64999999999969
 21
59.00000000000145
 31
0.0
  0
LINE
  5
57
  8
2
 10
234.85000000000039
 20
61.50000000000145
 30
0.0
 11
237.35000000000039
 21
59.00000000000145
 31
0.0
  0
LINE
  5
58
  8
2
 10
237.35000000000039
 20
55.500000000000647
 30
0.0
 11
237.35000000000039
 21
59.00000000000145
 31
0.0
  0
LINE
  5
59
  8
2
 10
237.35000000000039
 20
59.00000000000145
 30
0.0
 11
242.64999999999969
 21
59.00000000000145
 31
0.0
  0
LINE
  5
5A
  8
2
 10
246.0
 20
55.500000000000767
 30
0.0
 11
246.0
 21
59.500000000000647
 31
0.0
  0
LINE
  5
5B
  8
0
 10
250.0
 20
55.500000000000647
 30
0.0
 11
146.5
 21
55.500000000000711
 31
0.0
  0
LINE
  5
5C
  8
0
 10
247.0
 20
61.50000000000076
 30
0.0
 11
149.5000000000006
 21
61.500000000000817
 31
0.0
  0
LINE
  5
5D
  8
0
 10
250.0
 20
58.50000000000076
 30
0.0
 11
247.0
 21
61.50000000000076
 31
0.0
  0
LINE
  5
5E
  8
0
 10
250.0
 20
55.500000000000767
 30
0.0
 11
250.0
 21
58.50000000000076
 31
0.0
  0
LINE
  5
5F
  8
2
 10
246.0
 20
59.500000000000647
 30
0.0
 11
141.9999999999994
 21
59.500000000000647
 31
0.0
  0
LINE
  5
60
  8
0
 10
137.4999999999998
 20
63.500000000000028
 30
0.0
 11
146.5
 21
55.500000000000711
 31
0.0
  0
LINE
  5
61
  8
0
 10
137.5
 20
72.058760561660819
 30
0.0
 11
137.5
 21
63.500000000000028
 31
0.0
  0
LINE
  5
62
  8
0
 10
149.5000000000006
 20
61.500000000000817
 30
0.0
 11
134.2937972548157
 21
74.879887819872152
 31
0.0
  0
LINE
  5
63
  8
0
 10
137.5
 20
206.50000000000011
 30
0.0
 11
146.5
 21
214.4999999999992
 31
0.0
  0
LINE
  5
64
  8
0
 10
137.5
 20
197.9412394383391
 30
0.0
 11
137.5
 21
206.50000000000011
 31
0.0
  0
LINE
  5
65
  8
0
 10
149.50000000000051
 20
208.49999999999909
 30
0.0
 11
134.2937972548157
 21
195.12011218012779
 31
0.0
  0
LINE
  5
66
  8
1
 10
112.0
 20
147.0
 30
0.0
 11
128.0000000000008
 21
147.00000000000011
 31
0.0
  0
LINE
  5
67
  8
0
 10
283.5
 20
151.49999999999949
 30
0.0
 11
287.94123943833932
 21
151.49999999999949
 31
0.0
  0
LINE
  5
68
  8
0
 10
283.5
 20
108.4999999999997
 30
0.0
 11
283.5
 21
151.49999999999949
 31
0.0
  0
LINE
  5
69
  8
0
 10
283.22859274351919
 20
106.9999999999995
 30
0.0
 11
283.22859274351919
 21
152.99999999999949
 31
0.0
  0
LINE
  5
6A
  8
0
 10
283.0
 20
99.999999999999446
 30
0.0
 11
304.49999999999937
 21
100.0000000000007
 31
0.0
  0
LINE
  5
6B
  8
0
 10
304.49999999999937
 20
159.9999999999996
 30
0.0
 11
283.0
 21
159.9999999999996
 31
0.0
  0
LINE
  5
6C
  8
0
 10
298.50000000000011
 20
100.0000000000003
 30
0.0
 11
298.50000000000011
 21
159.9999999999996
 31
0.0
  0
LINE
  5
6D
  8
0
 10
283.0
 20
99.999999999999446
 30
0.0
 11
283.0
 21
159.9999999999996
 31
0.0
  0
LINE
  5
6E
  8
1
 10
290.00000000000011
 20
95.000000000000355
 30
0.0
 11
290.00000000000011
 21
164.99999999999949
 31
0.0
  0
LINE
  5
6F
  8
0
 10
287.94123943833921
 20
152.99999999999949
 30
0.0
 11
283.22859274351919
 21
152.99999999999949
 31
0.0
  0
LINE
  5
70
  8
1
 10
309.49999999999937
 20
130.0
 30
0.0
 11
278.00000000000011
 21
130.0
 31
0.0
  0
LINE
  5
71
  8
1
 10
60.500000000000682
 20
130.0
 30
0.0
 11
92.000000000000014
 21
130.0
 31
0.0
  0
LINE
  5
72
  8
2
 10
73.000000000000028
 20
152.99999999999949
 30
0.0
 11
87.0
 21
152.99999999999949
 31
0.0
  0
LINE
  5
73
  8
2
 10
73.000000000000028
 20
106.9999999999996
 30
0.0
 11
87.000000000000014
 21
106.9999999999996
 31
0.0
  0
LINE
  5
74
  8
1
 10
80.0
 20
95.000000000000327
 30
0.0
 11
80.0
 21
164.99999999999949
 31
0.0
  0
LINE
  5
75
  8
0
 10
87.000000000000014
 20
99.999999999999432
 30
0.0
 11
87.0
 21
159.99999999999949
 31
0.0
  0
LINE
  5
76
  8
0
 10
73.000000000000028
 20
100.0000000000003
 30
0.0
 11
73.000000000000028
 21
159.99999999999949
 31
0.0
  0
LINE
  5
77
  8
0
 10
65.500000000000682
 20
159.99999999999949
 30
0.0
 11
87.0
 21
159.99999999999949
 31
0.0
  0
LINE
  5
78
  8
0
 10
87.000000000000014
 20
99.999999999999432
 30
0.0
 11
65.500000000000682
 21
100.0000000000006
 31
0.0
  0
LINE
  5
79
  8
1
 10
111.9999999999999
 20
130.0
 30
0.0
 11
255.0
 21
130.00000000000011
 31
0.0
  0
LINE
  5
7A
  8
2
 10
141.99999999999949
 20
143.0
 30
0.0
 11
141.9999999999994
 21
117.0000000000001
 31
0.0
  0
LINE
  5
7B
  8
2
 10
126.75
 20
160.00000000000011
 30
0.0
 11
126.7500000000001
 21
100.0000000000001
 31
0.0
  0
LINE
  5
7C
  8
0
 10
123.4999999999999
 20
151.5
 30
0.0
 11
137.5
 21
151.5
 31
0.0
  0
LINE
  5
7D
  8
0
 10
123.5
 20
108.5000000000001
 30
0.0
 11
137.5
 21
108.5000000000001
 31
0.0
  0
LINE
  5
7E
  8
0
 10
123.5
 20
108.5000000000001
 30
0.0
 11
123.4999999999999
 21
151.5
 31
0.0
  0
LINE
  5
7F
  8
0
 10
136.5
 20
153.00000000000011
 30
0.0
 11
136.5
 21
160.00000000000011
 31
0.0
  0
LINE
  5
80
  8
0
 10
123.0000000000007
 20
153.0
 30
0.0
 11
136.5
 21
153.00000000000011
 31
0.0
  0
LINE
  5
81
  8
0
 10
123.0000000000008
 20
107.0000000000001
 30
0.0
 11
136.5
 21
107.0000000000001
 31
0.0
  0
LINE
  5
82
  8
0
 10
136.5
 20
100.0000000000001
 30
0.0
 11
136.5
 21
107.0000000000001
 31
0.0
  0
LINE
  5
83
  8
0
 10
117.0
 20
160.00000000000011
 30
0.0
 11
136.5
 21
160.00000000000011
 31
0.0
  0
LINE
  5
84
  8
0
 10
250.0
 20
160.0
 30
0.0
 11
250.0
 21
100.0
 31
0.0
  0
LINE
  5
85
  8
0
 10
117.0
 20
100.0000000000001
 30
0.0
 11
136.5
 21
100.0000000000001
 31
0.0
  0
LINE
  5
86
  8
1
 10
130.0
 20
95.000000000000782
 30
0.0
 11
130.0
 21
165.0
 31
0.0
  0
LINE
  5
87
  8
0
 10
123.0000000000008
 20
107.0000000000001
 30
0.0
 11
123.0000000000007
 21
153.0
 31
0.0
  0
LINE
  5
88
  8
0
 10
117.0
 20
100.0000000000001
 30
0.0
 11
117.0
 21
160.00000000000011
 31
0.0
  0
ARC
  5
89
  8
2
 10
130.0
 20
200.0
 30
0.0
 40
6.5
 50
90.000000000000014
 51
182.1818446513185
  0
LINE
  5
8A
  8
2
 10
136.77140725648081
 20
206.9999999999992
 30
0.0
 11
123.2285927435191
 21
206.9999999999992
 31
0.0
  0
LINE
  5
8B
  8
1
 10
130.0
 20
188.5
 30
0.0
 11
130.0
 21
217.9999999999996
 31
0.0
  0
LINE
  5
8C
  8
1
 10
144.5
 20
200.0
 30
0.0
 11
118.5
 21
200.0
 31
0.0
  0
LINE
  5
8D
  8
0
 10
137.0
 20
213.0
 30
0.0
 11
123.0
 21
212.9999999999992
 31
0.0
  0
LINE
  5
8E
  8
0
 10
136.49528769638101
 20
199.75253739425631
 30
0.0
 11
137.0
 21
213.0
 31
0.0
  0
LINE
  5
8F
  8
0
 10
123.0
 20
213.0
 30
0.0
 11
123.504712303619
 21
199.75253739425631
 31
0.0
  0
ARC
  5
90
  8
0
 10
130.0
 20
200.0
 30
0.0
 40
6.5
 50
182.18184465131841
 51
357.81815534868161
  0
CIRCLE
  5
91
  8
0
 10
130.0
 20
200.0
 30
0.0
 40
3.25
  0
LINE
  5
92
  8
2
 10
130.0
 20
206.5
 30
0.0
 11
136.75235786118759
 21
206.50000000000011
 31
0.0
  0
LINE
  5
93
  8
0
 10
136.75235786118759
 20
206.50000000000011
 30
0.0
 11
137.5
 21
206.50000000000011
 31
0.0
  0
LINE
  5
94
  8
0
 10
250.0
 20
214.4999999999992
 30
0.0
 11
250.0
 21
211.4999999999992
 31
0.0
  0
LINE
  5
95
  8
0
 10
250.0
 20
211.4999999999992
 30
0.0
 11
247.0
 21
208.4999999999992
 31
0.0
  0
LINE
  5
96
  8
0
 10
247.0
 20
208.4999999999992
 30
0.0
 11
149.50000000000051
 21
208.49999999999909
 31
0.0
  0
LINE
  5
97
  8
0
 10
250.0
 20
214.49999999999929
 30
0.0
 11
146.5
 21
214.4999999999992
 31
0.0
  0
LINE
  5
98
  8
1
 10
180.0
 20
203.4999999999992
 30
0.0
 11
180.0
 21
219.49999999999929
 31
0.0
  0
LINE
  5
99
  8
2
 10
246.0
 20
210.49999999999929
 30
0.0
 11
141.99999999999929
 21
210.49999999999929
 31
0.0
  0
LINE
  5
9A
  8
0
 10
247.0
 20
160.0
 30
0.0
 11
247.0
 21
100.0
 31
0.0
  0
LINE
  5
9B
  8
0
 10
149.50000000000051
 20
160.0
 30
0.0
 11
149.5000000000004
 21
100.0
 31
0.0
  0
LINE
  5
9C
  8
0
 10
137.5
 20
160.0
 30
0.0
 11
250.0
 21
160.0
 31
0.0
  0
LINE
  5
9D
  8
0
 10
137.5
 20
100.0000000000001
 30
0.0
 11
250.0
 21
100.0
 31
0.0
  0
LINE
  5
9E
  8
0
 10
137.5
 20
151.5
 30
0.0
 11
137.5
 21
160.0
 31
0.0
  0
LINE
  5
9F
  8
0
 10
137.5
 20
100.0000000000001
 30
0.0
 11
137.5
 21
108.5000000000001
 31
0.0
  0
CIRCLE
  5
A0
  8
0
 10
180.0
 20
150.00000000000011
 30
0.0
 40
5.1500000000000004
  0
CIRCLE
  5
A1
  8
0
 10
180.0
 20
150.00000000000011
 30
0.0
 40
2.649999999999999
  0
CIRCLE
  5
A2
  8
0
 10
180.0
 20
110.0000000000001
 30
0.0
 40
2.649999999999999
  0
CIRCLE
  5
A3
  8
0
 10
180.0
 20
110.0000000000001
 30
0.0
 40
5.1500000000000004
  0
LINE
  5
A4
  8
0
 10
124.0
 20
153.0
 30
0.0
 11
124.0
 21
151.50000000000011
 31
0.0
  0
LINE
  5
A5
  8
0
 10
136.0
 20
153.0
 30
0.0
 11
136.0
 21
151.50000000000011
 31
0.0
  0
LINE
  5
A6
  8
0
 10
136.0
 20
107.0000000000001
 30
0.0
 11
136.0
 21
108.5
 31
0.0
  0
LINE
  5
A7
  8
0
 10
124.0
 20
107.0000000000001
 30
0.0
 11
124.0
 21
108.5
 31
0.0
  0
LINE
  5
A8
  8
2
 10
146.4999999999998
 20
160.0
 30
0.0
 11
146.4999999999998
 21
143.00000000000011
 31
0.0
  0
LINE
  5
A9
  8
2
 10
246.0
 20
117.0000000000001
 30
0.0
 11
246.0
 21
143.00000000000011
 31
0.0
  0
LINE
  5
AA
  8
2
 10
141.99999999999949
 20
143.0
 30
0.0
 11
246.0
 21
143.00000000000011
 31
0.0
  0
LINE
  5
AB
  8
2
 10
141.9999999999994
 20
117.0000000000001
 30
0.0
 11
246.0
 21
117.0000000000001
 31
0.0
  0
LINE
  5
AC
  8
2
 10
146.4999999999998
 20
117.0000000000001
 30
0.0
 11
146.49999999999969
 21
100.0000000000001
 31
0.0
  0
LINE
  5
AD
  8
2
 10
133.25
 20
160.00000000000011
 30
0.0
 11
133.25000000000011
 21
100.0000000000001
 31
0.0
  0
LINE
  5
AE
  8
2
 10
126.0
 20
151.50000000000011
 30
0.0
 11
126.0
 21
108.5000000000001
 31
0.0
  0
LINE
  5
AF
  8
2
 10
134.0
 20
151.50000000000011
 30
0.0
 11
134.0
 21
108.5000000000001
 31
0.0
  0
LINE
  5
B0
  8
2
 10
126.0
 20
147.0
 30
0.0
 11
134.0
 21
147.0
 31
0.0
  0
LINE
  5
B1
  8
2
 10
126.0
 20
113.0000000000001
 30
0.0
 11
134.0
 21
113.0000000000001
 31
0.0
  0
CIRCLE
  5
B2
  8
0
 10
130.0
 20
69.999999999999972
 30
0.0
 40
3.25
  0
ARC
  5
B3
  8
0
 10
130.0
 20
69.999999999999972
 30
0.0
 40
6.5
 50
272.18184465131839
 51
87.818155348681586
  0
LINE
  5
B4
  8
0
 10
117.0
 20
76.999999999999972
 30
0.0
 11
130.24746260574361
 21
76.495287696381041
 31
0.0
  0
LINE
  5
B5
  8
0
 10
130.24746260574361
 20
63.504712303619009
 30
0.0
 11
117.0
 21
62.999999999999972
 31
0.0
  0
LINE
  5
B6
  8
0
 10
117.0
 20
62.999999999999972
 30
0.0
 11
117.0000000000008
 21
76.999999999999972
 31
0.0
  0
LINE
  5
B7
  8
2
 10
123.0000000000008
 20
63.228592743519101
 30
0.0
 11
123.0000000000008
 21
76.771407256480842
 31
0.0
  0
ARC
  5
B8
  8
2
 10
130.0
 20
69.999999999999972
 30
0.0
 40
6.5
 50
87.818155348681415
 51
270.0
  0
LINE
  5
B9
  8
0
 10
130.0
 20
63.499999999999972
 30
0.0
 11
137.4999999999998
 21
63.500000000000028
 31
0.0
  0
LINE
  5
BA
  8
1
 10
141.5
 20
69.999999999999972
 30
0.0
 11
112.0000000000004
 21
70.000000000000085
 31
0.0
  0
LINE
  5
BB
  8
1
 10
130.0
 20
81.499999999999957
 30
0.0
 11
130.0
 21
58.499999999999972
 31
0.0
  0
LINE
  5
BC
  8
0
 10
304.49999999999937
 20
159.9999999999996
 30
0.0
 11
304.49999999999937
 21
100.0000000000007
 31
0.0
  0
LINE
  5
BD
  8
0
 10
287.94123943833932
 20
151.49999999999949
 30
0.0
 11
287.94123943833921
 21
159.99999999999969
 31
0.0
  0
LINE
  5
BE
  8
0
 10
287.94123943833932
 20
107.0000000000003
 30
0.0
 11
283.22859274351919
 21
107.0000000000003
 31
0.0
  0
LINE
  5
BF
  8
0
 10
283.5
 20
108.5000000000003
 30
0.0
 11
287.94123943833938
 21
108.5000000000003
 31
0.0
  0
LINE
  5
C0
  8
0
 10
287.94123943833938
 20
108.5000000000003
 30
0.0
 11
287.94123943833932
 21
100.0000000000003
 31
0.0
  0
LINE
  5
C1
  8
0
 10
301.50000000000011
 20
100.0000000000003
 30
0.0
 11
301.50000000000011
 21
159.9999999999996
 31
0.0
  0
LINE
  5
C2
  8
0
 10
284.00000000000011
 20
106.9999999999996
 30
0.0
 11
284.00000000000011
 21
108.4999999999995
 31
0.0
  0
LINE
  5
C3
  8
0
 10
284.00000000000011
 20
152.99999999999949
 30
0.0
 11
284.00000000000011
 21
151.49999999999969
 31
0.0
  0
LINE
  5
C4
  8
1
 10
293.5
 20
149.99999999999969
 30
0.0
 11
309.49999999999937
 21
149.99999999999969
 31
0.0
  0
LINE
  5
C5
  8
0
 10
65.500000000000682
 20
100.0000000000006
 30
0.0
 11
65.500000000000682
 21
159.99999999999949
 31
0.0
  0
LINE
  5
C6
  8
0
 10
69.500000000000682
 20
116.9999999999996
 30
0.0
 11
69.500000000000682
 21
142.9999999999996
 31
0.0
  0
LINE
  5
C7
  8
0
 10
65.500000000000682
 20
142.9999999999996
 30
0.0
 11
69.500000000000682
 21
142.9999999999996
 31
0.0
  0
LINE
  5
C8
  8
0
 10
65.500000000000711
 20
116.9999999999996
 30
0.0
 11
69.500000000000682
 21
116.9999999999996
 31
0.0
  0
CIRCLE
  5
C9
  8
0
 10
80.0
 20
147.0
 30
0.0
 40
2.649999999999999
  0
CIRCLE
  5
CA
  8
2
 10
80.0
 20
147.0
 30
0.0
 40
5.1500000000000004
  0
LINE
  5
CB
  8
1
 10
88.150000000000006
 20
147.0
 30
0.0
 11
71.849999999999994
 21
147.0
 31
0.0
  0
LINE
  5
CC
  8
1
 10
88.150000000000006
 20
113.0
 30
0.0
 11
71.849999999999994
 21
113.0
 31
0.0
  0
CIRCLE
  5
CD
  8
2
 10
80.0
 20
113.0
 30
0.0
 40
5.1500000000000004
  0
CIRCLE
  5
CE
  8
0
 10
80.0
 20
113.0
 30
0.0
 40
2.649999999999999
  0
LINE
  5
CF
  8
2
 10
120.5000000000008
 20
149.64999999999969
 30
0.0
 11
120.5000000000008
 21
144.35000000000031
 31
0.0
  0
LINE
  5
D0
  8
2
 10
116.9999999999999
 20
149.64999999999969
 30
0.0
 11
120.5000000000008
 21
149.64999999999969
 31
0.0
  0
LINE
  5
D1
  8
2
 10
123.0000000000007
 20
152.14999999999969
 30
0.0
 11
120.5000000000008
 21
149.64999999999969
 31
0.0
  0
LINE
  5
D2
  8
2
 10
123.0000000000007
 20
141.85000000000051
 30
0.0
 11
120.5000000000008
 21
144.35000000000031
 31
0.0
  0
LINE
  5
D3
  8
2
 10
116.9999999999999
 20
144.35000000000031
 30
0.0
 11
120.5000000000008
 21
144.35000000000031
 31
0.0
  0
LINE
  5
D4
  8
2
 10
116.9999999999999
 20
115.64999999999959
 30
0.0
 11
120.5000000000008
 21
115.64999999999959
 31
0.0
  0
LINE
  5
D5
  8
2
 10
123.0000000000007
 20
118.14999999999959
 30
0.0
 11
120.5000000000008
 21
115.64999999999959
 31
0.0
  0
LINE
  5
D6
  8
2
 10
123.0000000000007
 20
107.85000000000031
 30
0.0
 11
120.5000000000008
 21
110.35000000000031
 31
0.0
  0
LINE
  5
D7
  8
2
 10
116.9999999999999
 20
110.35000000000031
 30
0.0
 11
120.5000000000008
 21
110.35000000000031
 31
0.0
  0
LINE
  5
D8
  8
2
 10
120.5000000000008
 20
110.35000000000031
 30
0.0
 11
120.5000000000008
 21
115.64999999999959
 31
0.0
  0
LINE
  5
D9
  8
1
 10
112.0
 20
113.0
 30
0.0
 11
128.0000000000008
 21
113.0
 31
0.0
  0
LINE
  5
DA
  8
1
 10
188.14999999999989
 20
150.00000000000011
 30
0.0
 11
171.84999999999999
 21
150.00000000000011
 31
0.0
  0
LINE
  5
DB
  8
1
 10
180.0
 20
158.15000000000009
 30
0.0
 11
180.0
 21
141.85000000000011
 31
0.0
  0
LINE
  5
DC
  8
1
 10
188.14999999999989
 20
110.0000000000001
 30
0.0
 11
171.84999999999999
 21
110.0000000000001
 31
0.0
  0
LINE
  5
DD
  8
1
 10
180.0
 20
118.15000000000011
 30
0.0
 11
180.0
 21
101.85000000000009
 31
0.0
  0
LINE
  5
DE
  8
2
 10
300.99999999999858
 20
147.34999999999999
 30
0.0
 11
300.99999999999858
 21
152.64999999999941
 31
0.0
  0
LINE
  5
DF
  8
2
 10
304.49999999999937
 20
147.34999999999999
 30
0.0
 11
300.99999999999858
 21
147.34999999999999
 31
0.0
  0
LINE
  5
E0
  8
2
 10
298.49999999999858
 20
144.84999999999999
 30
0.0
 11
300.99999999999858
 21
147.34999999999999
 31
0.0
  0
LINE
  5
E1
  8
2
 10
298.49999999999858
 20
155.1499999999993
 30
0.0
 11
300.99999999999858
 21
152.64999999999941
 31
0.0
  0
LINE
  5
E2
  8
2
 10
304.49999999999937
 20
152.64999999999941
 30
0.0
 11
300.99999999999858
 21
152.64999999999941
 31
0.0
  0
LINE
  5
E3
  8
2
 10
304.49999999999937
 20
107.3499999999998
 30
0.0
 11
300.99999999999858
 21
107.3499999999998
 31
0.0
  0
LINE
  5
E4
  8
2
 10
298.49999999999858
 20
104.8499999999998
 30
0.0
 11
300.99999999999858
 21
107.3499999999998
 31
0.0
  0
LINE
  5
E5
  8
2
 10
298.49999999999858
 20
115.1499999999991
 30
0.0
 11
300.99999999999858
 21
112.6499999999991
 31
0.0
  0
LINE
  5
E6
  8
2
 10
304.49999999999937
 20
112.6499999999991
 30
0.0
 11
300.99999999999858
 21
112.6499999999991
 31
0.0
  0
LINE
  5
E7
  8
2
 10
300.99999999999858
 20
112.6499999999992
 30
0.0
 11
300.99999999999858
 21
107.3499999999998
 31
0.0
  0
LINE
  5
E8
  8
1
 10
293.5
 20
109.9999999999995
 30
0.0
 11
309.49999999999937
 21
109.9999999999995
 31
0.0
  0
LINE
  5
E9
  8
2
 10
120.50000000000119
 20
72.649999999999721
 30
0.0
 11
120.50000000000119
 21
67.350000000000335
 31
0.0
  0
LINE
  5
EA
  8
2
 10
117.0000000000004
 20
72.649999999999721
 30
0.0
 11
120.50000000000119
 21
72.649999999999721
 31
0.0
  0
LINE
  5
EB
  8
2
 10
123.00000000000119
 20
75.149999999999721
 30
0.0
 11
120.50000000000119
 21
72.649999999999721
 31
0.0
  0
LINE
  5
EC
  8
2
 10
123.00000000000119
 20
64.850000000000449
 30
0.0
 11
120.50000000000119
 21
67.350000000000335
 31
0.0
  0
LINE
  5
ED
  8
2
 10
117.0000000000004
 20
67.350000000000335
 30
0.0
 11
120.50000000000119
 21
67.350000000000335
 31
0.0
  0
LINE
  5
EE
  8
2
 10
127.35000000000031
 20
209.49999999999889
 30
0.0
 11
132.64999999999961
 21
209.49999999999889
 31
0.0
  0
LINE
  5
EF
  8
2
 10
127.35000000000031
 20
212.99999999999969
 30
0.0
 11
127.35000000000031
 21
209.49999999999889
 31
0.0
  0
LINE
  5
F0
  8
2
 10
124.85000000000031
 20
206.99999999999889
 30
0.0
 11
127.35000000000031
 21
209.49999999999889
 31
0.0
  0
LINE
  5
F1
  8
2
 10
135.14999999999961
 20
206.99999999999889
 30
0.0
 11
132.64999999999961
 21
209.49999999999889
 31
0.0
  0
LINE
  5
F2
  8
2
 10
132.64999999999961
 20
212.99999999999969
 30
0.0
 11
132.64999999999961
 21
209.49999999999889
 31
0.0
  0
LINE
  5
F3
  8
2
 10
177.35000000000031
 20
210.99999999999849
 30
0.0
 11
182.64999999999961
 21
210.99999999999849
 31
0.0
  0
LINE
  5
F4
  8
2
 10
177.35000000000031
 20
214.49999999999929
 30
0.0
 11
177.35000000000031
 21
210.99999999999849
 31
0.0
  0
LINE
  5
F5
  8
2
 10
174.85000000000031
 20
208.49999999999849
 30
0.0
 11
177.35000000000031
 21
210.99999999999849
 31
0.0
  0
LINE
  5
F6
  8
2
 10
185.14999999999961
 20
208.49999999999849
 30
0.0
 11
182.64999999999961
 21
210.99999999999849
 31
0.0
  0
LINE
  5
F7
  8
2
 10
182.64999999999961
 20
214.49999999999929
 30
0.0
 11
182.64999999999961
 21
210.99999999999849
 31
0.0
  0
TEXT
  5
251
  8
0
 62
     3
 10
0.0
 20
0.0
 30
0.0
 40
10.0
  1
MCH60133B
  7
STANDARD1
  0
ENDSEC
  0
EOF
