  0
SECTION
  2
HEADER
  9
$ACADVER
  1
AC1009
  9
$INSBASE
 10
76.948146931718725
 20
397.326902497768
 30
0.0
  9
$EXTMIN
 10
0.0
 20
-2.960436562073669
 30
0.0
  9
$EXTMAX
 10
105.8486556035851
 20
117.6880236545862
 30
0.0
  9
$LIMMIN
 10
0.0
 20
0.0
  9
$LIMMAX
 10
12.0
 20
9.0
  9
$ORTHOMODE
 70
     1
  9
$REGENMODE
 70
     1
  9
$FILLMODE
 70
     1
  9
$QTEXTMODE
 70
     0
  9
$MIRRTEXT
 70
     0
  9
$DRAGMODE
 70
     2
  9
$LTSCALE
 40
0.5
  9
$OSMODE
 70
    37
  9
$ATTMODE
 70
     1
  9
$TEXTSIZE
 40
0.2
  9
$TRACEWID
 40
0.05
  9
$TEXTSTYLE
  7
STANDARD
  9
$CLAYER
  8
0
  9
$CELTYPE
  6
BYLAYER
  9
$CECOLOR
 62
   256
  9
$DIMSCALE
 40
1.0
  9
$DIMASZ
 40
1.0
  9
$DIMEXO
 40
2.54
  9
$DIMDLI
 40
0.38
  9
$DIMRND
 40
0.0
  9
$DIMDLE
 40
0.0
  9
$DIMEXE
 40
2.54
  9
$DIMTP
 40
0.0
  9
$DIMTM
 40
0.0
  9
$DIMTXT
 40
3.2000000000000002
  9
$DIMCEN
 40
0.09
  9
$DIMTSZ
 40
0.0
  9
$DIMTOL
 70
     0
  9
$DIMLIM
 70
     0
  9
$DIMTIH
 70
     0
  9
$DIMTOH
 70
     0
  9
$DIMSE1
 70
     0
  9
$DIMSE2
 70
     0
  9
$DIMTAD
 70
     1
  9
$DIMZIN
 70
     0
  9
$DIMBLK
  1

  9
$DIMASO
 70
     1
  9
$DIMSHO
 70
     0
  9
$DIMPOST
  1

  9
$DIMAPOST
  1

  9
$DIMALT
 70
     0
  9
$DIMALTD
 70
     2
  9
$DIMALTF
 40
25.399999999999999
  9
$DIMLFAC
 40
1.0
  9
$DIMTOFL
 70
     0
  9
$DIMTVP
 40
1.0
  9
$DIMTIX
 70
     0
  9
$DIMSOXD
 70
     0
  9
$DIMSAH
 70
     1
  9
$DIMBLK1
  1

  9
$DIMBLK2
  1

  9
$DIMSTYLE
  2
STANDARD
  9
$DIMCLRD
 70
     0
  9
$DIMCLRE
 70
     0
  9
$DIMCLRT
 70
     0
  9
$DIMTFAC
 40
1.0
  9
$DIMGAP
 40
1.6000000000000001
  9
$LUNITS
 70
     2
  9
$LUPREC
 70
     4
  9
$SKETCHINC
 40
0.1
  9
$FILLETRAD
 40
3.0
  9
$AUNITS
 70
     0
  9
$AUPREC
 70
     0
  9
$MENU
  1
.
  9
$ELEVATION
 40
0.0
  9
$PELEVATION
 40
0.0
  9
$THICKNESS
 40
0.0
  9
$LIMCHECK
 70
     0
  9
$BLIPMODE
 70
     0
  9
$CHAMFERA
 40
3.0
  9
$CHAMFERB
 40
4.0
  9
$SKPOLY
 70
     0
  9
$TDCREATE
 40
2453173.4709223039
  9
$TDUPDATE
 40
2456598.7238261462
  9
$TDINDWG
 40
2.4510083217999998
  9
$TDUSRTIMER
 40
2456598.087189896
  9
$USRTIMER
 70
     1
  9
$ANGBASE
 50
0.0
  9
$ANGDIR
 70
     0
  9
$PDMODE
 70
     0
  9
$PDSIZE
 40
0.0
  9
$PLINEWID
 40
0.0
  9
$COORDS
 70
     1
  9
$SPLFRAME
 70
     0
  9
$SPLINETYPE
 70
     6
  9
$SPLINESEGS
 70
     8
  9
$ATTDIA
 70
     0
  9
$ATTREQ
 70
     1
  9
$HANDLING
 70
     1
  9
$HANDSEED
  5
1501
  9
$SURFTAB1
 70
     6
  9
$SURFTAB2
 70
     6
  9
$SURFTYPE
 70
     6
  9
$SURFU
 70
     6
  9
$SURFV
 70
     6
  9
$UCSNAME
  2

  9
$UCSORG
 10
0.0
 20
0.0
 30
0.0
  9
$UCSXDIR
 10
1.0
 20
0.0
 30
0.0
  9
$UCSYDIR
 10
0.0
 20
1.0
 30
0.0
  9
$PUCSNAME
  2

  9
$PUCSORG
 10
0.0
 20
0.0
 30
0.0
  9
$PUCSXDIR
 10
1.0
 20
0.0
 30
0.0
  9
$PUCSYDIR
 10
0.0
 20
1.0
 30
0.0
  9
$USERI1
 70
     0
  9
$USERI2
 70
     0
  9
$USERI3
 70
     0
  9
$USERI4
 70
     0
  9
$USERI5
 70
     0
  9
$USERR1
 40
0.0
  9
$USERR2
 40
0.0
  9
$USERR3
 40
0.0
  9
$USERR4
 40
0.0
  9
$USERR5
 40
0.0
  9
$WORLDVIEW
 70
     1
  9
$SHADEDGE
 70
     3
  9
$SHADEDIF
 70
    70
  9
$TILEMODE
 70
     1
  9
$MAXACTVP
 70
    64
  9
$PLIMCHECK
 70
     0
  9
$PEXTMIN
 10
1.0000000000000000E+020
 20
1.0000000000000000E+020
 30
1.0000000000000000E+020
  9
$PEXTMAX
 10
-1.0000000000000000E+020
 20
-1.0000000000000000E+020
 30
-1.0000000000000000E+020
  9
$PLIMMIN
 10
0.0
 20
0.0
  9
$PLIMMAX
 10
12.0
 20
9.0
  9
$UNITMODE
 70
     0
  9
$VISRETAIN
 70
     1
  9
$PLINEGEN
 70
     0
  9
$PSLTSCALE
 70
     1
  0
ENDSEC
  0
SECTION
  2
TABLES
  0
TABLE
  2
VPORT
 70
     1
  0
VPORT
  2
*ACTIVE
 70
     0
 10
0.0
 20
0.0
 11
1.0
 21
1.0
 12
52.924328048240682
 22
63.5919781156284
 13
0.0
 23
0.0
 14
1.0
 24
1.0
 15
0.0
 25
0.0
 16
0.0
 26
0.0
 36
1.0
 17
0.0
 27
0.0
 37
0.0
 40
134.26453301444181
 41
1.755244755244755
 42
50.0
 43
0.0
 44
0.0
 50
0.0
 51
0.0
 71
     0
 72
   100
 73
     1
 74
     1
 75
     0
 76
     0
 77
     0
 78
     0
  0
ENDTAB
  0
TABLE
  2
LTYPE
 70
     4
  0
LTYPE
  2
CONTINUOUS
 70
     0
  3
Solid line
 72
    65
 73
     0
 40
0.0
  0
LTYPE
  2
CENTER
 70
     0
  3
Center ____ _ ____ _ ____ _ ____ _ ____ _ ____
 72
    65
 73
     4
 40
12.0
 49
7.5
 49
-1.5
 49
1.5
 49
-1.5
  0
LTYPE
  2
HIDDEN
 70
     0
  3
Hidden __ __ __ __ __ __ __ __ __ __ __ __ __ _
 72
    65
 73
     2
 40
4.5
 49
3.0
 49
-1.5
  0
LTYPE
  2
PHANTOM2
 70
     0
  3
___ _ _ ___ _ _ ___ _ _ ___ _ _
 72
    65
 73
     6
 40
1.25
 49
0.625
 49
-0.125
 49
0.125
 49
-0.125
 49
0.125
 49
-0.125
  0
ENDTAB
  0
TABLE
  2
LAYER
 70
     4
  0
LAYER
  2
0
 70
     0
 62
     7
  6
CONTINUOUS
  0
LAYER
  2
1
 70
     0
 62
     1
  6
CENTER
  0
LAYER
  2
2
 70
     0
 62
     2
  6
HIDDEN
  0
LAYER
  2
3
 70
     0
 62
     3
  6
CONTINUOUS
  0
ENDTAB
  0
TABLE
  2
STYLE
 70
     2
  0
STYLE
  2
STANDARD
 70
     0
 40
0.0
 41
1.0
 50
0.0
 71
     0
 42
0.2
  3
simplex.shx
  4
bigfont.shx
  0
STYLE
  2
STANDARD1
 70
     0
 40
0.0
 41
1.0
 50
0.0
 71
     0
 42
3.0
  3
txt
  4

  0
ENDTAB
  0
TABLE
  2
VIEW
 70
     0
  0
ENDTAB
  0
TABLE
  2
UCS
 70
     0
  0
ENDTAB
  0
TABLE
  2
APPID
 70
     3
  0
APPID
  2
ACAD
 70
     0
  0
APPID
  2
ACAD_MLEADERVER
 70
     0
  0
APPID
  2
ACAD_NAV_VCDISPLAY
 70
     0
  0
ENDTAB
  0
TABLE
  2
DIMSTYLE
 70
     1
  0
DIMSTYLE
  2
STANDARD
 70
     0
  3

  4

  5

  6

  7

 40
1.0
 41
0.18
 42
0.0625
 43
0.38
 44
0.18
 45
0.0
 46
0.0
 47
0.0
 48
0.0
140
0.18
141
0.09
142
0.0
143
25.399999999999999
144
1.0
145
0.0
146
1.0
147
0.09
 71
     0
 72
     0
 73
     1
 74
     1
 75
     0
 76
     0
 77
     0
 78
     0
170
     0
171
     2
172
     0
173
     0
174
     0
175
     0
176
     0
177
     0
178
     0
  0
ENDTAB
  0
ENDSEC
  0
SECTION
  2
BLOCKS
  0
BLOCK
  8
0
  2
$MODEL_SPACE
 70
     0
 10
0.0
 20
0.0
 30
0.0
  3
$MODEL_SPACE
  1

  0
ENDBLK
  5
9
  8
0
  0
BLOCK
 67
     1
  8
0
  2
$PAPER_SPACE
 70
     0
 10
0.0
 20
0.0
 30
0.0
  3
$PAPER_SPACE
  1

  0
ENDBLK
  5
E
 67
     1
  8
0
  0
ENDSEC
  0
SECTION
  2
ENTITIES
  0
LINE
  5
DEB
  8
0
 10
76.898455801760207
 20
92.37197832347087
 30
0.0
 11
76.898455801760178
 21
87.28802365459255
 31
0.0
  0
LINE
  5
DEC
  8
0
 10
77.685855801760283
 20
95.692768668545099
 30
0.0
 11
77.685855801760283
 21
94.141157154930838
 31
0.0
  0
LINE
  5
DED
  8
0
 10
76.898455801760178
 20
102.5280236545925
 30
0.0
 11
76.898455801760178
 21
97.451978323470897
 31
0.0
  0
LINE
  5
DEE
  8
0
 10
77.685855801760283
 20
105.8488139996668
 30
0.0
 11
77.685855801760283
 21
104.2972024860526
 31
0.0
  0
LINE
  5
DEF
  8
0
 10
76.898455801760178
 20
112.6880236545925
 30
0.0
 11
76.898455801760178
 21
107.6080236545926
 31
0.0
  0
LINE
  5
DF0
  8
0
 10
76.771455603641442
 20
107.6080236545926
 30
0.0
 11
76.898455801760178
 21
107.6080236545926
 31
0.0
  0
LINE
  5
DF1
  8
0
 10
76.771455603633768
 20
97.451978323464985
 30
0.0
 11
76.898455801760178
 21
97.451978323470897
 31
0.0
  0
LINE
  5
DF2
  8
0
 10
76.771455603640305
 20
102.5280236545925
 30
0.0
 11
76.898455801760178
 21
102.5280236545925
 31
0.0
  0
LINE
  5
DF3
  8
0
 10
76.771455603640305
 20
92.371978323470856
 30
0.0
 11
76.898455801760178
 21
92.371978323470856
 31
0.0
  0
LINE
  5
DF4
  8
0
 10
76.771455603640305
 20
87.28802365459255
 30
0.0
 11
76.771455603640334
 21
92.37197832347087
 31
0.0
  0
LINE
  5
DF5
  8
0
 10
76.771455603640305
 20
107.6080236545926
 30
0.0
 11
76.771455603640305
 21
112.6880236545925
 31
0.0
  0
LINE
  5
DF6
  8
0
 10
76.517455603640258
 20
87.28802365459255
 30
0.0
 11
76.517455603640258
 21
112.6880236545925
 31
0.0
  0
LINE
  5
DF7
  8
0
 10
89.217455603640346
 20
87.542023654592597
 30
0.0
 11
89.217455603640346
 21
112.43402365459249
 31
0.0
  0
LINE
  5
DF8
  8
0
 10
89.217455603640346
 20
87.542023654592597
 30
0.0
 11
88.963455603640298
 21
87.28802365459255
 31
0.0
  0
LINE
  5
DF9
  8
0
 10
88.963455603640298
 20
112.6880236545925
 30
0.0
 11
89.217455603640346
 21
112.43402365459249
 31
0.0
  0
LINE
  5
DFA
  8
0
 10
83.248455550300278
 20
87.28802365459255
 30
0.0
 11
83.248455550300278
 21
112.6880236545925
 31
0.0
  0
LINE
  5
DFB
  8
0
 10
88.963455603640298
 20
112.6880236545925
 30
0.0
 11
76.517455603640258
 21
112.6880236545925
 31
0.0
  0
LINE
  5
DFC
  8
0
 10
76.517455603640258
 20
87.28802365459255
 30
0.0
 11
88.963455603640298
 21
87.28802365459255
 31
0.0
  0
LINE
  5
DFD
  8
0
 10
80.791876168517447
 20
87.28802365459255
 30
0.0
 11
80.791876168517447
 21
112.6880236545925
 31
0.0
  0
LINE
  5
DFE
  8
0
 10
76.771455603640305
 20
97.451978323470897
 30
0.0
 11
76.771455603640305
 21
102.5280236545925
 31
0.0
  0
LINE
  5
DFF
  8
0
 10
79.355035186280304
 20
112.6880236545925
 30
0.0
 11
79.355035186280162
 21
87.28802365459255
 31
0.0
  0
LINE
  5
E00
  8
2
 10
77.3486556035852
 20
106.4900011233739
 30
0.0
 11
84.848655603585186
 21
106.4900011233739
 31
0.0
  0
LINE
  5
E01
  8
2
 10
84.848655603585186
 20
93.490001123373943
 30
0.0
 11
77.3486556035852
 21
93.490001123373943
 31
0.0
  0
LINE
  5
E02
  8
2
 10
76.848655603585371
 20
94.356026527158377
 30
0.0
 11
76.848655603585229
 21
105.6239757195895
 31
0.0
  0
LINE
  5
E03
  8
2
 10
77.3486556035852
 20
93.490001123373943
 30
0.0
 11
77.3486556035852
 21
106.4900011233739
 31
0.0
  0
LINE
  5
E04
  8
2
 10
77.3486556035852
 20
106.4900011233739
 30
0.0
 11
76.848655603585229
 21
105.6239757195895
 31
0.0
  0
LINE
  5
E05
  8
2
 10
77.3486556035852
 20
93.490001123373943
 30
0.0
 11
76.848655603585371
 21
94.356026527158377
 31
0.0
  0
LINE
  5
E06
  8
0
 10
100.8486556035851
 20
102.7900011233738
 30
0.0
 11
100.8486556035851
 21
97.190001123373847
 31
0.0
  0
LINE
  5
E07
  8
0
 10
89.217455603640346
 20
95.990001123373943
 30
0.0
 11
99.648655603585397
 21
95.990001123373943
 31
0.0
  0
LINE
  5
E08
  8
3
 10
89.217455603640346
 20
96.666501123373806
 30
0.0
 11
100.3251556035852
 21
96.666501123373806
 31
0.0
  0
LINE
  5
E09
  8
3
 10
89.217455603640346
 20
103.313501123374
 30
0.0
 11
100.3251556035852
 21
103.313501123374
 31
0.0
  0
LINE
  5
E0A
  8
0
 10
89.217455603640346
 20
103.9900011233739
 30
0.0
 11
99.648655603585397
 21
103.9900011233739
 31
0.0
  0
LINE
  5
E0B
  8
0
 10
99.648655603585397
 20
103.9900011233739
 30
0.0
 11
100.8486556035851
 21
102.7900011233738
 31
0.0
  0
LINE
  5
E0C
  8
0
 10
100.8486556035851
 20
97.190001123373847
 30
0.0
 11
99.648655603585397
 21
95.990001123373943
 31
0.0
  0
LINE
  5
E0D
  8
0
 10
99.648655603585397
 20
103.9900011233739
 30
0.0
 11
99.648655603585397
 21
95.990001123373872
 31
0.0
  0
LINE
  5
E0E
  8
2
 10
86.020387974905276
 20
103.9900011233739
 30
0.0
 11
86.020387974905276
 21
95.990001123373872
 31
0.0
  0
LINE
  5
E0F
  8
2
 10
86.020387974905276
 20
103.313501123374
 30
0.0
 11
84.848655603585186
 21
103.9900011233739
 31
0.0
  0
LINE
  5
E10
  8
2
 10
86.020387974905276
 20
96.666501123373877
 30
0.0
 11
84.848655603585186
 21
95.990001123373943
 31
0.0
  0
LINE
  5
E11
  8
2
 10
84.848655603585186
 20
106.7337011233739
 30
0.0
 11
84.848655603585186
 21
93.246301123373968
 31
0.0
  0
LINE
  5
E12
  8
2
 10
76.517455603585262
 20
93.246301123373968
 30
0.0
 11
84.848655603585186
 21
93.246301123373968
 31
0.0
  0
LINE
  5
E13
  8
2
 10
84.848655603585186
 20
106.7337011233739
 30
0.0
 11
76.517455603585262
 21
106.7337011233739
 31
0.0
  0
ARC
  5
E14
  8
0
 10
78.361222480057563
 20
105.84272556301779
 30
0.0
 40
2.375633825628618
 50
132.00511413518259
 51
140.90630194905981
  0
ARC
  5
E15
  8
0
 10
75.304613080900594
 20
105.838819833614
 30
0.0
 40
2.3812636937143759
 50
0.2404711485347618
 51
47.984900585431888
  0
ARC
  5
E16
  8
0
 10
75.304616249544893
 20
104.2971978367608
 30
0.0
 40
2.3812395522198648
 50
312.01552009883699
 51
0.0001118681230605
  0
ARC
  5
E17
  8
0
 10
78.36122247986728
 20
104.2933217459895
 30
0.0
 40
2.3756338253692788
 50
219.09369804293459
 51
227.99488586493351
  0
ARC
  5
E18
  8
0
 10
78.361222480043352
 20
95.686680231884381
 30
0.0
 40
2.375633825628618
 50
132.00511413518259
 51
140.90630194905981
  0
ARC
  5
E19
  8
0
 10
75.304613080886526
 20
95.682774502480683
 30
0.0
 40
2.3812636937143759
 50
0.2404711485347618
 51
47.984900585431888
  0
ARC
  5
E1A
  8
0
 10
75.304616249544893
 20
94.141152505627318
 30
0.0
 40
2.3812395522198648
 50
312.01552009883699
 51
0.0001118681230605
  0
ARC
  5
E1B
  8
0
 10
78.36122247986728
 20
94.137276414856146
 30
0.0
 40
2.3756338253692788
 50
219.09369804293459
 51
227.99488586493351
  0
LINE
  5
E1C
  8
2
 10
89.217455603640346
 20
103.9900011233739
 30
0.0
 11
84.848655603585186
 21
103.9900011233739
 31
0.0
  0
LINE
  5
E1D
  8
2
 10
89.217455603640346
 20
103.313501123374
 30
0.0
 11
86.020387974905276
 21
103.313501123374
 31
0.0
  0
LINE
  5
E1E
  8
2
 10
89.217455603640346
 20
96.666501123373806
 30
0.0
 11
86.020387974905276
 21
96.666501123373806
 31
0.0
  0
LINE
  5
E1F
  8
2
 10
89.217455603640346
 20
95.990001123373943
 30
0.0
 11
84.848655603585186
 21
95.990001123373943
 31
0.0
  0
LINE
  5
F83
  8
0
 10
24.07145560377813
 20
97.180777557211542
 30
0.0
 11
24.071455603738769
 21
102.7992246895364
 31
0.0
  0
LINE
  5
F85
  8
0
 10
24.60485560364026
 20
105.83884482312619
 30
0.0
 11
24.60485560364026
 21
104.2972027547867
 31
0.0
  0
LINE
  5
F87
  8
0
 10
24.07145560379303
 20
107.3407775572426
 30
0.0
 11
24.071455603640231
 21
112.6880236545862
 31
0.0
  0
LINE
  5
F88
  8
0
 10
49.217455603640239
 20
112.6880236545862
 30
0.0
 11
23.817455603640269
 21
112.6880236545862
 31
0.0
  0
LINE
  5
F89
  8
0
 10
48.963455603640291
 20
112.6880236545862
 30
0.0
 11
48.963455603378982
 21
107.3407772887104
 31
0.0
  0
LINE
  5
F8D
  8
0
 10
48.963455603406203
 20
102.79526948302269
 30
0.0
 11
48.96345560340631
 21
97.180777557446973
 31
0.0
  0
LINE
  5
F91
  8
0
 10
48.963455603378243
 20
92.635269751760106
 30
0.0
 11
48.963455603640291
 21
87.288023654586254
 31
0.0
  0
LINE
  5
F92
  8
0
 10
24.071455603797059
 20
92.643179358493825
 30
0.0
 11
24.071455603640231
 21
87.288023654586254
 31
0.0
  0
LINE
  5
F94
  8
0
 10
23.817455603640269
 20
87.288023654586254
 30
0.0
 11
49.217455603640239
 21
87.288023654586254
 31
0.0
  0
LINE
  5
F96
  8
0
 10
49.217455603640239
 20
112.6880236545862
 30
0.0
 11
49.217455603640239
 21
87.288023654586254
 31
0.0
  0
LINE
  5
F9E
  8
0
 10
23.817455603640269
 20
112.6880236545862
 30
0.0
 11
23.817455603640269
 21
87.288023654586254
 31
0.0
  0
POLYLINE
  5
10D7
  8
0
 66
     1
 10
0.0
 20
0.0
 30
0.0
 70
     2
  0
VERTEX
  5
10D8
  8
0
 10
23.817455603640639
 20
107.6080236545862
 30
0.0
 42
-0.0144182225388113
  0
VERTEX
  5
10E1
  8
0
 10
23.942941234749188
 20
107.4883119623552
 30
0.0
 42
-0.0250026594761496
 70
     1
  0
VERTEX
  5
10D9
  8
0
 10
24.009671574159679
 20
107.4137629457734
 30
0.0
 42
-0.0036377550868265
  0
VERTEX
  5
10E2
  8
0
 10
24.136024727596979
 20
107.25520527022709
 30
0.0
 42
-0.0110442383969705
 70
     1
  0
VERTEX
  5
10DA
  8
0
 10
24.176096101785252
 20
107.2017743277144
 30
0.0
 42
-0.0260486117946896
  0
VERTEX
  5
10E3
  8
0
 10
24.289106666525591
 20
107.0251925749905
 30
0.0
 42
-0.0238412676482667
 70
     1
  0
VERTEX
  5
10DB
  8
0
 10
24.392740379583959
 20
106.8209465082731
 30
0.0
 42
-0.0177412200672931
  0
VERTEX
  5
10E4
  8
0
 10
24.467048455720089
 20
106.6383027067122
 30
0.0
 42
-0.0222690652062092
 70
     1
  0
VERTEX
  5
10DC
  8
0
 10
24.51443749103948
 20
106.4885017517489
 30
0.0
 42
-0.0118971104190789
  0
VERTEX
  5
10E5
  8
0
 10
24.55674328939773
 20
106.3141621763088
 30
0.0
 42
-0.018775146653054
 70
     1
  0
VERTEX
  5
10DD
  8
0
 10
24.576732675084401
 20
106.20223052136841
 30
0.0
 42
-0.0080235912866647
  0
VERTEX
  5
10E7
  8
0
 10
24.583726853549312
 20
106.1457146278649
 30
0.0
 42
-0.0027549627087997
 70
     1
  0
VERTEX
  5
10DE
  8
0
 10
24.600543191561691
 20
105.98072549814729
 30
0.0
 42
-0.0164209648597542
  0
VERTEX
  5
10E6
  8
0
 10
24.603346282692652
 20
105.9364489020258
 30
0.0
 42
-0.0074615436129526
 70
     1
  0
VERTEX
  5
10DF
  8
0
 10
24.60485560364026
 20
105.83884482312619
 30
0.0
  0
SEQEND
  5
10E0
  8
0
  0
POLYLINE
  5
10E8
  8
0
 66
     1
 10
0.0
 20
0.0
 30
0.0
 70
     2
  0
VERTEX
  5
10E9
  8
0
 10
23.817455603640639
 20
102.5280239233267
 30
0.0
 42
0.0144182225388113
  0
VERTEX
  5
10EA
  8
0
 10
23.942941234749188
 20
102.64773561555771
 30
0.0
 42
0.0250026594761496
 70
     1
  0
VERTEX
  5
10EB
  8
0
 10
24.009671574159679
 20
102.72228463213951
 30
0.0
 42
0.0036377550868265
  0
VERTEX
  5
10EC
  8
0
 10
24.136024727596979
 20
102.8808423076858
 30
0.0
 42
0.0110442383969705
 70
     1
  0
VERTEX
  5
10ED
  8
0
 10
24.176096101785252
 20
102.9342732501985
 30
0.0
 42
0.0260486117946896
  0
VERTEX
  5
10EE
  8
0
 10
24.289106666525591
 20
103.11085500292241
 30
0.0
 42
0.0238412676482667
 70
     1
  0
VERTEX
  5
10EF
  8
0
 10
24.392740379583959
 20
103.31510106963979
 30
0.0
 42
0.0177412200672931
  0
VERTEX
  5
10F0
  8
0
 10
24.467048455720089
 20
103.49774487120069
 30
0.0
 42
0.0222690652062092
 70
     1
  0
VERTEX
  5
10F1
  8
0
 10
24.51443749103948
 20
103.64754582616401
 30
0.0
 42
0.0118971104190789
  0
VERTEX
  5
10F2
  8
0
 10
24.55674328939773
 20
103.82188540160411
 30
0.0
 42
0.018775146653054
 70
     1
  0
VERTEX
  5
10F3
  8
0
 10
24.576732675084401
 20
103.9338170565446
 30
0.0
 42
0.0080235912866647
  0
VERTEX
  5
10F4
  8
0
 10
24.583726853549312
 20
103.9903329500481
 30
0.0
 42
0.0027549627087997
 70
     1
  0
VERTEX
  5
10F5
  8
0
 10
24.600543191561691
 20
104.1553220797656
 30
0.0
 42
0.0164209648597542
  0
VERTEX
  5
10F6
  8
0
 10
24.603346282692652
 20
104.1995986758871
 30
0.0
 42
0.0074615436129526
 70
     1
  0
VERTEX
  5
10F7
  8
0
 10
24.60485560364026
 20
104.2972027547867
 30
0.0
  0
SEQEND
  5
10F8
  8
0
  0
POLYLINE
  5
10F9
  8
0
 66
     1
 10
0.0
 20
0.0
 30
0.0
 70
     2
  0
VERTEX
  5
10FA
  8
0
 10
23.817455603640639
 20
97.451978323470584
 30
0.0
 42
-0.0144182225388113
  0
VERTEX
  5
10FB
  8
0
 10
23.942941234749188
 20
97.332266631239591
 30
0.0
 42
-0.0250026594761496
 70
     1
  0
VERTEX
  5
10FC
  8
0
 10
24.009671574159679
 20
97.257717614657793
 30
0.0
 42
-0.0036377550868265
  0
VERTEX
  5
10FD
  8
0
 10
24.136024727596979
 20
97.099159939111487
 30
0.0
 42
-0.0110442383969705
 70
     1
  0
VERTEX
  5
10FE
  8
0
 10
24.176096101785252
 20
97.045728996598754
 30
0.0
 42
-0.0260486117946896
  0
VERTEX
  5
10FF
  8
0
 10
24.289106666525591
 20
96.869147243874878
 30
0.0
 42
-0.0238412676482667
 70
     1
  0
VERTEX
  5
1100
  8
0
 10
24.392740379583959
 20
96.664901177157489
 30
0.0
 42
-0.0177412200672931
  0
VERTEX
  5
1101
  8
0
 10
24.467048455720089
 20
96.482257375596561
 30
0.0
 42
-0.0222690652062092
 70
     1
  0
VERTEX
  5
1102
  8
0
 10
24.51443749103948
 20
96.33245642063325
 30
0.0
 42
-0.0118971104190789
  0
VERTEX
  5
1103
  8
0
 10
24.55674328939773
 20
96.158116845193163
 30
0.0
 42
-0.018775146653054
 70
     1
  0
VERTEX
  5
1104
  8
0
 10
24.576732675084401
 20
96.046185190252714
 30
0.0
 42
-0.0080235912866647
  0
VERTEX
  5
1105
  8
0
 10
24.583726853549312
 20
95.989669296749199
 30
0.0
 42
-0.0027549627087997
 70
     1
  0
VERTEX
  5
1106
  8
0
 10
24.600543191561691
 20
95.824680167031644
 30
0.0
 42
-0.0164209648597542
  0
VERTEX
  5
1107
  8
0
 10
24.603346282692652
 20
95.780403570910167
 30
0.0
 42
-0.0074615436129526
 70
     1
  0
VERTEX
  5
1108
  8
0
 10
24.60485560364026
 20
95.682799492010574
 30
0.0
  0
SEQEND
  5
1109
  8
0
  0
POLYLINE
  5
110A
  8
0
 66
     1
 10
0.0
 20
0.0
 30
0.0
 70
     2
  0
VERTEX
  5
110B
  8
0
 10
23.817455603640639
 20
92.371978592211036
 30
0.0
 42
0.0144182225388113
  0
VERTEX
  5
110C
  8
0
 10
23.942941234749188
 20
92.491690284442015
 30
0.0
 42
0.0250026594761496
 70
     1
  0
VERTEX
  5
110D
  8
0
 10
24.009671574159679
 20
92.566239301023828
 30
0.0
 42
0.0036377550868265
  0
VERTEX
  5
110E
  8
0
 10
24.136024727596979
 20
92.724796976570104
 30
0.0
 42
0.0110442383969705
 70
     1
  0
VERTEX
  5
110F
  8
0
 10
24.176096101785252
 20
92.778227919082852
 30
0.0
 42
0.0260486117946896
  0
VERTEX
  5
1110
  8
0
 10
24.289106666525591
 20
92.954809671806714
 30
0.0
 42
0.0238412676482667
 70
     1
  0
VERTEX
  5
1111
  8
0
 10
24.392740379583959
 20
93.159055738524117
 30
0.0
 42
0.0177412200672931
  0
VERTEX
  5
1112
  8
0
 10
24.467048455720089
 20
93.341699540085074
 30
0.0
 42
0.0222690652062092
 70
     1
  0
VERTEX
  5
1113
  8
0
 10
24.51443749103948
 20
93.491500495048356
 30
0.0
 42
0.0118971104190789
  0
VERTEX
  5
1114
  8
0
 10
24.55674328939773
 20
93.665840070488443
 30
0.0
 42
0.018775146653054
 70
     1
  0
VERTEX
  5
1115
  8
0
 10
24.576732675084401
 20
93.777771725428906
 30
0.0
 42
0.0080235912866647
  0
VERTEX
  5
1116
  8
0
 10
24.583726853549312
 20
93.834287618932393
 30
0.0
 42
0.0027549627087997
 70
     1
  0
VERTEX
  5
1117
  8
0
 10
24.600543191561691
 20
93.999276748649947
 30
0.0
 42
0.0164209648597542
  0
VERTEX
  5
1118
  8
0
 10
24.603346282692652
 20
94.043553344771425
 30
0.0
 42
0.0074615436129526
 70
     1
  0
VERTEX
  5
1119
  8
0
 10
24.60485560364026
 20
94.141157423671032
 30
0.0
  0
SEQEND
  5
111A
  8
0
  0
LINE
  5
111B
  8
0
 10
24.60485560364026
 20
94.141157423671032
 30
0.0
 11
24.60485560364026
 21
95.682799492010574
 31
0.0
  0
POLYLINE
  5
111C
  8
0
 66
     1
 10
0.0
 20
0.0
 30
0.0
 70
     2
  0
VERTEX
  5
111D
  8
0
 10
49.217455603610603
 20
102.5280236546154
 30
0.0
 42
-0.0144182225388113
  0
VERTEX
  5
111E
  8
0
 10
49.091969972502049
 20
102.6477353468464
 30
0.0
 42
-0.0250026594761496
 70
     1
  0
VERTEX
  5
111F
  8
0
 10
49.025239633091559
 20
102.7222843634282
 30
0.0
 42
-0.0036377550868265
  0
VERTEX
  5
1120
  8
0
 10
48.898886479654273
 20
102.88084203897451
 30
0.0
 42
-0.0110442383969705
 70
     1
  0
VERTEX
  5
1121
  8
0
 10
48.858815105466
 20
102.9342729814872
 30
0.0
 42
-0.0260486117946896
  0
VERTEX
  5
1122
  8
0
 10
48.745804540725658
 20
103.1108547342111
 30
0.0
 42
-0.0238412676482667
 70
     1
  0
VERTEX
  5
1123
  8
0
 10
48.642170827667279
 20
103.31510080092851
 30
0.0
 42
-0.0177412200672931
  0
VERTEX
  5
1124
  8
0
 10
48.567862751531152
 20
103.4977446024894
 30
0.0
 42
-0.0222690652062092
 70
     1
  0
VERTEX
  5
1125
  8
0
 10
48.520473716211768
 20
103.6475455574527
 30
0.0
 42
-0.0118971104190789
  0
VERTEX
  5
1126
  8
0
 10
48.478167917853511
 20
103.8218851328928
 30
0.0
 42
-0.018775146653054
 70
     1
  0
VERTEX
  5
1127
  8
0
 10
48.458178532166841
 20
103.93381678783329
 30
0.0
 42
-0.0080235912866647
  0
VERTEX
  5
1128
  8
0
 10
48.451184353701933
 20
103.9903326813367
 30
0.0
 42
-0.0027549627087997
 70
     1
  0
VERTEX
  5
1129
  8
0
 10
48.43436801568955
 20
104.15532181105431
 30
0.0
 42
-0.0164209648597542
  0
VERTEX
  5
112A
  8
0
 10
48.431564924558579
 20
104.1995984071758
 30
0.0
 42
-0.0074615436129526
 70
     1
  0
VERTEX
  5
112B
  8
0
 10
48.430055603610981
 20
104.29720248607541
 30
0.0
  0
SEQEND
  5
112C
  8
0
  0
POLYLINE
  5
112D
  8
0
 66
     1
 10
0.0
 20
0.0
 30
0.0
 70
     2
  0
VERTEX
  5
112E
  8
0
 10
49.217455603610603
 20
107.6080233858749
 30
0.0
 42
0.0144182225388113
  0
VERTEX
  5
112F
  8
0
 10
49.091969972502049
 20
107.48831169364389
 30
0.0
 42
0.0250026594761496
 70
     1
  0
VERTEX
  5
1130
  8
0
 10
49.025239633091559
 20
107.4137626770621
 30
0.0
 42
0.0036377550868265
  0
VERTEX
  5
1131
  8
0
 10
48.898886479654273
 20
107.2552050015158
 30
0.0
 42
0.0110442383969705
 70
     1
  0
VERTEX
  5
1132
  8
0
 10
48.858815105466
 20
107.2017740590031
 30
0.0
 42
0.0260486117946896
  0
VERTEX
  5
1133
  8
0
 10
48.745804540725658
 20
107.02519230627919
 30
0.0
 42
0.0238412676482667
 70
     1
  0
VERTEX
  5
1134
  8
0
 10
48.642170827667279
 20
106.82094623956181
 30
0.0
 42
0.0177412200672931
  0
VERTEX
  5
1135
  8
0
 10
48.567862751531152
 20
106.63830243800091
 30
0.0
 42
0.0222690652062092
 70
     1
  0
VERTEX
  5
1136
  8
0
 10
48.520473716211768
 20
106.4885014830376
 30
0.0
 42
0.0118971104190789
  0
VERTEX
  5
1137
  8
0
 10
48.478167917853511
 20
106.31416190759749
 30
0.0
 42
0.018775146653054
 70
     1
  0
VERTEX
  5
1138
  8
0
 10
48.458178532166841
 20
106.202230252657
 30
0.0
 42
0.0080235912866647
  0
VERTEX
  5
1139
  8
0
 10
48.451184353701933
 20
106.1457143591535
 30
0.0
 42
0.0027549627087997
 70
     1
  0
VERTEX
  5
113A
  8
0
 10
48.43436801568955
 20
105.980725229436
 30
0.0
 42
0.0164209648597542
  0
VERTEX
  5
113B
  8
0
 10
48.431564924558579
 20
105.9364486333145
 30
0.0
 42
0.0074615436129526
 70
     1
  0
VERTEX
  5
113C
  8
0
 10
48.430055603610981
 20
105.83884455441491
 30
0.0
  0
SEQEND
  5
113D
  8
0
  0
LINE
  5
113E
  8
0
 10
48.430055603610981
 20
105.83884455441491
 30
0.0
 11
48.430055603610981
 21
104.29720248607541
 31
0.0
  0
LINE
  5
113F
  8
0
 10
48.430055603640263
 20
94.141157423671032
 30
0.0
 11
48.430055603640263
 21
95.682799492010574
 31
0.0
  0
POLYLINE
  5
1140
  8
0
 66
     1
 10
0.0
 20
0.0
 30
0.0
 70
     2
  0
VERTEX
  5
1141
  8
0
 10
49.21745560363987
 20
92.371978592211036
 30
0.0
 42
-0.0144182225388113
  0
VERTEX
  5
1142
  8
0
 10
49.091969972531331
 20
92.491690284442015
 30
0.0
 42
-0.0250026594761496
 70
     1
  0
VERTEX
  5
1143
  8
0
 10
49.025239633120833
 20
92.566239301023828
 30
0.0
 42
-0.0036377550868265
  0
VERTEX
  5
1144
  8
0
 10
48.89888647968354
 20
92.724796976570104
 30
0.0
 42
-0.0110442383969705
 70
     1
  0
VERTEX
  5
1145
  8
0
 10
48.858815105495268
 20
92.778227919082852
 30
0.0
 42
-0.0260486117946896
  0
VERTEX
  5
1146
  8
0
 10
48.745804540754932
 20
92.954809671806714
 30
0.0
 42
-0.0238412676482667
 70
     1
  0
VERTEX
  5
1147
  8
0
 10
48.64217082769656
 20
93.159055738524117
 30
0.0
 42
-0.0177412200672931
  0
VERTEX
  5
1148
  8
0
 10
48.567862751560433
 20
93.341699540085074
 30
0.0
 42
-0.0222690652062092
 70
     1
  0
VERTEX
  5
1149
  8
0
 10
48.520473716241042
 20
93.491500495048356
 30
0.0
 42
-0.0118971104190789
  0
VERTEX
  5
114A
  8
0
 10
48.478167917882793
 20
93.665840070488443
 30
0.0
 42
-0.018775146653054
 70
     1
  0
VERTEX
  5
114B
  8
0
 10
48.458178532196108
 20
93.777771725428906
 30
0.0
 42
-0.0080235912866647
  0
VERTEX
  5
114C
  8
0
 10
48.4511843537312
 20
93.834287618932393
 30
0.0
 42
-0.0027549627087997
 70
     1
  0
VERTEX
  5
114D
  8
0
 10
48.434368015718832
 20
93.999276748649947
 30
0.0
 42
-0.0164209648597542
  0
VERTEX
  5
114E
  8
0
 10
48.43156492458786
 20
94.043553344771425
 30
0.0
 42
-0.0074615436129526
 70
     1
  0
VERTEX
  5
114F
  8
0
 10
48.430055603640263
 20
94.141157423671032
 30
0.0
  0
SEQEND
  5
1150
  8
0
  0
POLYLINE
  5
1151
  8
0
 66
     1
 10
0.0
 20
0.0
 30
0.0
 70
     2
  0
VERTEX
  5
1152
  8
0
 10
49.21745560363987
 20
97.451978323470584
 30
0.0
 42
0.0144182225388113
  0
VERTEX
  5
1153
  8
0
 10
49.091969972531331
 20
97.332266631239591
 30
0.0
 42
0.0250026594761496
 70
     1
  0
VERTEX
  5
1154
  8
0
 10
49.025239633120833
 20
97.257717614657793
 30
0.0
 42
0.0036377550868265
  0
VERTEX
  5
1155
  8
0
 10
48.89888647968354
 20
97.099159939111487
 30
0.0
 42
0.0110442383969705
 70
     1
  0
VERTEX
  5
1156
  8
0
 10
48.858815105495268
 20
97.045728996598754
 30
0.0
 42
0.0260486117946896
  0
VERTEX
  5
1157
  8
0
 10
48.745804540754932
 20
96.869147243874878
 30
0.0
 42
0.0238412676482667
 70
     1
  0
VERTEX
  5
1158
  8
0
 10
48.64217082769656
 20
96.664901177157489
 30
0.0
 42
0.0177412200672931
  0
VERTEX
  5
1159
  8
0
 10
48.567862751560433
 20
96.482257375596561
 30
0.0
 42
0.0222690652062092
 70
     1
  0
VERTEX
  5
115A
  8
0
 10
48.520473716241042
 20
96.33245642063325
 30
0.0
 42
0.0118971104190789
  0
VERTEX
  5
115B
  8
0
 10
48.478167917882793
 20
96.158116845193163
 30
0.0
 42
0.018775146653054
 70
     1
  0
VERTEX
  5
115C
  8
0
 10
48.458178532196108
 20
96.046185190252714
 30
0.0
 42
0.0080235912866647
  0
VERTEX
  5
115D
  8
0
 10
48.4511843537312
 20
95.989669296749199
 30
0.0
 42
0.0027549627087997
 70
     1
  0
VERTEX
  5
115E
  8
0
 10
48.434368015718832
 20
95.824680167031644
 30
0.0
 42
0.0164209648597542
  0
VERTEX
  5
115F
  8
0
 10
48.43156492458786
 20
95.780403570910167
 30
0.0
 42
0.0074615436129526
 70
     1
  0
VERTEX
  5
1160
  8
0
 10
48.430055603640263
 20
95.682799492010574
 30
0.0
  0
SEQEND
  5
1161
  8
0
  0
LINE
  5
117B
  8
2
 10
32.517455603640258
 20
46.970523654571068
 30
0.0
 11
32.517455603640258
 21
51.339323654626227
 31
0.0
  0
LINE
  5
117C
  8
2
 10
33.19395560364012
 20
46.970523654571068
 30
0.0
 11
33.19395560364012
 21
50.167591283306152
 31
0.0
  0
LINE
  5
117D
  8
2
 10
39.840955603640367
 20
46.970523654571068
 30
0.0
 11
39.840955603640367
 21
50.167591283306152
 31
0.0
  0
LINE
  5
117E
  8
2
 10
40.517455603640229
 20
46.970523654571068
 30
0.0
 11
40.517455603640229
 21
51.339323654626227
 31
0.0
  0
LINE
  5
1187
  8
2
 10
43.261155603640269
 20
51.339323654626227
 30
0.0
 11
43.261155603640269
 21
59.670523654626173
 31
0.0
  0
LINE
  5
1188
  8
2
 10
29.773755603640272
 20
59.670523654626173
 30
0.0
 11
29.773755603640272
 21
51.339323654626227
 31
0.0
  0
LINE
  5
1189
  8
2
 10
43.261155603640269
 20
51.339323654626227
 30
0.0
 11
29.773755603640272
 21
51.339323654626227
 31
0.0
  0
LINE
  5
118A
  8
2
 10
33.193955603640177
 20
50.167591283306152
 30
0.0
 11
32.517455603640258
 21
51.339323654626227
 31
0.0
  0
LINE
  5
118B
  8
2
 10
39.840955603640367
 20
50.167591283306152
 30
0.0
 11
40.517455603640229
 21
51.339323654626227
 31
0.0
  0
LINE
  5
118C
  8
2
 10
40.517455603640229
 20
50.167591283306152
 30
0.0
 11
32.517455603640173
 21
50.167591283306152
 31
0.0
  0
LINE
  5
118D
  8
0
 10
40.517455603640201
 20
36.539323654626052
 30
0.0
 11
32.517455603640173
 21
36.539323654626052
 31
0.0
  0
LINE
  5
118E
  8
0
 10
33.71745560364014
 20
35.339323654626291
 30
0.0
 11
32.517455603640229
 21
36.539323654626052
 31
0.0
  0
LINE
  5
118F
  8
0
 10
40.517455603640201
 20
36.539323654626052
 30
0.0
 11
39.317455603640163
 21
35.339323654626291
 31
0.0
  0
LINE
  5
1190
  8
0
 10
40.517455603640229
 20
46.970523654571068
 30
0.0
 11
40.517455603640201
 21
36.539323654626052
 31
0.0
  0
LINE
  5
1191
  8
3
 10
39.840955603640367
 20
46.970523654571068
 30
0.0
 11
39.840955603640339
 21
35.86282365462619
 31
0.0
  0
LINE
  5
1192
  8
3
 10
33.19395560364012
 20
46.970523654571068
 30
0.0
 11
33.193955603640092
 21
35.86282365462619
 31
0.0
  0
LINE
  5
1193
  8
0
 10
32.517455603640258
 20
46.970523654571068
 30
0.0
 11
32.517455603640229
 21
36.539323654626052
 31
0.0
  0
LINE
  5
1194
  8
0
 10
39.317455603640163
 20
35.339323654626291
 30
0.0
 11
33.71745560364014
 21
35.339323654626291
 31
0.0
  0
LINE
  5
1195
  8
2
 10
30.017455603640261
 20
58.839323654626227
 30
0.0
 11
30.883481007424681
 21
59.339323654626057
 31
0.0
  0
LINE
  5
1196
  8
2
 10
43.017455603640229
 20
58.839323654626227
 30
0.0
 11
42.151430199855859
 21
59.339323654626199
 31
0.0
  0
LINE
  5
1197
  8
2
 10
30.017455603640261
 20
58.839323654626227
 30
0.0
 11
43.017455603640229
 21
58.839323654626227
 31
0.0
  0
LINE
  5
1198
  8
2
 10
30.883481007424681
 20
59.339323654626057
 30
0.0
 11
42.151430199855859
 21
59.339323654626199
 31
0.0
  0
LINE
  5
1199
  8
2
 10
30.017455603640261
 20
51.339323654626227
 30
0.0
 11
30.017455603640261
 21
58.839323654626227
 31
0.0
  0
LINE
  5
119A
  8
2
 10
43.017455603640229
 20
58.839323654626227
 30
0.0
 11
43.017455603640229
 21
51.339323654626227
 31
0.0
  0
LINE
  5
119E
  8
0
 10
23.817455603640241
 20
59.416523654700633
 30
0.0
 11
23.817455603640269
 21
59.289523456321582
 31
0.0
  0
LINE
  5
119F
  8
0
 10
49.217455603640239
 20
47.224523654571122
 30
0.0
 11
49.217455603640218
 21
52.939523707781539
 31
0.0
  0
LINE
  5
11A1
  8
0
 10
49.217455603640239
 20
47.224523654571122
 30
0.0
 11
48.963455603640249
 21
46.970523654571068
 31
0.0
  0
LINE
  5
11A2
  8
0
 10
24.071455603640288
 20
46.970523654571068
 30
0.0
 11
23.817455603640241
 21
47.224523654571122
 31
0.0
  0
LINE
  5
11A3
  8
0
 10
24.071455603640288
 20
46.970523654571068
 30
0.0
 11
48.963455603640249
 21
46.970523654571068
 31
0.0
  0
LINE
  5
11A4
  8
0
 10
24.071455603510739
 20
59.67052365457117
 30
0.0
 11
48.963455603510617
 21
59.67052365457117
 31
0.0
  0
LINE
  5
11BD
  8
1
 10
105.8486556035851
 20
99.990001123373432
 30
0.0
 11
71.517455603640286
 21
99.990001123373432
 31
0.0
  0
LINE
  5
1310
  8
1
 10
36.517455603640258
 20
117.6880236545862
 30
0.0
 11
36.517455603640293
 21
82.288023654586254
 31
0.0
  0
LINE
  5
1311
  8
0
 10
26.214519087189672
 20
56.89245997277213
 30
0.0
 11
23.817455603510719
 21
59.289523456451072
 31
0.0
  0
LINE
  5
1313
  8
0
 10
26.274034988030738
 20
55.480271288289799
 30
0.0
 11
26.274034988030738
 21
56.748775876031068
 31
0.0
  0
LINE
  5
1315
  8
0
 10
23.817455603510719
 20
52.939523707911079
 30
0.0
 11
26.214519087384929
 21
55.336587189245293
 31
0.0
  0
LINE
  5
1318
  8
0
 10
24.071455603510682
 20
59.67052365457107
 30
0.0
 11
23.817455603402781
 21
59.416523654463127
 31
0.0
  0
LINE
  5
131A
  8
0
 10
46.820392119637347
 20
55.336587189244419
 30
0.0
 11
49.2174556035107
 21
52.939523707911079
 31
0.0
  0
LINE
  5
131C
  8
0
 10
46.760876218990688
 20
55.480271288331082
 30
0.0
 11
46.760876218990688
 21
56.748775876012033
 31
0.0
  0
LINE
  5
131E
  8
0
 10
49.2174556035107
 20
59.289523456451072
 30
0.0
 11
46.820392119894557
 21
56.892459972834899
 31
0.0
  0
LINE
  5
131F
  8
0
 10
49.2174556035107
 20
59.289523456451043
 30
0.0
 11
49.217455603502678
 21
59.416523654579052
 31
0.0
  0
LINE
  5
1321
  8
0
 10
49.2174556035107
 20
59.41652365457108
 30
0.0
 11
48.963455603510738
 21
59.67052365457107
 31
0.0
  0
LINE
  5
1322
  8
0
 10
23.817455603640241
 20
52.939523708040618
 30
0.0
 11
23.817455603640241
 21
47.224523654571122
 31
0.0
  0
POLYLINE
  5
1324
  8
0
 66
     1
 10
0.0
 20
0.0
 30
0.0
 70
     2
  0
VERTEX
  5
1325
  8
0
 10
26.214519087250721
 20
56.89245997271108
 30
0.0
 42
-0.0472995076677132
  0
VERTEX
  5
132A
  8
0
 10
26.239407094540301
 20
56.861448163743447
 30
0.0
 42
-0.0472995076674063
 70
     1
  0
VERTEX
  5
1326
  8
0
 10
26.258023504711701
 20
56.826311651756683
 30
0.0
 42
-0.0472992377199693
  0
VERTEX
  5
1329
  8
0
 10
26.269704852591111
 20
56.788302792963201
 30
0.0
 42
-0.0472992377203605
 70
     1
  0
VERTEX
  5
1327
  8
0
 10
26.274034988030738
 20
56.748775876031068
 30
0.0
  0
SEQEND
  5
1328
  8
0
  0
POLYLINE
  5
132B
  8
0
 66
     1
 10
0.0
 20
0.0
 30
0.0
 70
     2
  0
VERTEX
  5
132C
  8
0
 10
26.214519087250721
 20
55.336587191609787
 30
0.0
 42
0.0472995076677132
  0
VERTEX
  5
132D
  8
0
 10
26.239407094540301
 20
55.367599000577421
 30
0.0
 42
0.0472995076674063
 70
     1
  0
VERTEX
  5
132E
  8
0
 10
26.258023504711701
 20
55.402735512564192
 30
0.0
 42
0.0472992377199693
  0
VERTEX
  5
132F
  8
0
 10
26.269704852591111
 20
55.440744371357667
 30
0.0
 42
0.0472992377203605
 70
     1
  0
VERTEX
  5
1330
  8
0
 10
26.274034988030738
 20
55.480271288289799
 30
0.0
  0
SEQEND
  5
1331
  8
0
  0
POLYLINE
  5
1333
  8
0
 66
     1
 10
0.0
 20
0.0
 30
0.0
 70
     2
  0
VERTEX
  5
1334
  8
0
 10
46.820392120029823
 20
55.336587191609787
 30
0.0
 42
-0.0472995076677132
  0
VERTEX
  5
1335
  8
0
 10
46.79550411274024
 20
55.367599000577421
 30
0.0
 42
-0.0472995076674063
 70
     1
  0
VERTEX
  5
1336
  8
0
 10
46.776887702568843
 20
55.402735512564192
 30
0.0
 42
-0.0472992377199693
  0
VERTEX
  5
1337
  8
0
 10
46.76520635468944
 20
55.440744371357667
 30
0.0
 42
-0.0472992377203605
 70
     1
  0
VERTEX
  5
1338
  8
0
 10
46.760876219249802
 20
55.480271288289799
 30
0.0
  0
SEQEND
  5
1339
  8
0
  0
POLYLINE
  5
133A
  8
0
 66
     1
 10
0.0
 20
0.0
 30
0.0
 70
     2
  0
VERTEX
  5
133B
  8
0
 10
46.820392120029823
 20
56.89245997271108
 30
0.0
 42
0.0472995076677132
  0
VERTEX
  5
133C
  8
0
 10
46.79550411274024
 20
56.861448163743447
 30
0.0
 42
0.0472995076674063
 70
     1
  0
VERTEX
  5
133D
  8
0
 10
46.776887702568843
 20
56.826311651756683
 30
0.0
 42
0.0472992377199693
  0
VERTEX
  5
133E
  8
0
 10
46.76520635468944
 20
56.788302792963201
 30
0.0
 42
0.0472992377203605
 70
     1
  0
VERTEX
  5
133F
  8
0
 10
46.760876219249802
 20
56.748775876031068
 30
0.0
  0
SEQEND
  5
1340
  8
0
  0
CIRCLE
  5
1341
  8
0
 10
36.517455603640258
 20
99.988023654586257
 30
0.0
 40
6.4999999999999707
  0
LINE
  5
134C
  8
1
 10
36.517455603640201
 20
64.670523654571184
 30
0.0
 11
36.517455603640258
 21
30.339323654626298
 31
0.0
  0
LINE
  5
134D
  8
1
 10
54.217455603638022
 20
99.990001123373986
 30
0.0
 11
18.817455603638049
 21
99.990001123373958
 31
0.0
  0
LINE
  5
1366
  8
0
 10
36.517455603640293
 20
103.45410273851169
 30
0.0
 11
33.517455603640258
 21
101.7220519309428
 31
0.0
  0
LINE
  5
1367
  8
0
 10
39.517455603640293
 20
101.7220519309429
 30
0.0
 11
39.517455603640293
 21
98.257950315805104
 31
0.0
  0
LINE
  5
1369
  8
0
 10
39.517455603640258
 20
98.257950315805076
 30
0.0
 11
36.517455603640322
 21
96.525899508236208
 31
0.0
  0
LINE
  5
136E
  8
0
 10
33.517455603640229
 20
98.257950315805104
 30
0.0
 11
36.517455603640293
 21
96.525899508236208
 31
0.0
  0
LINE
  5
1370
  8
0
 10
33.517455603640258
 20
101.7220519309428
 30
0.0
 11
33.517455603640258
 21
98.257950315805104
 31
0.0
  0
LINE
  5
1371
  8
0
 10
36.517455603640258
 20
103.45410273851169
 30
0.0
 11
39.517455603640293
 21
101.7220519309429
 31
0.0
  0
TEXT
  5
1419
  8
0
 62
     3
 10
0.0
 20
0.0
 30
0.0
 40
10.0
  1
MBVG2525G
  7
STANDARD1
  0
ENDSEC
  0
EOF
