  0
SECTION
  2
HEADER
  9
$ACADVER
  1
AC1009
  9
$INSBASE
 10
0.0
 20
0.0
 30
0.0
  9
$EXTMIN
 10
0.0
 20
-2.960436562073669
 30
0.0
  9
$EXTMAX
 10
216.55336717991219
 20
90.019049461079959
 30
0.0
  9
$LIMMIN
 10
0.0
 20
0.0
  9
$LIMMAX
 10
12.0
 20
9.0
  9
$ORTHOMODE
 70
     1
  9
$REGENMODE
 70
     1
  9
$FILLMODE
 70
     1
  9
$QTEXTMODE
 70
     0
  9
$MIRRTEXT
 70
     0
  9
$DRAGMODE
 70
     2
  9
$LTSCALE
 40
0.5
  9
$OSMODE
 70
    37
  9
$ATTMODE
 70
     1
  9
$TEXTSIZE
 40
0.2
  9
$TRACEWID
 40
0.05
  9
$TEXTSTYLE
  7
STANDARD
  9
$CLAYER
  8
0
  9
$CELTYPE
  6
BYLAYER
  9
$CECOLOR
 62
   256
  9
$DIMSCALE
 40
1.0
  9
$DIMASZ
 40
1.0
  9
$DIMEXO
 40
2.54
  9
$DIMDLI
 40
0.38
  9
$DIMRND
 40
0.0
  9
$DIMDLE
 40
0.0
  9
$DIMEXE
 40
2.54
  9
$DIMTP
 40
0.0
  9
$DIMTM
 40
0.0
  9
$DIMTXT
 40
3.2000000000000002
  9
$DIMCEN
 40
0.09
  9
$DIMTSZ
 40
0.0
  9
$DIMTOL
 70
     0
  9
$DIMLIM
 70
     0
  9
$DIMTIH
 70
     0
  9
$DIMTOH
 70
     0
  9
$DIMSE1
 70
     0
  9
$DIMSE2
 70
     0
  9
$DIMTAD
 70
     1
  9
$DIMZIN
 70
     8
  9
$DIMBLK
  1

  9
$DIMASO
 70
     1
  9
$DIMSHO
 70
     0
  9
$DIMPOST
  1

  9
$DIMAPOST
  1

  9
$DIMALT
 70
     0
  9
$DIMALTD
 70
     2
  9
$DIMALTF
 40
25.399999999999999
  9
$DIMLFAC
 40
1.0
  9
$DIMTOFL
 70
     0
  9
$DIMTVP
 40
1.0
  9
$DIMTIX
 70
     0
  9
$DIMSOXD
 70
     0
  9
$DIMSAH
 70
     0
  9
$DIMBLK1
  1

  9
$DIMBLK2
  1

  9
$DIMSTYLE
  2
STANDARD
  9
$DIMCLRD
 70
     0
  9
$DIMCLRE
 70
     0
  9
$DIMCLRT
 70
     0
  9
$DIMTFAC
 40
1.0
  9
$DIMGAP
 40
1.6000000000000001
  9
$LUNITS
 70
     2
  9
$LUPREC
 70
     1
  9
$SKETCHINC
 40
0.1
  9
$FILLETRAD
 40
3.0
  9
$AUNITS
 70
     0
  9
$AUPREC
 70
     0
  9
$MENU
  1
.
  9
$ELEVATION
 40
0.0
  9
$PELEVATION
 40
0.0
  9
$THICKNESS
 40
0.0
  9
$LIMCHECK
 70
     0
  9
$BLIPMODE
 70
     0
  9
$CHAMFERA
 40
3.0
  9
$CHAMFERB
 40
4.0
  9
$SKPOLY
 70
     0
  9
$TDCREATE
 40
2453173.4709223039
  9
$TDUPDATE
 40
2458192.544997836
  9
$TDINDWG
 40
2.4426587384
  9
$TDUSRTIMER
 40
2456598.1332896422
  9
$USRTIMER
 70
     1
  9
$ANGBASE
 50
0.0
  9
$ANGDIR
 70
     0
  9
$PDMODE
 70
     0
  9
$PDSIZE
 40
0.0
  9
$PLINEWID
 40
0.0
  9
$COORDS
 70
     1
  9
$SPLFRAME
 70
     0
  9
$SPLINETYPE
 70
     6
  9
$SPLINESEGS
 70
     8
  9
$ATTDIA
 70
     0
  9
$ATTREQ
 70
     1
  9
$HANDLING
 70
     1
  9
$HANDSEED
  5
1F0C
  9
$SURFTAB1
 70
     6
  9
$SURFTAB2
 70
     6
  9
$SURFTYPE
 70
     6
  9
$SURFU
 70
     6
  9
$SURFV
 70
     6
  9
$UCSNAME
  2

  9
$UCSORG
 10
0.0
 20
0.0
 30
0.0
  9
$UCSXDIR
 10
1.0
 20
0.0
 30
0.0
  9
$UCSYDIR
 10
0.0
 20
1.0
 30
0.0
  9
$PUCSNAME
  2

  9
$PUCSORG
 10
0.0
 20
0.0
 30
0.0
  9
$PUCSXDIR
 10
1.0
 20
0.0
 30
0.0
  9
$PUCSYDIR
 10
0.0
 20
1.0
 30
0.0
  9
$USERI1
 70
     0
  9
$USERI2
 70
     0
  9
$USERI3
 70
     0
  9
$USERI4
 70
     0
  9
$USERI5
 70
     0
  9
$USERR1
 40
0.0
  9
$USERR2
 40
0.0
  9
$USERR3
 40
0.0
  9
$USERR4
 40
0.0
  9
$USERR5
 40
0.0
  9
$WORLDVIEW
 70
     1
  9
$SHADEDGE
 70
     3
  9
$SHADEDIF
 70
    70
  9
$TILEMODE
 70
     1
  9
$MAXACTVP
 70
    64
  9
$PLIMCHECK
 70
     0
  9
$PEXTMIN
 10
1.0000000000000000E+020
 20
1.0000000000000000E+020
 30
1.0000000000000000E+020
  9
$PEXTMAX
 10
-1.0000000000000000E+020
 20
-1.0000000000000000E+020
 30
-1.0000000000000000E+020
  9
$PLIMMIN
 10
0.0
 20
0.0
  9
$PLIMMAX
 10
12.0
 20
9.0
  9
$UNITMODE
 70
     0
  9
$VISRETAIN
 70
     1
  9
$PLINEGEN
 70
     0
  9
$PSLTSCALE
 70
     1
  0
ENDSEC
  0
SECTION
  2
TABLES
  0
TABLE
  2
VPORT
 70
     1
  0
VPORT
  2
*ACTIVE
 70
     0
 10
0.0
 20
0.0
 11
1.0
 21
1.0
 12
172.54273504273499
 22
95.0
 13
0.0
 23
0.0
 14
1.0
 24
1.0
 15
0.0
 25
0.0
 16
0.0
 26
0.0
 36
1.0
 17
0.0
 27
0.0
 37
0.0
 40
190.0
 41
1.816239316239316
 42
50.0
 43
0.0
 44
0.0
 50
0.0
 51
0.0
 71
    16
 72
   100
 73
     1
 74
     1
 75
     0
 76
     0
 77
     0
 78
     0
  0
ENDTAB
  0
TABLE
  2
LTYPE
 70
     4
  0
LTYPE
  2
CONTINUOUS
 70
     0
  3
Solid line
 72
    65
 73
     0
 40
0.0
  0
LTYPE
  2
CENTER
 70
     0
  3
Center ____ _ ____ _ ____ _ ____ _ ____ _ ____
 72
    65
 73
     4
 40
12.0
 49
7.5
 49
-1.5
 49
1.5
 49
-1.5
  0
LTYPE
  2
HIDDEN
 70
     0
  3
Hidden __ __ __ __ __ __ __ __ __ __ __ __ __ _
 72
    65
 73
     2
 40
4.5
 49
3.0
 49
-1.5
  0
LTYPE
  2
PHANTOM2
 70
     0
  3
___ _ _ ___ _ _ ___ _ _ ___ _ _
 72
    65
 73
     6
 40
1.25
 49
0.625
 49
-0.125
 49
0.125
 49
-0.125
 49
0.125
 49
-0.125
  0
ENDTAB
  0
TABLE
  2
LAYER
 70
     5
  0
LAYER
  2
0
 70
     0
 62
     7
  6
CONTINUOUS
  0
LAYER
  2
1
 70
     0
 62
     1
  6
CENTER
  0
LAYER
  2
2
 70
     0
 62
     2
  6
HIDDEN
  0
LAYER
  2
3
 70
     0
 62
     3
  6
CONTINUOUS
  0
LAYER
  2
DEFPOINTS
 70
     0
 62
     7
  6
CONTINUOUS
  0
ENDTAB
  0
TABLE
  2
STYLE
 70
     2
  0
STYLE
  2
STANDARD
 70
     0
 40
0.0
 41
1.0
 50
0.0
 71
     0
 42
0.2
  3
simplex.shx
  4
bigfont.shx
  0
STYLE
  2
STANDARD1
 70
     0
 40
0.0
 41
1.0
 50
0.0
 71
     0
 42
3.0
  3
txt
  4

  0
ENDTAB
  0
TABLE
  2
VIEW
 70
     0
  0
ENDTAB
  0
TABLE
  2
UCS
 70
     0
  0
ENDTAB
  0
TABLE
  2
APPID
 70
     6
  0
APPID
  2
ACAD
 70
     0
  0
APPID
  2
ACAD_DSTYLE_DIMJAG
 70
     0
  0
APPID
  2
ACAD_DSTYLE_DIMTALN
 70
     0
  0
APPID
  2
ACAD_EXEMPT_FROM_CAD_STANDARDS
 70
     0
  0
APPID
  2
ACAD_MLEADERVER
 70
     0
  0
APPID
  2
ACAD_NAV_VCDISPLAY
 70
     0
  0
ENDTAB
  0
TABLE
  2
DIMSTYLE
 70
     1
  0
DIMSTYLE
  2
STANDARD
 70
     0
  3

  4

  5

  6

  7

 40
1.0
 41
0.18
 42
0.0625
 43
0.38
 44
0.18
 45
0.0
 46
0.0
 47
0.0
 48
0.0
140
0.18
141
0.09
142
0.0
143
25.399999999999999
144
1.0
145
0.0
146
1.0
147
0.09
 71
     0
 72
     0
 73
     1
 74
     1
 75
     0
 76
     0
 77
     0
 78
     0
170
     0
171
     2
172
     0
173
     0
174
     0
175
     0
176
     0
177
     0
178
     0
  0
ENDTAB
  0
ENDSEC
  0
SECTION
  2
BLOCKS
  0
BLOCK
  8
0
  2
$MODEL_SPACE
 70
     0
 10
0.0
 20
0.0
 30
0.0
  3
$MODEL_SPACE
  1

  0
ENDBLK
  5
9
  8
0
  0
BLOCK
 67
     1
  8
0
  2
$PAPER_SPACE
 70
     0
 10
0.0
 20
0.0
 30
0.0
  3
$PAPER_SPACE
  1

  0
ENDBLK
  5
E
 67
     1
  8
0
  0
ENDSEC
  0
SECTION
  2
ENTITIES
  0
LINE
  5
70C
  8
0
 10
50.060867179950009
 20
65.969049461079891
 30
0.0
 11
49.99736717994999
 21
66.032549461079896
 31
0.0
  0
LINE
  5
70D
  8
0
 10
56.283867179950022
 20
65.969049461079891
 30
0.0
 11
50.060867179950009
 21
65.969049461079891
 31
0.0
  0
LINE
  5
70E
  8
0
 10
49.997367179950018
 20
84.955549461079926
 30
0.0
 11
49.99736717994999
 21
66.032549461079896
 31
0.0
  0
LINE
  5
712
  8
0
 10
49.99736717994999
 20
84.955549461079897
 30
0.0
 11
50.060867179950009
 21
85.019049461079888
 31
0.0
  0
LINE
  5
714
  8
0
 10
50.66428987794999
 20
85.019049461079888
 30
0.0
 11
50.664289877950047
 21
65.969049461079891
 31
0.0
  0
LINE
  5
715
  8
0
 10
50.25136717995003
 20
85.019049461079888
 30
0.0
 11
50.25136717995003
 21
80.243971743779895
 31
0.0
  0
ARC
  5
717
  8
0
 10
53.00822128305002
 20
72.369849379279884
 30
0.0
 40
3.1749999999999732
 50
198.50417979689979
 51
209.7382561795003
  0
ARC
  5
71D
  8
0
 10
47.494513071049987
 20
78.669049379279912
 30
0.0
 40
3.175000004929653
 50
3.2869520257004909
 51
29.738256128600089
  0
ARC
  5
71E
  8
0
 10
53.00822128305002
 20
78.669049379279912
 30
0.0
 40
3.1749999999999949
 50
150.2617438204995
 51
161.4958202031001
  0
LINE
  5
71F
  8
0
 10
50.25136717995003
 20
70.794927014879903
 30
0.0
 11
50.251367179950037
 21
65.969049461079905
 31
0.0
  0
ARC
  5
721
  8
0
 10
47.494513071049987
 20
72.369849379279884
 30
0.0
 40
3.1750000049296321
 50
330.2617438713998
 51
356.71304797429951
  0
LINE
  5
72C
  8
0
 10
51.741920612450009
 20
85.019049461079888
 30
0.0
 11
51.741920612450031
 21
65.969049461079891
 31
0.0
  0
LINE
  5
731
  8
0
 10
52.154843316150028
 20
85.019049461079888
 30
0.0
 11
52.154843316150028
 21
65.969049461079891
 31
0.0
  0
LINE
  5
739
  8
0
 10
56.283867179950022
 20
85.019049461079888
 30
0.0
 11
56.347367179950027
 21
84.955549461079897
 31
0.0
  0
LINE
  5
73A
  8
0
 10
50.060867179950002
 20
85.019049461079888
 30
0.0
 11
56.283867179950022
 21
85.019049461079888
 31
0.0
  0
LINE
  5
73B
  8
0
 10
56.347367179950027
 20
84.955549461079897
 30
0.0
 11
56.347367179950027
 21
66.032549461079896
 31
0.0
  0
LINE
  5
73D
  8
0
 10
56.093367179949993
 20
85.019049461079888
 30
0.0
 11
56.093367179950008
 21
65.969049461079891
 31
0.0
  0
LINE
  5
73E
  8
0
 10
56.283867179950022
 20
65.969049461079891
 30
0.0
 11
56.347367179950027
 21
66.032549461079896
 31
0.0
  0
LINE
  5
742
  8
0
 10
14.15136717995
 20
42.569049461079928
 30
0.0
 11
26.343367179950011
 21
42.569049461079921
 31
0.0
  0
LINE
  5
743
  8
0
 10
26.343367179950011
 20
42.569049461079921
 30
0.0
 11
26.597367179950009
 21
42.315049461079887
 31
0.0
  0
LINE
  5
745
  8
0
 10
14.31028988365
 20
41.902126762979911
 30
0.0
 11
13.89736717994999
 21
42.31504946667993
 31
0.0
  0
LINE
  5
748
  8
0
 10
13.89736717994999
 20
42.31504946667993
 30
0.0
 11
14.15136717995
 21
42.569049461079928
 31
0.0
  0
LINE
  5
749
  8
0
 10
26.597367179950009
 20
42.315049461079887
 30
0.0
 11
26.184444476150009
 21
41.902126762979883
 31
0.0
  0
LINE
  5
74B
  8
0
 10
13.89736717994999
 20
40.411573324779887
 30
0.0
 11
14.31028988365
 21
40.824496028479928
 31
0.0
  0
ARC
  5
74C
  8
0
 10
26.723259843449998
 20
41.363311395779903
 30
0.0
 40
0.7620000000000105
 50
134.9999999999998
 51
225.0000000000002
  0
ARC
  5
750
  8
0
 10
13.77147451634999
 20
41.363311395779903
 30
0.0
 40
0.7620000000000105
 50
314.99999999999989
 51
45.000000000000192
  0
LINE
  5
751
  8
0
 10
26.184444476150009
 20
40.824496028479892
 30
0.0
 11
26.597367179950009
 21
40.411573324779887
 31
0.0
  0
LINE
  5
753
  8
0
 10
26.597367179950009
 20
40.411573324779887
 30
0.0
 11
26.597367179950009
 21
36.473049461079931
 31
0.0
  0
LINE
  5
756
  8
0
 10
13.89736717994999
 20
36.473049461079931
 30
0.0
 11
13.89736717994999
 21
40.411573324779887
 31
0.0
  0
LINE
  5
762
  8
0
 10
26.597367179950009
 20
36.473049461079931
 30
0.0
 11
26.343367179950011
 21
36.219049461079912
 31
0.0
  0
LINE
  5
767
  8
0
 10
14.15136717995
 20
36.219049461079912
 30
0.0
 11
13.89736717994999
 21
36.473049461079931
 31
0.0
  0
LINE
  5
76B
  8
0
 10
26.343367179950011
 20
36.219049461079912
 30
0.0
 11
14.15136717995
 21
36.219049461079912
 31
0.0
  0
LINE
  5
771
  8
0
 10
26.59736717995003
 20
84.955549461079897
 30
0.0
 11
26.533867179950018
 21
85.019049461079888
 31
0.0
  0
LINE
  5
773
  8
0
 10
26.533867179950011
 20
65.969049461079891
 30
0.0
 11
26.597367179950009
 21
66.032549461079896
 31
0.0
  0
LINE
  5
775
  8
0
 10
26.533867179950018
 20
65.969049461079919
 30
0.0
 11
13.96086717995
 21
65.969049461079919
 31
0.0
  0
LINE
  5
776
  8
0
 10
13.89736717994999
 20
66.032549461079924
 30
0.0
 11
13.96086717995
 21
65.969049461079919
 31
0.0
  0
LINE
  5
777
  8
0
 10
13.960867179950011
 20
85.019049461079945
 30
0.0
 11
26.533867179950011
 21
85.019049461079945
 31
0.0
  0
LINE
  5
778
  8
0
 10
13.960867179950011
 20
85.019049461079945
 30
0.0
 11
13.89736717995001
 21
84.955549461079926
 31
0.0
  0
LINE
  5
785
  8
0
 10
13.89736717995004
 20
84.955549461079954
 30
0.0
 11
13.89736717994999
 21
66.032549461079924
 31
0.0
  0
ARC
  5
787
  8
0
 10
11.14051307675002
 20
72.369849379279884
 30
0.0
 40
3.174999999999998
 50
330.26174382049982
 51
341.49582020310032
  0
ARC
  5
788
  8
0
 10
11.14051307675002
 20
78.669049379279912
 30
0.0
 40
3.1750000000000211
 50
18.50417979690004
 51
29.738256179500318
  0
LINE
  5
78C
  8
0
 10
26.59736717995008
 20
84.955549461079855
 30
0.0
 11
26.597367179950009
 21
66.032549461079896
 31
0.0
  0
ARC
  5
78D
  8
0
 10
29.35422128305003
 20
72.369849379279884
 30
0.0
 40
3.174999999999998
 50
198.50417979689959
 51
209.7382561795003
  0
ARC
  5
790
  8
0
 10
29.35422128305003
 20
78.669049379279912
 30
0.0
 40
3.1750000000000211
 50
150.2617438204997
 51
161.4958202030999
  0
LINE
  5
795
  8
0
 10
26.34336717995
 20
85.019049461079888
 30
0.0
 11
26.343367179950011
 21
79.676711311579908
 31
0.0
  0
LINE
  5
797
  8
0
 10
14.15136717995
 20
85.019049461079888
 30
0.0
 11
14.15136717995
 21
79.676711311579908
 31
0.0
  0
ARC
  5
798
  8
0
 10
11.14051307675002
 20
78.669049379279912
 30
0.0
 40
3.175000000000006
 50
0.0
 51
18.504179796900122
  0
LINE
  5
799
  8
0
 10
14.315513076750021
 20
78.669049379279912
 30
0.0
 11
14.315513076750021
 21
72.369849379279913
 31
0.0
  0
ARC
  5
79A
  8
0
 10
11.14051307675002
 20
72.369849379279884
 30
0.0
 40
3.1749999999999972
 50
341.49582020310021
 51
0.0
  0
LINE
  5
79B
  8
0
 10
14.15136717995
 20
71.362187447079918
 30
0.0
 11
14.15136717995
 21
65.969049461079919
 31
0.0
  0
LINE
  5
79D
  8
0
 10
26.343367179950011
 20
71.36218744707989
 30
0.0
 11
26.343367179950011
 21
65.969049461079891
 31
0.0
  0
ARC
  5
79E
  8
0
 10
29.35422128305003
 20
72.369849379279884
 30
0.0
 40
3.1749999999999972
 50
180.0
 51
198.50417979689959
  0
LINE
  5
79F
  8
0
 10
26.17922128305004
 20
78.669049379279912
 30
0.0
 11
26.17922128305004
 21
72.369849379279884
 31
0.0
  0
ARC
  5
7A0
  8
0
 10
29.35422128305003
 20
78.669049379279912
 30
0.0
 40
3.175000000000006
 50
161.4958202030999
 51
180.0
  0
LINE
  5
886
  8
1
 10
8.8973671799500078
 20
75.494049461079896
 30
0.0
 11
31.597367179950059
 21
75.494049461079896
 31
0.0
  0
LINE
  5
887
  8
1
 10
20.247367179950022
 20
90.019049461079945
 30
0.0
 11
20.247367179950011
 21
60.969049461079898
 31
0.0
  0
LINE
  5
890
  8
1
 10
20.247367179950011
 20
47.569049461079928
 30
0.0
 11
20.247367179950079
 21
26.01304946111766
 31
0.0
  0
LINE
  5
8C4
  8
0
 10
17.747367179949968
 20
36.219049461079912
 30
0.0
 11
17.747367179950022
 21
31.913049461117659
 31
0.0
  0
LINE
  5
8C5
  8
3
 10
18.18036717994978
 20
36.219049461079919
 30
0.0
 11
18.180367179949808
 21
31.480049461117861
 31
0.0
  0
LINE
  5
8C6
  8
3
 10
22.314367179950199
 20
36.219049461079912
 30
0.0
 11
22.314367179950231
 21
31.4800494611179
 31
0.0
  0
LINE
  5
8C7
  8
0
 10
22.747367179949968
 20
36.219049461079912
 30
0.0
 11
22.747367179950022
 21
31.913049461117659
 31
0.0
  0
LINE
  5
8C8
  8
0
 10
21.847367179950009
 20
31.01304946111766
 30
0.0
 11
18.64736717995002
 21
31.01304946111766
 31
0.0
  0
LINE
  5
8C9
  8
2
 10
22.747367179950011
 20
38.263071461403051
 30
0.0
 11
17.74736717995
 21
38.263071461403051
 31
0.0
  0
LINE
  5
8CA
  8
2
 10
22.31436717995021
 20
38.263071461403051
 30
0.0
 11
22.747367179950011
 21
39.013049461080001
 31
0.0
  0
LINE
  5
8CB
  8
0
 10
22.747367179950022
 20
31.913049461117659
 30
0.0
 11
21.847367179950009
 21
31.01304946111766
 31
0.0
  0
LINE
  5
8CC
  8
0
 10
18.64736717995002
 20
31.01304946111766
 30
0.0
 11
17.747367179950022
 21
31.913049461117659
 31
0.0
  0
LINE
  5
8CD
  8
0
 10
22.747367179950022
 20
31.913049461117691
 30
0.0
 11
17.747367179950022
 21
31.913049461117691
 31
0.0
  0
LINE
  5
8CE
  8
2
 10
18.180367179949819
 20
38.263071461403051
 30
0.0
 11
17.747367179950029
 21
39.013049461080001
 31
0.0
  0
CIRCLE
  5
8D5
  8
0
 10
20.247367179950029
 20
75.494049461079896
 30
0.0
 40
4.3656249999999899
  0
LINE
  5
8D7
  8
2
 10
17.747367179949968
 20
36.219049461079912
 30
0.0
 11
17.747367179949968
 21
39.013049461080001
 31
0.0
  0
LINE
  5
8D8
  8
2
 10
18.18036717994978
 20
36.219049461079912
 30
0.0
 11
18.18036717994978
 21
38.263071461403051
 31
0.0
  0
LINE
  5
8D9
  8
2
 10
22.314367179950199
 20
36.219049461079912
 30
0.0
 11
22.314367179950199
 21
38.263071461403051
 31
0.0
  0
LINE
  5
8DA
  8
2
 10
22.747367179949968
 20
36.219049461079912
 30
0.0
 11
22.747367179949968
 21
39.013049461080001
 31
0.0
  0
TEXT
  5
B09
  8
0
 62
     3
 10
0.0
 20
0.0
 30
0.0
 40
10.0
  1
MBVG1913G
  7
STANDARD1
  0
LINE
  5
1A9A
  8
2
 10
24.61299217995002
 20
39.013049461080001
 30
0.0
 11
15.881742179950029
 21
39.013049461080001
 31
0.0
  0
LINE
  5
1A9B
  8
2
 10
15.881742179950029
 20
42.569049461079928
 30
0.0
 11
15.881742179950029
 21
39.013049461080001
 31
0.0
  0
LINE
  5
1A9C
  8
2
 10
24.61299217995002
 20
39.013049461080001
 30
0.0
 11
24.61299217995002
 21
42.569049461079921
 31
0.0
  0
LINE
  5
1A9D
  8
2
 10
24.49736717995
 20
42.075549461079987
 30
0.0
 11
15.99736717995
 21
42.075549461079987
 31
0.0
  0
LINE
  5
1A9E
  8
2
 10
24.059867179930901
 20
42.513049461073173
 30
0.0
 11
16.4348671799691
 21
42.513049461073173
 31
0.0
  0
LINE
  5
1A9F
  8
2
 10
24.49736717995
 20
39.013049461080001
 30
0.0
 11
24.49736717995
 21
42.075549461079987
 31
0.0
  0
LINE
  5
1AA0
  8
2
 10
15.99736717995
 20
42.075549461079987
 30
0.0
 11
15.99736717995
 21
39.013049461080001
 31
0.0
  0
LINE
  5
1AA1
  8
2
 10
24.49736717992408
 20
42.075549461079987
 30
0.0
 11
24.059867179930901
 21
42.513049461073173
 31
0.0
  0
LINE
  5
1AA2
  8
2
 10
16.4348671799691
 20
42.513049461073173
 30
0.0
 11
15.997367179975919
 21
42.075549461079987
 31
0.0
  0
CIRCLE
  5
1B48
  8
0
 10
20.247367179950039
 20
75.494049461079896
 30
0.0
 40
4.2499999999999636
  0
CIRCLE
  5
1B49
  8
0
 10
20.247367179950022
 20
75.494049461079925
 30
0.0
 40
3.812499999980882
  0
LINE
  5
1B9B
  8
1
 10
44.99736717994999
 20
75.494049461079868
 30
0.0
 11
66.553367179912243
 21
75.494049461079925
 31
0.0
  0
LINE
  5
1B9C
  8
0
 10
56.347367179950027
 20
72.994049461079825
 30
0.0
 11
60.653367179912259
 21
72.994049461079868
 31
0.0
  0
LINE
  5
1B9D
  8
3
 10
56.347367179949998
 20
73.427049461079633
 30
0.0
 11
61.08636717991206
 21
73.427049461079662
 31
0.0
  0
LINE
  5
1B9E
  8
3
 10
56.347367179950027
 20
77.561049461080046
 30
0.0
 11
61.086367179912031
 21
77.561049461080074
 31
0.0
  0
LINE
  5
1B9F
  8
0
 10
56.347367179950027
 20
77.994049461079825
 30
0.0
 11
60.653367179912259
 21
77.994049461079868
 31
0.0
  0
LINE
  5
1BA0
  8
0
 10
61.55336717991225
 20
77.094049461079862
 30
0.0
 11
61.55336717991225
 21
73.894049461079874
 31
0.0
  0
LINE
  5
1BA1
  8
2
 10
54.303345179626881
 20
77.994049461079925
 30
0.0
 11
54.303345179626881
 21
72.994049461079911
 31
0.0
  0
LINE
  5
1BA2
  8
2
 10
54.303345179626881
 20
77.561049461080117
 30
0.0
 11
53.553367179949937
 21
77.994049461079925
 31
0.0
  0
LINE
  5
1BA3
  8
0
 10
60.653367179912259
 20
77.994049461079868
 30
0.0
 11
61.55336717991225
 21
77.094049461079862
 31
0.0
  0
LINE
  5
1BA4
  8
0
 10
61.55336717991225
 20
73.894049461079874
 30
0.0
 11
60.653367179912259
 21
72.994049461079868
 31
0.0
  0
LINE
  5
1BA5
  8
0
 10
60.653367179912237
 20
77.994049461079868
 30
0.0
 11
60.653367179912237
 21
72.994049461079868
 31
0.0
  0
LINE
  5
1BA6
  8
2
 10
54.303345179626881
 20
73.427049461079704
 30
0.0
 11
53.553367179949937
 21
72.994049461079939
 31
0.0
  0
LINE
  5
1BA7
  8
2
 10
56.347367179950041
 20
72.994049461079868
 30
0.0
 11
53.553367179949937
 21
72.994049461079868
 31
0.0
  0
LINE
  5
1BA8
  8
2
 10
56.347367179950041
 20
73.42704946107969
 30
0.0
 11
54.303345179626881
 21
73.42704946107969
 31
0.0
  0
LINE
  5
1BA9
  8
2
 10
56.347367179950041
 20
77.561049461080103
 30
0.0
 11
54.303345179626881
 21
77.561049461080103
 31
0.0
  0
LINE
  5
1BAA
  8
2
 10
56.347367179950041
 20
77.994049461079882
 30
0.0
 11
53.553367179949937
 21
77.994049461079882
 31
0.0
  0
LINE
  5
1BAB
  8
2
 10
53.553367179949937
 20
79.859674461079933
 30
0.0
 11
53.553367179949937
 21
71.128424461079945
 31
0.0
  0
LINE
  5
1BAC
  8
2
 10
49.997367179949997
 20
71.128424461079945
 30
0.0
 11
53.553367179949937
 21
71.128424461079945
 31
0.0
  0
LINE
  5
1BAD
  8
2
 10
53.553367179949937
 20
79.859674461079933
 30
0.0
 11
49.997367179950011
 21
79.859674461079933
 31
0.0
  0
LINE
  5
1BAE
  8
2
 10
50.490867179949937
 20
79.744049461079911
 30
0.0
 11
50.490867179949937
 21
71.244049461079911
 31
0.0
  0
LINE
  5
1BAF
  8
2
 10
50.053367179956759
 20
79.306549461060811
 30
0.0
 11
50.053367179956759
 21
71.68154946109901
 31
0.0
  0
LINE
  5
1BB0
  8
2
 10
53.55336717994993
 20
79.744049461079911
 30
0.0
 11
50.490867179949937
 21
79.744049461079911
 31
0.0
  0
LINE
  5
1BB1
  8
2
 10
50.490867179949937
 20
71.244049461079911
 30
0.0
 11
53.55336717994993
 21
71.244049461079911
 31
0.0
  0
LINE
  5
1BB2
  8
2
 10
50.490867179949937
 20
79.74404946105399
 30
0.0
 11
50.053367179956759
 21
79.306549461060811
 31
0.0
  0
LINE
  5
1BB3
  8
2
 10
50.053367179956759
 20
71.68154946109901
 30
0.0
 11
50.490867179949937
 21
71.244049461105831
 31
0.0
  0
LINE
  5
1CCF
  8
0
 10
200.06086717995001
 20
65.969049461079919
 30
0.0
 11
199.99736717995
 21
66.032549461079924
 31
0.0
  0
LINE
  5
1CD0
  8
0
 10
206.28386717994999
 20
65.969049461079919
 30
0.0
 11
200.06086717995001
 21
65.969049461079919
 31
0.0
  0
LINE
  5
1CD1
  8
0
 10
199.99736717995
 20
84.955549461079954
 30
0.0
 11
199.99736717995
 21
66.032549461079924
 31
0.0
  0
LINE
  5
1CD2
  8
0
 10
199.99736717995
 20
84.955549461079926
 30
0.0
 11
200.06086717995001
 21
85.019049461079916
 31
0.0
  0
LINE
  5
1CD3
  8
0
 10
200.6642898779499
 20
85.019049461079916
 30
0.0
 11
200.66428987795001
 21
65.969049461079919
 31
0.0
  0
LINE
  5
1CD4
  8
0
 10
200.25136717994999
 20
85.019049461079916
 30
0.0
 11
200.25136717994999
 21
80.243971743779923
 31
0.0
  0
ARC
  5
1CD5
  8
0
 10
203.00822128305001
 20
72.369849379279913
 30
0.0
 40
3.1749999999999732
 50
198.50417979689979
 51
209.73825617950041
  0
ARC
  5
1CD6
  8
0
 10
197.49451307104991
 20
78.66904937927994
 30
0.0
 40
3.175000004929653
 50
3.2869520257005198
 51
29.7382561285999
  0
ARC
  5
1CD7
  8
0
 10
203.00822128305001
 20
78.66904937927994
 30
0.0
 40
3.1749999999999949
 50
150.26174382049939
 51
161.49582020310001
  0
LINE
  5
1CD8
  8
0
 10
200.25136717994999
 20
70.794927014879931
 30
0.0
 11
200.25136717994999
 21
65.969049461079933
 31
0.0
  0
ARC
  5
1CD9
  8
0
 10
197.49451307104991
 20
72.369849379279913
 30
0.0
 40
3.1750000049296321
 50
330.26174387139997
 51
356.71304797429951
  0
LINE
  5
1CDA
  8
0
 10
201.74192061245
 20
85.019049461079916
 30
0.0
 11
201.74192061245
 21
65.969049461079919
 31
0.0
  0
LINE
  5
1CDB
  8
0
 10
202.15484331614999
 20
85.019049461079916
 30
0.0
 11
202.15484331614999
 21
65.969049461079919
 31
0.0
  0
LINE
  5
1CDC
  8
0
 10
206.28386717994999
 20
85.019049461079916
 30
0.0
 11
206.34736717995
 21
84.955549461079926
 31
0.0
  0
LINE
  5
1CDD
  8
0
 10
200.06086717995001
 20
85.019049461079916
 30
0.0
 11
206.28386717994999
 21
85.019049461079916
 31
0.0
  0
LINE
  5
1CDE
  8
0
 10
206.34736717995
 20
84.955549461079926
 30
0.0
 11
206.34736717995
 21
66.032549461079924
 31
0.0
  0
LINE
  5
1CDF
  8
0
 10
206.09336717994989
 20
85.019049461079916
 30
0.0
 11
206.09336717995001
 21
65.969049461079919
 31
0.0
  0
LINE
  5
1CE0
  8
0
 10
206.28386717994999
 20
65.969049461079919
 30
0.0
 11
206.34736717995
 21
66.032549461079924
 31
0.0
  0
LINE
  5
1CE1
  8
0
 10
164.15136717995
 20
42.569049461079949
 30
0.0
 11
176.34336717995001
 21
42.569049461079949
 31
0.0
  0
LINE
  5
1CE2
  8
0
 10
176.34336717995001
 20
42.569049461079949
 30
0.0
 11
176.59736717995
 21
42.315049461079923
 31
0.0
  0
LINE
  5
1CE3
  8
0
 10
164.31028988365
 20
41.90212676297994
 30
0.0
 11
163.8973671799499
 21
42.315049466679952
 31
0.0
  0
LINE
  5
1CE4
  8
0
 10
163.8973671799499
 20
42.315049466679952
 30
0.0
 11
164.15136717995
 21
42.569049461079949
 31
0.0
  0
LINE
  5
1CE5
  8
0
 10
176.59736717995
 20
42.315049461079923
 30
0.0
 11
176.18444447614999
 21
41.902126762979911
 31
0.0
  0
LINE
  5
1CE6
  8
0
 10
163.8973671799499
 20
40.411573324779923
 30
0.0
 11
164.31028988365
 21
40.824496028479949
 31
0.0
  0
ARC
  5
1CE7
  8
0
 10
176.72325984344991
 20
41.363311395779917
 30
0.0
 40
0.7620000000000105
 50
135.00000000000011
 51
224.99999999999989
  0
ARC
  5
1CE8
  8
0
 10
163.77147451634991
 20
41.363311395779917
 30
0.0
 40
0.7620000000000105
 50
315.00000000000023
 51
44.999999999999858
  0
LINE
  5
1CE9
  8
0
 10
176.18444447614999
 20
40.824496028479928
 30
0.0
 11
176.59736717995
 21
40.411573324779923
 31
0.0
  0
LINE
  5
1CEA
  8
0
 10
176.59736717995
 20
40.411573324779923
 30
0.0
 11
176.59736717995
 21
36.47304946107996
 31
0.0
  0
LINE
  5
1CEB
  8
0
 10
163.8973671799499
 20
36.47304946107996
 30
0.0
 11
163.8973671799499
 21
40.411573324779923
 31
0.0
  0
LINE
  5
1CEC
  8
0
 10
176.59736717995
 20
36.47304946107996
 30
0.0
 11
176.34336717995001
 21
36.219049461079933
 31
0.0
  0
LINE
  5
1CED
  8
0
 10
164.15136717995
 20
36.219049461079933
 30
0.0
 11
163.8973671799499
 21
36.47304946107996
 31
0.0
  0
LINE
  5
1CEE
  8
0
 10
176.34336717995001
 20
36.219049461079933
 30
0.0
 11
164.15136717995
 21
36.219049461079933
 31
0.0
  0
LINE
  5
1CEF
  8
0
 10
176.59736717995
 20
84.955549461079926
 30
0.0
 11
176.53386717994999
 21
85.019049461079916
 31
0.0
  0
LINE
  5
1CF0
  8
0
 10
176.53386717994999
 20
65.969049461079919
 30
0.0
 11
176.59736717995
 21
66.032549461079924
 31
0.0
  0
LINE
  5
1CF1
  8
0
 10
176.53386717994999
 20
65.969049461079933
 30
0.0
 11
163.9608671799499
 21
65.969049461079933
 31
0.0
  0
LINE
  5
1CF2
  8
0
 10
163.8973671799499
 20
66.032549461079952
 30
0.0
 11
163.9608671799499
 21
65.969049461079933
 31
0.0
  0
LINE
  5
1CF3
  8
0
 10
163.96086717994999
 20
85.019049461079959
 30
0.0
 11
176.53386717994999
 21
85.019049461079959
 31
0.0
  0
LINE
  5
1CF4
  8
0
 10
163.96086717994999
 20
85.019049461079959
 30
0.0
 11
163.89736717995001
 21
84.955549461079954
 31
0.0
  0
LINE
  5
1CF5
  8
0
 10
163.89736717995001
 20
84.955549461079997
 30
0.0
 11
163.8973671799499
 21
66.032549461079952
 31
0.0
  0
ARC
  5
1CF6
  8
0
 10
161.14051307675001
 20
72.369849379279913
 30
0.0
 40
3.174999999999998
 50
330.2617438204997
 51
341.49582020310021
  0
ARC
  5
1CF7
  8
0
 10
161.14051307675001
 20
78.66904937927994
 30
0.0
 40
3.1750000000000211
 50
18.504179796900068
 51
29.7382561795004
  0
LINE
  5
1CF8
  8
0
 10
176.59736717995
 20
84.955549461079883
 30
0.0
 11
176.59736717995
 21
66.032549461079924
 31
0.0
  0
ARC
  5
1CF9
  8
0
 10
179.35422128305001
 20
72.369849379279913
 30
0.0
 40
3.174999999999998
 50
198.50417979689959
 51
209.73825617950041
  0
ARC
  5
1CFA
  8
0
 10
179.35422128305001
 20
78.66904937927994
 30
0.0
 40
3.1750000000000211
 50
150.26174382049959
 51
161.4958202030999
  0
LINE
  5
1CFB
  8
0
 10
176.34336717995001
 20
85.019049461079916
 30
0.0
 11
176.34336717995001
 21
79.676711311579936
 31
0.0
  0
LINE
  5
1CFC
  8
0
 10
164.15136717995
 20
85.019049461079916
 30
0.0
 11
164.15136717995
 21
79.676711311579936
 31
0.0
  0
ARC
  5
1CFD
  8
0
 10
161.14051307675001
 20
78.66904937927994
 30
0.0
 40
3.175000000000006
 50
0.0
 51
18.504179796900139
  0
LINE
  5
1CFE
  8
0
 10
164.31551307674999
 20
78.66904937927994
 30
0.0
 11
164.31551307674999
 21
72.369849379279941
 31
0.0
  0
ARC
  5
1CFF
  8
0
 10
161.14051307675001
 20
72.369849379279913
 30
0.0
 40
3.1749999999999972
 50
341.49582020310021
 51
0.0
  0
LINE
  5
1D00
  8
0
 10
164.15136717995
 20
71.362187447079947
 30
0.0
 11
164.15136717995
 21
65.969049461079933
 31
0.0
  0
LINE
  5
1D01
  8
0
 10
176.34336717995001
 20
71.362187447079918
 30
0.0
 11
176.34336717995001
 21
65.969049461079919
 31
0.0
  0
ARC
  5
1D02
  8
0
 10
179.35422128305001
 20
72.369849379279913
 30
0.0
 40
3.1749999999999972
 50
180.0
 51
198.50417979689959
  0
LINE
  5
1D03
  8
0
 10
176.17922128305
 20
78.66904937927994
 30
0.0
 11
176.17922128305
 21
72.369849379279913
 31
0.0
  0
ARC
  5
1D04
  8
0
 10
179.35422128305001
 20
78.66904937927994
 30
0.0
 40
3.175000000000006
 50
161.4958202030999
 51
180.0
  0
LINE
  5
1D05
  8
1
 10
158.8973671799499
 20
75.494049461079925
 30
0.0
 11
181.59736717995
 21
75.494049461079925
 31
0.0
  0
LINE
  5
1D06
  8
1
 10
170.24736717995
 20
90.019049461079959
 30
0.0
 11
170.24736717994989
 21
60.96904946107994
 31
0.0
  0
LINE
  5
1D07
  8
1
 10
170.24736717994989
 20
47.569049461079949
 30
0.0
 11
170.24736717995
 21
26.013049461117689
 31
0.0
  0
LINE
  5
1D08
  8
0
 10
167.74736717994989
 20
36.219049461079933
 30
0.0
 11
167.74736717995
 21
31.913049461117691
 31
0.0
  0
LINE
  5
1D09
  8
3
 10
168.1803671799498
 20
36.219049461079948
 30
0.0
 11
168.1803671799498
 21
31.480049461117879
 31
0.0
  0
LINE
  5
1D0A
  8
3
 10
172.31436717995021
 20
36.219049461079933
 30
0.0
 11
172.31436717995021
 21
31.480049461117929
 31
0.0
  0
LINE
  5
1D0B
  8
0
 10
172.74736717994989
 20
36.219049461079933
 30
0.0
 11
172.74736717995
 21
31.913049461117691
 31
0.0
  0
LINE
  5
1D0C
  8
0
 10
171.84736717994991
 20
31.013049461117689
 30
0.0
 11
168.64736717995001
 21
31.013049461117689
 31
0.0
  0
LINE
  5
1D0D
  8
2
 10
172.74736717995
 20
38.263071461403079
 30
0.0
 11
167.74736717995
 21
38.263071461403079
 31
0.0
  0
LINE
  5
1D0E
  8
2
 10
172.31436717995021
 20
38.263071461403079
 30
0.0
 11
172.74736717995
 21
39.013049461080023
 31
0.0
  0
LINE
  5
1D0F
  8
0
 10
172.74736717995
 20
31.913049461117691
 30
0.0
 11
171.84736717994991
 21
31.013049461117689
 31
0.0
  0
LINE
  5
1D10
  8
0
 10
168.64736717995001
 20
31.013049461117689
 30
0.0
 11
167.74736717995
 21
31.913049461117691
 31
0.0
  0
LINE
  5
1D11
  8
0
 10
172.74736717995
 20
31.913049461117719
 30
0.0
 11
167.74736717995
 21
31.913049461117719
 31
0.0
  0
LINE
  5
1D12
  8
2
 10
168.1803671799498
 20
38.263071461403079
 30
0.0
 11
167.74736717995
 21
39.013049461080023
 31
0.0
  0
CIRCLE
  5
1D19
  8
0
 10
170.24736717995
 20
75.494049461079925
 30
0.0
 40
4.3656249999999899
  0
LINE
  5
1D1A
  8
2
 10
167.74736717994989
 20
36.219049461079933
 30
0.0
 11
167.74736717994989
 21
39.013049461080023
 31
0.0
  0
LINE
  5
1D1B
  8
2
 10
168.1803671799498
 20
36.219049461079933
 30
0.0
 11
168.1803671799498
 21
38.263071461403079
 31
0.0
  0
LINE
  5
1D1C
  8
2
 10
172.31436717995021
 20
36.219049461079933
 30
0.0
 11
172.31436717995021
 21
38.263071461403079
 31
0.0
  0
LINE
  5
1D1D
  8
2
 10
172.74736717994989
 20
36.219049461079933
 30
0.0
 11
172.74736717994989
 21
39.013049461080023
 31
0.0
  0
LINE
  5
1D1E
  8
2
 10
174.61299217995
 20
39.013049461080023
 30
0.0
 11
165.88174217995001
 21
39.013049461080023
 31
0.0
  0
LINE
  5
1D1F
  8
2
 10
165.88174217995001
 20
42.569049461079949
 30
0.0
 11
165.88174217995001
 21
39.013049461080023
 31
0.0
  0
LINE
  5
1D20
  8
2
 10
174.61299217995
 20
39.013049461080023
 30
0.0
 11
174.61299217995
 21
42.569049461079949
 31
0.0
  0
LINE
  5
1D21
  8
2
 10
174.49736717994989
 20
42.075549461080023
 30
0.0
 11
165.99736717994989
 21
42.075549461080023
 31
0.0
  0
LINE
  5
1D22
  8
2
 10
174.05986717993079
 20
42.513049461073201
 30
0.0
 11
166.43486717996899
 21
42.513049461073201
 31
0.0
  0
LINE
  5
1D23
  8
2
 10
174.49736717994989
 20
39.01304946108003
 30
0.0
 11
174.49736717994989
 21
42.075549461080023
 31
0.0
  0
LINE
  5
1D24
  8
2
 10
165.99736717994989
 20
42.075549461080023
 30
0.0
 11
165.99736717994989
 21
39.01304946108003
 31
0.0
  0
LINE
  5
1D25
  8
2
 10
174.497367179924
 20
42.075549461080023
 30
0.0
 11
174.05986717993079
 21
42.513049461073201
 31
0.0
  0
LINE
  5
1D26
  8
2
 10
166.43486717996899
 20
42.513049461073201
 30
0.0
 11
165.9973671799759
 21
42.075549461080023
 31
0.0
  0
CIRCLE
  5
1D27
  8
0
 10
170.24736717995
 20
75.494049461079925
 30
0.0
 40
4.2499999999999636
  0
CIRCLE
  5
1D28
  8
0
 10
170.24736717995
 20
75.494049461079953
 30
0.0
 40
3.812499999980882
  0
LINE
  5
1D29
  8
1
 10
194.99736717994989
 20
75.494049461079896
 30
0.0
 11
216.55336717991219
 21
75.494049461079953
 31
0.0
  0
LINE
  5
1D2A
  8
0
 10
206.34736717995
 20
72.994049461079854
 30
0.0
 11
210.65336717991221
 21
72.994049461079896
 31
0.0
  0
LINE
  5
1D2B
  8
3
 10
206.34736717995
 20
73.427049461079662
 30
0.0
 11
211.086367179912
 21
73.42704946107969
 31
0.0
  0
LINE
  5
1D2C
  8
3
 10
206.34736717995
 20
77.561049461080074
 30
0.0
 11
211.086367179912
 21
77.561049461080103
 31
0.0
  0
LINE
  5
1D2D
  8
0
 10
206.34736717995
 20
77.994049461079868
 30
0.0
 11
210.65336717991221
 21
77.994049461079896
 31
0.0
  0
LINE
  5
1D2E
  8
0
 10
211.5533671799123
 20
77.094049461079891
 30
0.0
 11
211.5533671799123
 21
73.894049461079902
 31
0.0
  0
LINE
  5
1D2F
  8
2
 10
204.30334517962689
 20
77.994049461079953
 30
0.0
 11
204.30334517962689
 21
72.994049461079939
 31
0.0
  0
LINE
  5
1D30
  8
2
 10
204.30334517962689
 20
77.561049461080145
 30
0.0
 11
203.5533671799499
 21
77.994049461079953
 31
0.0
  0
LINE
  5
1D31
  8
0
 10
210.65336717991221
 20
77.994049461079896
 30
0.0
 11
211.5533671799123
 21
77.094049461079891
 31
0.0
  0
LINE
  5
1D32
  8
0
 10
211.5533671799123
 20
73.894049461079902
 30
0.0
 11
210.65336717991221
 21
72.994049461079896
 31
0.0
  0
LINE
  5
1D33
  8
0
 10
210.65336717991221
 20
77.994049461079896
 30
0.0
 11
210.65336717991221
 21
72.994049461079896
 31
0.0
  0
LINE
  5
1D34
  8
2
 10
204.30334517962689
 20
73.427049461079747
 30
0.0
 11
203.5533671799499
 21
72.994049461079968
 31
0.0
  0
LINE
  5
1D35
  8
2
 10
206.34736717995
 20
72.994049461079896
 30
0.0
 11
203.5533671799499
 21
72.994049461079896
 31
0.0
  0
LINE
  5
1D36
  8
2
 10
206.34736717995
 20
73.427049461079704
 30
0.0
 11
204.30334517962689
 21
73.427049461079704
 31
0.0
  0
LINE
  5
1D37
  8
2
 10
206.34736717995
 20
77.561049461080131
 30
0.0
 11
204.30334517962689
 21
77.561049461080131
 31
0.0
  0
LINE
  5
1D38
  8
2
 10
206.34736717995
 20
77.994049461079911
 30
0.0
 11
203.5533671799499
 21
77.994049461079911
 31
0.0
  0
LINE
  5
1D39
  8
2
 10
203.5533671799499
 20
79.859674461079962
 30
0.0
 11
203.5533671799499
 21
71.128424461079973
 31
0.0
  0
LINE
  5
1D3A
  8
2
 10
199.99736717995
 20
71.128424461079973
 30
0.0
 11
203.5533671799499
 21
71.128424461079973
 31
0.0
  0
LINE
  5
1D3B
  8
2
 10
203.5533671799499
 20
79.859674461079962
 30
0.0
 11
199.99736717995
 21
79.859674461079962
 31
0.0
  0
LINE
  5
1D3C
  8
2
 10
200.4908671799499
 20
79.744049461079939
 30
0.0
 11
200.4908671799499
 21
71.244049461079925
 31
0.0
  0
LINE
  5
1D3D
  8
2
 10
200.05336717995669
 20
79.30654946106084
 30
0.0
 11
200.05336717995669
 21
71.681549461099038
 31
0.0
  0
LINE
  5
1D3E
  8
2
 10
203.5533671799499
 20
79.744049461079939
 30
0.0
 11
200.4908671799499
 21
79.744049461079939
 31
0.0
  0
LINE
  5
1D3F
  8
2
 10
200.4908671799499
 20
71.244049461079925
 30
0.0
 11
203.5533671799499
 21
71.244049461079925
 31
0.0
  0
LINE
  5
1D40
  8
2
 10
200.4908671799499
 20
79.744049461054004
 30
0.0
 11
200.05336717995669
 21
79.30654946106084
 31
0.0
  0
LINE
  5
1D41
  8
2
 10
200.05336717995669
 20
71.681549461099038
 30
0.0
 11
200.4908671799499
 21
71.24404946110586
 31
0.0
  0
LINE
  5
1E63
  8
0
 10
22.247367179950029
 20
74.339348922700793
 30
0.0
 11
22.247367179950029
 21
76.648749999459582
 31
0.0
  0
LINE
  5
1E64
  8
0
 10
18.247367179949801
 20
76.648749999458971
 30
0.0
 11
18.24736717995026
 21
74.339348922700751
 31
0.0
  0
LINE
  5
1E65
  8
0
 10
20.247367179950011
 20
77.803450537838501
 30
0.0
 11
18.247367179949801
 21
76.648749999458985
 31
0.0
  0
LINE
  5
1E66
  8
0
 10
22.247367179950029
 20
76.648749999459582
 30
0.0
 11
20.247367179950022
 21
77.803450537838458
 31
0.0
  0
LINE
  5
1E67
  8
0
 10
20.247367179950022
 20
73.184648384321363
 30
0.0
 11
22.247367179950029
 21
74.339348922700793
 31
0.0
  0
LINE
  5
1E68
  8
0
 10
18.24736717995026
 20
74.339348922700736
 30
0.0
 11
20.247367179950022
 21
73.184648384321619
 31
0.0
  0
LINE
  5
1E78
  8
0
 10
168.2473671799502
 20
74.339348922700594
 30
0.0
 11
170.24736717995
 21
73.184648384321477
 31
0.0
  0
LINE
  5
1E79
  8
0
 10
170.24736717995
 20
73.184648384321221
 30
0.0
 11
172.24736717995
 21
74.339348922700651
 31
0.0
  0
LINE
  5
1E7A
  8
0
 10
172.24736717995
 20
74.339348922700665
 30
0.0
 11
172.24736717995
 21
76.64874999945944
 31
0.0
  0
LINE
  5
1E7B
  8
0
 10
172.24736717995
 20
76.64874999945944
 30
0.0
 11
170.24736717995
 21
77.803450537838316
 31
0.0
  0
LINE
  5
1E7C
  8
0
 10
170.24736717994989
 20
77.803450537838359
 30
0.0
 11
168.24736717994969
 21
76.648749999458843
 31
0.0
  0
LINE
  5
1E7D
  8
0
 10
168.24736717994969
 20
76.648749999458829
 30
0.0
 11
168.2473671799502
 21
74.339348922700609
 31
0.0
  0
ENDSEC
  0
EOF
