  0
SECTION
  2
HEADER
  9
$ACADVER
  1
AC1009
  9
$INSBASE
 10
82.638099999999994
 20
103.82319099999999
 30
0.0
  9
$EXTMIN
 10
0.0
 20
-1.4802182810368341
 30
0.0
  9
$EXTMAX
 10
106.45815185187369
 20
124.6744680473457
 30
0.0
  9
$LIMMIN
 10
0.0
 20
0.0
  9
$LIMMAX
 10
187.5
 20
135.0
  9
$ORTHOMODE
 70
     1
  9
$REGENMODE
 70
     1
  9
$FILLMODE
 70
     1
  9
$QTEXTMODE
 70
     0
  9
$MIRRTEXT
 70
     0
  9
$DRAGMODE
 70
     2
  9
$LTSCALE
 40
5.0
  9
$OSMODE
 70
  3071
  9
$ATTMODE
 70
     1
  9
$TEXTSIZE
 40
0.06
  9
$TRACEWID
 40
0.05
  9
$TEXTSTYLE
  7
STANDARD
  9
$CLAYER
  8
0
  9
$CELTYPE
  6
BYLAYER
  9
$CECOLOR
 62
   256
  9
$DIMSCALE
 40
0.5
  9
$DIMASZ
 40
3.0
  9
$DIMEXO
 40
2.0
  9
$DIMDLI
 40
10.0
  9
$DIMRND
 40
0.0
  9
$DIMDLE
 40
0.0
  9
$DIMEXE
 40
2.0
  9
$DIMTP
 40
0.0
  9
$DIMTM
 40
0.0
  9
$DIMTXT
 40
3.0
  9
$DIMCEN
 40
0.0
  9
$DIMTSZ
 40
0.0
  9
$DIMTOL
 70
     0
  9
$DIMLIM
 70
     0
  9
$DIMTIH
 70
     0
  9
$DIMTOH
 70
     0
  9
$DIMSE1
 70
     0
  9
$DIMSE2
 70
     0
  9
$DIMTAD
 70
     1
  9
$DIMZIN
 70
     0
  9
$DIMBLK
  1

  9
$DIMASO
 70
     0
  9
$DIMSHO
 70
     0
  9
$DIMPOST
  1

  9
$DIMAPOST
  1

  9
$DIMALT
 70
     0
  9
$DIMALTD
 70
     2
  9
$DIMALTF
 40
25.399999999999999
  9
$DIMLFAC
 40
1.0
  9
$DIMTOFL
 70
     1
  9
$DIMTVP
 40
1.6000000000000001
  9
$DIMTIX
 70
     1
  9
$DIMSOXD
 70
     0
  9
$DIMSAH
 70
     0
  9
$DIMBLK1
  1

  9
$DIMBLK2
  1

  9
$DIMSTYLE
  2
STANDARD
  9
$DIMCLRD
 70
     0
  9
$DIMCLRE
 70
     0
  9
$DIMCLRT
 70
     0
  9
$DIMTFAC
 40
1.0
  9
$DIMGAP
 40
0.09
  9
$LUNITS
 70
     2
  9
$LUPREC
 70
     4
  9
$SKETCHINC
 40
0.1
  9
$FILLETRAD
 40
0.4
  9
$AUNITS
 70
     0
  9
$AUPREC
 70
     4
  9
$MENU
  1
E:\r13\win\SUPPORT\ACAD
  9
$ELEVATION
 40
0.0
  9
$PELEVATION
 40
0.0
  9
$THICKNESS
 40
0.0
  9
$LIMCHECK
 70
     0
  9
$BLIPMODE
 70
     0
  9
$CHAMFERA
 40
0.0
  9
$CHAMFERB
 40
0.0
  9
$SKPOLY
 70
     0
  9
$TDCREATE
 40
2449840.5907060192
  9
$TDUPDATE
 40
2456597.635716551
  9
$TDINDWG
 40
0.0528982176
  9
$TDUSRTIMER
 40
0.0528982176
  9
$USRTIMER
 70
     1
  9
$ANGBASE
 50
0.0
  9
$ANGDIR
 70
     0
  9
$PDMODE
 70
     0
  9
$PDSIZE
 40
0.0
  9
$PLINEWID
 40
0.0
  9
$COORDS
 70
     1
  9
$SPLFRAME
 70
     0
  9
$SPLINETYPE
 70
     6
  9
$SPLINESEGS
 70
     8
  9
$ATTDIA
 70
     0
  9
$ATTREQ
 70
     1
  9
$HANDLING
 70
     1
  9
$HANDSEED
  5
1274
  9
$SURFTAB1
 70
     6
  9
$SURFTAB2
 70
     6
  9
$SURFTYPE
 70
     6
  9
$SURFU
 70
     6
  9
$SURFV
 70
     6
  9
$UCSNAME
  2

  9
$UCSORG
 10
0.0
 20
0.0
 30
0.0
  9
$UCSXDIR
 10
1.0
 20
0.0
 30
0.0
  9
$UCSYDIR
 10
0.0
 20
1.0
 30
0.0
  9
$PUCSNAME
  2

  9
$PUCSORG
 10
0.0
 20
0.0
 30
0.0
  9
$PUCSXDIR
 10
1.0
 20
0.0
 30
0.0
  9
$PUCSYDIR
 10
0.0
 20
1.0
 30
0.0
  9
$USERI1
 70
     3
  9
$USERI2
 70
     1
  9
$USERI3
 70
     0
  9
$USERI4
 70
     0
  9
$USERI5
 70
     0
  9
$USERR1
 40
0.5
  9
$USERR2
 40
3.0
  9
$USERR3
 40
3.0
  9
$USERR4
 40
3.0
  9
$USERR5
 40
10.0
  9
$WORLDVIEW
 70
     1
  9
$SHADEDGE
 70
     3
  9
$SHADEDIF
 70
    70
  9
$TILEMODE
 70
     1
  9
$MAXACTVP
 70
    16
  9
$PLIMCHECK
 70
     0
  9
$PEXTMIN
 10
1.0000000000000000E+020
 20
1.0000000000000000E+020
 30
1.0000000000000000E+020
  9
$PEXTMAX
 10
-1.0000000000000000E+020
 20
-1.0000000000000000E+020
 30
-1.0000000000000000E+020
  9
$PLIMMIN
 10
0.0
 20
0.0
  9
$PLIMMAX
 10
12.0
 20
9.0
  9
$UNITMODE
 70
     0
  9
$VISRETAIN
 70
     0
  9
$PLINEGEN
 70
     0
  9
$PSLTSCALE
 70
     0
  0
ENDSEC
  0
SECTION
  2
TABLES
  0
TABLE
  2
VPORT
 70
     1
  0
VPORT
  2
*ACTIVE
 70
     0
 10
0.0
 20
0.0
 11
1.0
 21
1.0
 12
93.747139195326156
 22
67.05183146954721
 13
0.0
 23
0.0
 14
5.0
 24
5.0
 15
10.0
 25
10.0
 16
0.0
 26
0.0
 36
1.0
 17
0.0
 27
0.0
 37
0.0
 40
138.6470298934976
 41
2.304913294797688
 42
50.0
 43
0.0
 44
0.0
 50
0.0
 51
0.0
 71
     0
 72
   100
 73
     1
 74
     0
 75
     0
 76
     0
 77
     0
 78
     2
  0
ENDTAB
  0
TABLE
  2
LTYPE
 70
     3
  0
LTYPE
  2
CONTINUOUS
 70
     0
  3
Solid Line
 72
    65
 73
     0
 40
0.0
  0
LTYPE
  2
CENTER
 70
     0
  3
____ _ ____ _ ____ _ ____ _ ____ _ ____ _ ____
 72
    65
 73
     4
 40
2.0
 49
1.25
 49
-0.25
 49
0.25
 49
-0.25
  0
LTYPE
  2
PHANTOM2
 70
     0
  3
___ _ _ ___ _ _ ___ _ _ ___ _ _
 72
    65
 73
     6
 40
1.25
 49
0.625
 49
-0.125
 49
0.125
 49
-0.125
 49
0.125
 49
-0.125
  0
ENDTAB
  0
TABLE
  2
LAYER
 70
     3
  0
LAYER
  2
0
 70
     0
 62
     7
  6
CONTINUOUS
  0
LAYER
  2
1
 70
     0
 62
     1
  6
CENTER
  0
LAYER
  2
3
 70
     0
 62
     3
  6
CONTINUOUS
  0
ENDTAB
  0
TABLE
  2
STYLE
 70
     2
  0
STYLE
  2
STANDARD
 70
     0
 40
0.0
 41
1.0
 50
0.0
 71
     0
 42
0.06
  3
TXT
  4
BIGFONT
  0
STYLE
  2
STANDARD1
 70
     0
 40
0.0
 41
1.0
 50
0.0
 71
     0
 42
3.0
  3
txt
  4

  0
ENDTAB
  0
TABLE
  2
VIEW
 70
     0
  0
ENDTAB
  0
TABLE
  2
UCS
 70
     0
  0
ENDTAB
  0
TABLE
  2
APPID
 70
     3
  0
APPID
  2
ACAD
 70
     0
  0
APPID
  2
ACAD_MLEADERVER
 70
     0
  0
APPID
  2
ACAD_NAV_VCDISPLAY
 70
     0
  0
ENDTAB
  0
TABLE
  2
DIMSTYLE
 70
     1
  0
DIMSTYLE
  2
STANDARD
 70
     0
  3

  4

  5

  6

  7

 40
1.0
 41
0.18
 42
0.0625
 43
0.38
 44
0.18
 45
0.0
 46
0.0
 47
0.0
 48
0.0
140
0.18
141
0.09
142
0.0
143
25.399999999999999
144
1.0
145
0.0
146
1.0
147
0.09
 71
     0
 72
     0
 73
     1
 74
     1
 75
     0
 76
     0
 77
     0
 78
     0
170
     0
171
     2
172
     0
173
     0
174
     0
175
     0
176
     0
177
     0
178
     0
  0
ENDTAB
  0
ENDSEC
  0
SECTION
  2
BLOCKS
  0
BLOCK
  8
0
  2
$MODEL_SPACE
 70
     0
 10
0.0
 20
0.0
 30
0.0
  3
$MODEL_SPACE
  1

  0
ENDBLK
  5
131
  8
0
  0
BLOCK
 67
     1
  8
0
  2
$PAPER_SPACE
 70
     0
 10
0.0
 20
0.0
 30
0.0
  3
$PAPER_SPACE
  1

  0
ENDBLK
  5
12F
 67
     1
  8
0
  0
ENDSEC
  0
SECTION
  2
ENTITIES
  0
POLYLINE
  5
A54
  8
0
 66
     1
 10
0.0
 20
0.0
 30
0.0
 70
   128
  0
VERTEX
  5
F3C
  8
0
 10
41.973657554642323
 20
116.5569841446231
 30
0.0
  0
VERTEX
  5
F3D
  8
0
 10
42.085201128081451
 20
116.693014051194
 30
0.0
  0
VERTEX
  5
F3E
  8
0
 10
42.216061263040672
 20
116.85260176228979
 30
0.0
  0
VERTEX
  5
F3F
  8
0
 10
42.36118134360111
 20
117.0295791284988
 30
0.0
  0
VERTEX
  5
F40
  8
0
 10
42.514953410879741
 20
117.217107913817
 30
0.0
  0
VERTEX
  5
F41
  8
0
 10
42.671434695527921
 20
117.4079405659686
 30
0.0
  0
VERTEX
  5
F42
  8
0
 10
42.824578120068672
 20
117.5947024071465
 30
0.0
  0
VERTEX
  5
F43
  8
0
 10
42.968465595201621
 20
117.7701775500427
 30
0.0
  0
VERTEX
  5
F44
  8
0
 10
43.097536659494999
 20
117.9275822410236
 30
0.0
  0
VERTEX
  5
F45
  8
0
 10
43.206803149239192
 20
118.0608358749996
 30
0.0
  0
VERTEX
  5
F46
  8
0
 10
43.292042913542161
 20
118.164788238133
 30
0.0
  0
SEQEND
  5
F47
  8
0
  0
ARC
  5
A55
  8
0
 10
43.492170309564521
 20
116.7068755277207
 30
0.0
 40
1.4715843318751489
 50
51.922485467299317
 51
97.816131736220825
  0
LINE
  5
A56
  8
0
 10
44.399736097709301
 20
117.8652730354915
 30
0.0
 11
44.514224513129363
 21
117.75087868365149
 31
0.0
  0
ARC
  5
A57
  8
0
 10
43.394586267233898
 20
116.8526736620701
 30
0.0
 40
1.4353961343357129
 50
351.61796251557638
 51
38.737558092732549
  0
POLYLINE
  5
A58
  8
0
 66
     1
 10
0.0
 20
0.0
 30
0.0
 70
   128
  0
VERTEX
  5
F48
  8
0
 10
43.207929583893183
 20
115.3237258599947
 30
0.0
  0
VERTEX
  5
F49
  8
0
 10
43.343867755190502
 20
115.4353811921428
 30
0.0
  0
VERTEX
  5
F4A
  8
0
 10
43.503347432867649
 20
115.5663721779237
 30
0.0
  0
VERTEX
  5
F4B
  8
0
 10
43.680206055448423
 20
115.7116380104671
 30
0.0
  0
VERTEX
  5
F4C
  8
0
 10
43.867608180896411
 20
115.8655637459705
 30
0.0
  0
VERTEX
  5
F4D
  8
0
 10
44.058312310532692
 20
116.02220195847249
 30
0.0
  0
VERTEX
  5
F4E
  8
0
 10
44.244948423163059
 20
116.1754985855768
 30
0.0
  0
VERTEX
  5
F4F
  8
0
 10
44.420304356769691
 20
116.3195304157088
 30
0.0
  0
VERTEX
  5
F50
  8
0
 10
44.577603808299671
 20
116.44873046817879
 30
0.0
  0
VERTEX
  5
F51
  8
0
 10
44.710767103985908
 20
116.5581068539868
 30
0.0
  0
VERTEX
  5
F52
  8
0
 10
44.814649617926243
 20
116.6434318343053
 30
0.0
  0
SEQEND
  5
F53
  8
0
  0
ARC
  5
A59
  8
0
 10
47.310729177662182
 20
120.6641704219327
 30
0.0
 40
6.7344868123535697
 50
217.58037000481059
 51
232.46670806736461
  0
POLYLINE
  5
A5A
  8
0
 66
     1
 10
0.0
 20
0.0
 30
0.0
 70
   128
  0
VERTEX
  5
F54
  8
0
 10
40.522504712150457
 20
117.5257510090123
 30
0.0
  0
VERTEX
  5
F55
  8
0
 10
40.60536680992044
 20
117.6809289077173
 30
0.0
  0
VERTEX
  5
F56
  8
0
 10
40.702578725920091
 20
117.86297918799021
 30
0.0
  0
VERTEX
  5
F57
  8
0
 10
40.810383970544699
 20
118.06486757042509
 30
0.0
  0
VERTEX
  5
F58
  8
0
 10
40.924616272256742
 20
118.2787923658143
 30
0.0
  0
VERTEX
  5
F59
  8
0
 10
41.040861162052522
 20
118.4964862236629
 30
0.0
  0
VERTEX
  5
F5A
  8
0
 10
41.154626405493381
 20
118.7095365071545
 30
0.0
  0
VERTEX
  5
F5B
  8
0
 10
41.261515694365862
 20
118.9097103247295
 30
0.0
  0
VERTEX
  5
F5C
  8
0
 10
41.357398613051537
 20
119.0892721110831
 30
0.0
  0
VERTEX
  5
F5D
  8
0
 10
41.43856896336473
 20
119.2412816503892
 30
0.0
  0
VERTEX
  5
F5E
  8
0
 10
41.501890982196691
 20
119.3598660224925
 30
0.0
  0
SEQEND
  5
F5F
  8
0
  0
ARC
  5
A5B
  8
0
 10
41.982597529557843
 20
117.969012408514
 30
0.0
 40
1.4715816525741341
 50
63.172423613961101
 51
109.0661629704308
  0
LINE
  5
A5C
  8
0
 10
42.6467327612201
 20
119.28220582696299
 30
0.0
 11
42.781338209913137
 21
119.1923453057061
 31
0.0
  0
ARC
  5
A5D
  8
0
 10
41.858442367116417
 20
118.09296728161431
 30
0.0
 40
1.4353984730754701
 50
2.8680235780617371
 51
49.987519784958792
  0
ARC
  5
A5E
  8
0
 10
42.12986127102738
 20
122.9271429272398
 30
0.0
 40
6.3720736433881182
 50
260.7108168752693
 51
268.59532221385621
  0
ARC
  5
A5F
  8
0
 10
41.833756015649783
 20
117.9186720684164
 30
0.0
 40
1.4747881203752731
 50
232.3259259629873
 51
240.22114775787259
  0
ARC
  5
A60
  8
0
 10
46.345922326092811
 20
120.11263996536719
 30
0.0
 40
6.3721414908086427
 50
203.95183487925931
 51
211.83625139097961
  0
POLYLINE
  5
A61
  8
0
 66
     1
 10
0.0
 20
0.0
 30
0.0
 70
   128
  0
VERTEX
  5
F60
  8
0
 10
38.910238652185569
 20
118.1927977645646
 30
0.0
  0
VERTEX
  5
F61
  8
0
 10
38.961234849573138
 20
118.36115946563579
 30
0.0
  0
VERTEX
  5
F62
  8
0
 10
39.0210627789358
 20
118.558677151228
 30
0.0
  0
VERTEX
  5
F63
  8
0
 10
39.087409733490119
 20
118.77771770151951
 30
0.0
  0
VERTEX
  5
F64
  8
0
 10
39.157712480680118
 20
119.00981818827491
 30
0.0
  0
VERTEX
  5
F65
  8
0
 10
39.229253654063712
 20
119.2460071811328
 30
0.0
  0
VERTEX
  5
F66
  8
0
 10
39.299269088239441
 20
119.47715865018471
 30
0.0
  0
VERTEX
  5
F67
  8
0
 10
39.365052592636118
 20
119.69433841797211
 30
0.0
  0
VERTEX
  5
F68
  8
0
 10
39.42406212228633
 20
119.88915526809789
 30
0.0
  0
VERTEX
  5
F69
  8
0
 10
39.474017566696773
 20
120.0540803888689
 30
0.0
  0
VERTEX
  5
F6A
  8
0
 10
39.512988061339627
 20
120.1827388772617
 30
0.0
  0
SEQEND
  5
F6B
  8
0
  0
ARC
  5
A62
  8
0
 10
40.255801506931981
 20
118.91239077553961
 30
0.0
 40
1.471582860222894
 50
74.422487240269234
 51
120.3162013405197
  0
LINE
  5
A63
  8
0
 10
40.650982989625099
 20
120.3299195090185
 30
0.0
 11
40.800532906011711
 21
120.2680452311287
 31
0.0
  0
ARC
  5
A64
  8
0
 10
40.109851101184461
 20
119.0097455871409
 30
0.0
 40
1.4353951893396319
 50
14.11797036274932
 51
61.237577173134092
  0
ARC
  5
A65
  8
0
 10
42.269318646518592
 20
124.0298009791934
 30
0.0
 40
6.7345396974044052
 50
240.0804237767741
 51
254.9666437451701
  0
POLYLINE
  5
A66
  8
0
 66
     1
 10
0.0
 20
0.0
 30
0.0
 70
   128
  0
VERTEX
  5
F6C
  8
0
 10
37.198817355253773
 20
118.532490223075
 30
0.0
  0
VERTEX
  5
F6D
  8
0
 10
37.215988091354291
 20
118.70756489726411
 30
0.0
  0
VERTEX
  5
F6E
  8
0
 10
37.236132482227902
 20
118.91295970919229
 30
0.0
  0
VERTEX
  5
F6F
  8
0
 10
37.258472000409881
 20
119.14073513391121
 30
0.0
  0
VERTEX
  5
F70
  8
0
 10
37.282143309873561
 20
119.38209110441311
 30
0.0
  0
VERTEX
  5
F71
  8
0
 10
37.306231735435347
 20
119.6276985624681
 30
0.0
  0
VERTEX
  5
F72
  8
0
 10
37.329806361974249
 20
119.8680673310409
 30
0.0
  0
VERTEX
  5
F73
  8
0
 10
37.351956006766329
 20
120.0939093300949
 30
0.0
  0
VERTEX
  5
F74
  8
0
 10
37.371824958988498
 20
120.2964943418155
 30
0.0
  0
VERTEX
  5
F75
  8
0
 10
37.388645226762662
 20
120.4679964626084
 30
0.0
  0
VERTEX
  5
F76
  8
0
 10
37.401766863347063
 20
120.6017856070648
 30
0.0
  0
SEQEND
  5
F77
  8
0
  0
ARC
  5
A67
  8
0
 10
38.354936829957133
 20
119.5696296394261
 30
0.0
 40
1.40494801568585
 50
84.51692998714401
 51
132.72169448823669
  0
LINE
  5
A68
  8
0
 10
38.48918189543582
 20
120.96814928146701
 30
0.0
 11
38.647929320738683
 21
120.9366407761226
 31
0.0
  0
ARC
  5
A69
  8
0
 10
38.215999498469252
 20
119.56777299831541
 30
0.0
 40
1.435396239539749
 50
25.367924022190621
 51
72.487533585111365
  0
ARC
  5
A6A
  8
0
 10
36.616771329825731
 20
124.1379202176533
 30
0.0
 40
6.3721639449210876
 50
283.21087272421028
 51
291.0952644836554
  0
ARC
  5
A6B
  8
0
 10
38.259891184080722
 20
119.3972956249257
 30
0.0
 40
1.47478812037527
 50
254.8259259629865
 51
262.72114775787259
  0
ARC
  5
A6C
  8
0
 10
41.58905111811702
 20
123.15104959031019
 30
0.0
 40
6.3722243464319899
 50
226.45183636183901
 51
234.33615471916929
  0
POLYLINE
  5
A6D
  8
0
 66
     1
 10
0.0
 20
0.0
 30
0.0
 70
   128
  0
VERTEX
  5
F78
  8
0
 10
35.454009832044157
 20
118.5317731046925
 30
0.0
  0
VERTEX
  5
F79
  8
0
 10
35.436695264813522
 20
118.706833809043
 30
0.0
  0
VERTEX
  5
F7A
  8
0
 10
35.416382129930923
 20
118.91221185716491
 30
0.0
  0
VERTEX
  5
F7B
  8
0
 10
35.393855532326768
 20
119.1399695867549
 30
0.0
  0
VERTEX
  5
F7C
  8
0
 10
35.369985909362363
 20
119.3813050681601
 30
0.0
  0
VERTEX
  5
F7D
  8
0
 10
35.345695677840183
 20
119.6268929684411
 30
0.0
  0
VERTEX
  5
F7E
  8
0
 10
35.321923669123123
 20
119.8672431105624
 30
0.0
  0
VERTEX
  5
F7F
  8
0
 10
35.299588341892729
 20
120.0930655518423
 30
0.0
  0
VERTEX
  5
F80
  8
0
 10
35.27955303217567
 20
120.2956347310792
 30
0.0
  0
VERTEX
  5
F81
  8
0
 10
35.262591785446773
 20
120.46712288203339
 30
0.0
  0
VERTEX
  5
F82
  8
0
 10
35.249360252798567
 20
120.6009017819415
 30
0.0
  0
SEQEND
  5
F83
  8
0
  0
ARC
  5
A6E
  8
0
 10
36.421769205285898
 20
119.71151696145959
 30
0.0
 40
1.471580140792869
 50
96.922408430068643
 51
142.81618899324411
  0
LINE
  5
A6F
  8
0
 10
36.244406864732071
 20
121.1723696956287
 30
0.0
 11
36.406251126770428
 21
121.1724367508541
 31
0.0
  0
ARC
  5
A70
  8
0
 10
36.24967069836643
 20
119.7456010313123
 30
0.0
 40
1.435401546996383
 50
36.618024061536261
 51
83.737441500933656
  0
ARC
  5
A71
  8
0
 10
36.323669015046221
 20
125.20991529245779
 30
0.0
 40
6.7345296921603968
 50
262.58042682175028
 51
277.46667046991757
  0
POLYLINE
  5
A72
  8
0
 66
     1
 10
0.0
 20
0.0
 30
0.0
 70
   128
  0
VERTEX
  5
F84
  8
0
 10
33.74286822292305
 20
118.190675280417
 30
0.0
  0
VERTEX
  5
F85
  8
0
 10
33.691733724133137
 20
118.3589941406498
 30
0.0
  0
VERTEX
  5
F86
  8
0
 10
33.631743744642513
 20
118.5564624661456
 30
0.0
  0
VERTEX
  5
F87
  8
0
 10
33.565216579169999
 20
118.7754489997278
 30
0.0
  0
VERTEX
  5
F88
  8
0
 10
33.494723376513491
 20
119.0074917444835
 30
0.0
  0
VERTEX
  5
F89
  8
0
 10
33.42298802237309
 20
119.24362206401931
 30
0.0
  0
VERTEX
  5
F8A
  8
0
 10
33.352782831222783
 20
119.4747157910715
 30
0.0
  0
VERTEX
  5
F8B
  8
0
 10
33.286820745722423
 20
119.6918415421496
 30
0.0
  0
VERTEX
  5
F8C
  8
0
 10
33.227651028589378
 20
119.8866099635015
 30
0.0
  0
VERTEX
  5
F8D
  8
0
 10
33.177560309574972
 20
120.0514941060792
 30
0.0
  0
VERTEX
  5
F8E
  8
0
 10
33.138484109819899
 20
120.1801209295044
 30
0.0
  0
SEQEND
  5
F8F
  8
0
  0
ARC
  5
A73
  8
0
 10
34.461878607089261
 20
119.536548644633
 30
0.0
 40
1.471583596421737
 50
108.1724850958623
 51
154.0661511908188
  0
LINE
  5
A74
  8
0
 10
34.002923055247443
 20
120.9347324961672
 30
0.0
 11
34.161644636348854
 21
120.96637138667209
 31
0.0
  0
ARC
  5
A75
  8
0
 10
34.297043931452947
 20
119.5679767930616
 30
0.0
 40
1.4049343075581
 50
47.325158538702063
 51
95.530413511972682
  0
ARC
  5
A76
  8
0
 10
31.060000947052369
 20
123.1467044956905
 30
0.0
 40
6.3721978802455101
 50
305.71089180969739
 51
313.59524090412617
  0
ARC
  5
A77
  8
0
 10
34.392225876451278
 20
119.39570680452
 30
0.0
 40
1.4747881203752631
 50
277.3259259629869
 51
285.2211477578719
  0
ARC
  5
A78
  8
0
 10
36.03137693460841
 20
124.13744921442159
 30
0.0
 40
6.3719221860923536
 50
248.95167962214899
 51
256.83636989169912
  0
POLYLINE
  5
A79
  8
0
 66
     1
 10
0.0
 20
0.0
 30
0.0
 70
   128
  0
VERTEX
  5
F90
  8
0
 10
32.13115047912396
 20
117.5223041841636
 30
0.0
  0
VERTEX
  5
F91
  8
0
 10
32.048161255822549
 20
117.6774131649981
 30
0.0
  0
VERTEX
  5
F92
  8
0
 10
31.950799862549669
 20
117.8593842828522
 30
0.0
  0
VERTEX
  5
F93
  8
0
 10
31.84282884250678
 20
118.0611841896425
 30
0.0
  0
VERTEX
  5
F94
  8
0
 10
31.728420986489422
 20
118.2750149214516
 30
0.0
  0
VERTEX
  5
F95
  8
0
 10
31.611997282759319
 20
118.4926128530751
 30
0.0
  0
VERTEX
  5
F96
  8
0
 10
31.498056950674421
 20
118.70557000430919
 30
0.0
  0
VERTEX
  5
F97
  8
0
 10
31.391002817706241
 20
118.9056553462396
 30
0.0
  0
VERTEX
  5
F98
  8
0
 10
31.29497275005377
 20
119.0851379701744
 30
0.0
  0
VERTEX
  5
F99
  8
0
 10
31.213677136854301
 20
119.2370813855777
 30
0.0
  0
VERTEX
  5
F9A
  8
0
 10
31.150257794813282
 20
119.3556136036168
 30
0.0
  0
SEQEND
  5
F9B
  8
0
  0
ARC
  5
A7A
  8
0
 10
32.573777417342427
 20
118.98258931605029
 30
0.0
 40
1.4715825613400111
 50
119.4224429331553
 51
165.3161598567612
  0
LINE
  5
A7B
  8
0
 10
31.85086988161601
 20
120.2643693009267
 30
0.0
 11
32.000368575261007
 21
120.32636558207371
 31
0.0
  0
ARC
  5
A7C
  8
0
 10
32.401734718036643
 20
118.9482215711654
 30
0.0
 40
1.43540088315748
 50
59.118055763329053
 51
106.237499323549
  0
ARC
  5
A7D
  8
0
 10
30.379016517434341
 20
124.02486305291571
 30
0.0
 40
6.734481810896213
 50
285.0803595422708
 51
299.96671012248243
  0
POLYLINE
  5
A7E
  8
0
 66
     1
 10
0.0
 20
0.0
 30
0.0
 70
   128
  0
VERTEX
  5
F9C
  8
0
 10
30.680794383094678
 20
116.5523452268789
 30
0.0
  0
VERTEX
  5
F9D
  8
0
 10
30.5691390509466
 20
116.6882833981762
 30
0.0
  0
VERTEX
  5
F9E
  8
0
 10
30.438148065165649
 20
116.84776307585339
 30
0.0
  0
VERTEX
  5
F9F
  8
0
 10
30.292882232622279
 20
117.0246216984342
 30
0.0
  0
VERTEX
  5
FA0
  8
0
 10
30.138956497118841
 20
117.21202382388221
 30
0.0
  0
VERTEX
  5
FA1
  8
0
 10
29.982318284616841
 20
117.40272795351839
 30
0.0
  0
VERTEX
  5
FA2
  8
0
 10
29.829021657512548
 20
117.5893640661488
 30
0.0
  0
VERTEX
  5
FA3
  8
0
 10
29.684989827380551
 20
117.7647199997554
 30
0.0
  0
VERTEX
  5
FA4
  8
0
 10
29.555789774910579
 20
117.92201945128539
 30
0.0
  0
VERTEX
  5
FA5
  8
0
 10
29.446413389102592
 20
118.0551827469717
 30
0.0
  0
VERTEX
  5
FA6
  8
0
 10
29.361088408784038
 20
118.159065260912
 30
0.0
  0
SEQEND
  5
FA7
  8
0
  0
ARC
  5
A7F
  8
0
 10
30.83003167983432
 20
118.07092244639151
 30
0.0
 40
1.4715853659626741
 50
130.67249649234159
 51
176.56612796598671
  0
LINE
  5
A80
  8
0
 10
29.87094886849917
 20
119.1870423549662
 30
0.0
 11
30.005480277047521
 21
119.27701277228689
 31
0.0
  0
ARC
  5
A81
  8
0
 10
30.667996742588549
 20
118.0036531236188
 30
0.0
 40
1.4353998961854959
 50
70.368052901542939
 51
117.4875154015966
  0
ARC
  5
A82
  8
0
 10
26.305738336907179
 20
120.1043356001957
 30
0.0
 40
6.371994417767767
 50
328.21075987458028
 51
336.09536278106179
  0
ARC
  5
A83
  8
0
 10
30.819577075374731
 20
117.9141474907033
 30
0.0
 40
1.474788120375268
 50
299.82592596298662
 51
307.7211477578723
  0
ARC
  5
A84
  8
0
 10
30.51935984120723
 20
122.9223454828919
 30
0.0
 40
6.3720455407129606
 50
271.4517328251186
 51
279.33627164621601
  0
POLYLINE
  5
A85
  8
0
 66
     1
 10
0.0
 20
0.0
 30
0.0
 70
   128
  0
VERTEX
  5
FA8
  8
0
 10
29.447536098466291
 20
115.3180731976281
 30
0.0
  0
VERTEX
  5
FA9
  8
0
 10
29.311506191895369
 20
115.4296167710672
 30
0.0
  0
VERTEX
  5
FAA
  8
0
 10
29.151918480799559
 20
115.56047690602639
 30
0.0
  0
VERTEX
  5
FAB
  8
0
 10
28.974941114590528
 20
115.7055969865869
 30
0.0
  0
VERTEX
  5
FAC
  8
0
 10
28.787412329272399
 20
115.85936905386551
 30
0.0
  0
VERTEX
  5
FAD
  8
0
 10
28.596579677120811
 20
116.0158503385137
 30
0.0
  0
VERTEX
  5
FAE
  8
0
 10
28.409817835942871
 20
116.1689937630544
 30
0.0
  0
VERTEX
  5
FAF
  8
0
 10
28.234342693046699
 20
116.3128812381874
 30
0.0
  0
VERTEX
  5
FB0
  8
0
 10
28.076938002065791
 20
116.4419523024808
 30
0.0
  0
VERTEX
  5
FB1
  8
0
 10
27.943684368089801
 20
116.5512187922249
 30
0.0
  0
VERTEX
  5
FB2
  8
0
 10
27.839732004956371
 20
116.6364585565279
 30
0.0
  0
SEQEND
  5
FB3
  8
0
  0
ARC
  5
A86
  8
0
 10
29.297644715368619
 20
116.83658595255029
 30
0.0
 40
1.4715843318751149
 50
141.92248546729931
 51
187.8161317362208
  0
LINE
  5
A87
  8
0
 10
28.139247207597862
 20
117.7441517406951
 30
0.0
 11
28.253641559437881
 21
117.8586401561151
 31
0.0
  0
ARC
  5
A88
  8
0
 10
29.151846581019271
 20
116.7390019102197
 30
0.0
 40
1.4353961343357
 50
81.617962515576338
 51
128.73755809273379
  0
ARC
  5
A89
  8
0
 10
25.34034982115665
 20
120.655144820648
 30
0.0
 40
6.7344868123536017
 50
307.58037000481062
 51
322.46670806736228
  0
POLYLINE
  5
A8A
  8
0
 66
     1
 10
0.0
 20
0.0
 30
0.0
 70
   128
  0
VERTEX
  5
FB4
  8
0
 10
28.478769234077099
 20
113.8669203551362
 30
0.0
  0
VERTEX
  5
FB5
  8
0
 10
28.3235913353721
 20
113.94978245290621
 30
0.0
  0
VERTEX
  5
FB6
  8
0
 10
28.14154105509914
 20
114.0469943689058
 30
0.0
  0
VERTEX
  5
FB7
  8
0
 10
27.939652672664291
 20
114.1547996135304
 30
0.0
  0
VERTEX
  5
FB8
  8
0
 10
27.725727877275119
 20
114.26903191524249
 30
0.0
  0
VERTEX
  5
FB9
  8
0
 10
27.508034019426471
 20
114.3852768050383
 30
0.0
  0
VERTEX
  5
FBA
  8
0
 10
27.29498373593486
 20
114.4990420484791
 30
0.0
  0
VERTEX
  5
FBB
  8
0
 10
27.094809918359889
 20
114.60593133735161
 30
0.0
  0
VERTEX
  5
FBC
  8
0
 10
26.915248132006301
 20
114.7018142560373
 30
0.0
  0
VERTEX
  5
FBD
  8
0
 10
26.76323859270013
 20
114.7829846063505
 30
0.0
  0
VERTEX
  5
FBE
  8
0
 10
26.644654220596919
 20
114.84630662518239
 30
0.0
  0
SEQEND
  5
FBF
  8
0
  0
ARC
  5
A8B
  8
0
 10
28.035507834575359
 20
115.3270131725436
 30
0.0
 40
1.471581652574147
 50
153.17242361396319
 51
199.0661629704307
  0
LINE
  5
A8C
  8
0
 10
26.72231441612638
 20
115.9911484042059
 30
0.0
 11
26.8121749373833
 21
116.1257538528989
 31
0.0
  0
ARC
  5
A8D
  8
0
 10
27.911552961475049
 20
115.2028580101022
 30
0.0
 40
1.435398473075441
 50
92.868023578061724
 51
139.98751978496
  0
ARC
  5
A8E
  8
0
 10
23.07737731584956
 20
115.4742769140132
 30
0.0
 40
6.3720736433881351
 50
350.7108168752693
 51
358.59532221385462
  0
ARC
  5
A8F
  8
0
 10
28.085848174673011
 20
115.17817165863551
 30
0.0
 40
1.4747881203752731
 50
322.3259259629873
 51
330.22114775787122
  0
ARC
  5
A90
  8
0
 10
25.89188027772218
 20
119.6903379690786
 30
0.0
 40
6.3721414908086631
 50
293.95183487925931
 51
301.83625139097819
  0
POLYLINE
  5
A91
  8
0
 66
     1
 10
0.0
 20
0.0
 30
0.0
 70
   128
  0
VERTEX
  5
FC0
  8
0
 10
44.846259637431267
 20
112.2616520201663
 30
0.0
  0
VERTEX
  5
FC1
  8
0
 10
45.014578497664097
 20
112.3127865189562
 30
0.0
  0
VERTEX
  5
FC2
  8
0
 10
45.212046823159817
 20
112.3727764984469
 30
0.0
  0
VERTEX
  5
FC3
  8
0
 10
45.431033356742027
 20
112.4393036639194
 30
0.0
  0
VERTEX
  5
FC4
  8
0
 10
45.663076101497772
 20
112.5097968665759
 30
0.0
  0
VERTEX
  5
FC5
  8
0
 10
45.899206421033512
 20
112.5815322207163
 30
0.0
  0
VERTEX
  5
FC6
  8
0
 10
46.130300148085723
 20
112.65173741186661
 30
0.0
  0
VERTEX
  5
FC7
  8
0
 10
46.347425899163852
 20
112.71769949736699
 30
0.0
  0
VERTEX
  5
FC8
  8
0
 10
46.542194320515762
 20
112.7768692145
 30
0.0
  0
VERTEX
  5
FC9
  8
0
 10
46.707078463093403
 20
112.8269599335144
 30
0.0
  0
VERTEX
  5
FCA
  8
0
 10
46.835705286518703
 20
112.8660361332695
 30
0.0
  0
SEQEND
  5
FCB
  8
0
  0
ARC
  5
A92
  8
0
 10
46.19213300164725
 20
111.5426416360001
 30
0.0
 40
1.4715835964217541
 50
18.17248509586226
 51
64.066151190816626
  0
LINE
  5
A93
  8
0
 10
47.590316853181491
 20
112.0015971878419
 30
0.0
 11
47.621955743686321
 21
111.84287560674051
 31
0.0
  0
ARC
  5
A94
  8
0
 10
46.223561150075852
 20
111.7074763116364
 30
0.0
 40
1.404934307558094
 50
317.32515853870427
 51
5.5304135119726903
  0
POLYLINE
  5
A95
  8
0
 66
     1
 10
0.0
 20
0.0
 30
0.0
 70
   128
  0
VERTEX
  5
FCC
  8
0
 10
45.18735746170676
 20
110.5505104110452
 30
0.0
  0
VERTEX
  5
FCD
  8
0
 10
45.362418166057232
 20
110.56782497827589
 30
0.0
  0
VERTEX
  5
FCE
  8
0
 10
45.567796214179161
 20
110.58813811315849
 30
0.0
  0
VERTEX
  5
FCF
  8
0
 10
45.7955539437691
 20
110.61066471076261
 30
0.0
  0
VERTEX
  5
FD0
  8
0
 10
46.036889425174358
 20
110.634534333727
 30
0.0
  0
VERTEX
  5
FD1
  8
0
 10
46.282477325455311
 20
110.6588245652492
 30
0.0
  0
VERTEX
  5
FD2
  8
0
 10
46.522827467576633
 20
110.68259657396629
 30
0.0
  0
VERTEX
  5
FD3
  8
0
 10
46.748649908856521
 20
110.7049319011967
 30
0.0
  0
VERTEX
  5
FD4
  8
0
 10
46.951219088093403
 20
110.7249672109137
 30
0.0
  0
VERTEX
  5
FD5
  8
0
 10
47.122707239047649
 20
110.7419284576426
 30
0.0
  0
VERTEX
  5
FD6
  8
0
 10
47.256486138955722
 20
110.75515999029081
 30
0.0
  0
SEQEND
  5
FD7
  8
0
  0
ARC
  5
A96
  8
0
 10
49.802288852704748
 20
114.944519296037
 30
0.0
 40
6.3721978802455101
 50
215.7108918096975
 51
223.59524090412739
  0
ARC
  5
A97
  8
0
 10
46.051291161534202
 20
111.6122943666381
 30
0.0
 40
1.4747881203752791
 50
187.32592596298679
 51
195.22114775787179
  0
ARC
  5
A98
  8
0
 10
50.793033571435807
 20
109.973143308481
 30
0.0
 40
6.3719221860923341
 50
158.9516796221474
 51
166.83636989169861
  0
POLYLINE
  5
A99
  8
0
 66
     1
 10
0.0
 20
0.0
 30
0.0
 70
   128
  0
VERTEX
  5
FD8
  8
0
 10
44.177888541177872
 20
113.8733697639654
 30
0.0
  0
VERTEX
  5
FD9
  8
0
 10
44.332997522012363
 20
113.9563589872668
 30
0.0
  0
VERTEX
  5
FDA
  8
0
 10
44.514968639866481
 20
114.0537203805397
 30
0.0
  0
VERTEX
  5
FDB
  8
0
 10
44.716768546656731
 20
114.1616914005826
 30
0.0
  0
VERTEX
  5
FDC
  8
0
 10
44.93059927846587
 20
114.27609925660001
 30
0.0
  0
VERTEX
  5
FDD
  8
0
 10
45.148197210089329
 20
114.3925229603301
 30
0.0
  0
VERTEX
  5
FDE
  8
0
 10
45.361154361323479
 20
114.50646329241501
 30
0.0
  0
VERTEX
  5
FDF
  8
0
 10
45.561239703253868
 20
114.61351742538309
 30
0.0
  0
VERTEX
  5
FE0
  8
0
 10
45.740722327188621
 20
114.7095474930356
 30
0.0
  0
VERTEX
  5
FE1
  8
0
 10
45.89266574259198
 20
114.7908431062351
 30
0.0
  0
VERTEX
  5
FE2
  8
0
 10
46.011197960631023
 20
114.8542624482761
 30
0.0
  0
SEQEND
  5
FE3
  8
0
  0
ARC
  5
A9A
  8
0
 10
45.6381736730645
 20
113.430742825747
 30
0.0
 40
1.4715825613400311
 50
29.422442933153121
 51
75.31615985675964
  0
LINE
  5
A9B
  8
0
 10
46.919953657940987
 20
114.1536503614734
 30
0.0
 11
46.98194993908799
 21
114.0041516678284
 31
0.0
  0
ARC
  5
A9C
  8
0
 10
45.603805928179582
 20
113.6027855250527
 30
0.0
 40
1.4354008831574989
 50
329.11805576332898
 51
16.237499323547478
  0
ARC
  5
A9D
  8
0
 10
50.680447409929883
 20
115.62550372565499
 30
0.0
 40
6.734481810896181
 50
195.08035954227239
 51
209.9667101224824
  0
ARC
  5
A9E
  8
0
 10
44.726506803405663
 20
115.1744885632551
 30
0.0
 40
1.4715853659627049
 50
40.672496492340407
 51
86.566127965985103
  0
LINE
  5
A9F
  8
0
 10
45.842626711980472
 20
116.1335713745902
 30
0.0
 11
45.9325971293012
 21
115.99903996604191
 31
0.0
  0
ARC
  5
AA0
  8
0
 10
44.659237480633031
 20
115.3365235005008
 30
0.0
 40
1.435399896185479
 50
340.36805290154291
 51
27.487515401596632
  0
ARC
  5
AA1
  8
0
 10
46.759919957209974
 20
119.69878190618221
 30
0.0
 40
6.3719944177677244
 50
238.21075987458121
 51
246.09536278106179
  0
ARC
  5
AA2
  8
0
 10
44.569731847717492
 20
115.18494316771459
 30
0.0
 40
1.4747881203752591
 50
209.82592596298659
 51
217.7211477578723
  0
ARC
  5
AA3
  8
0
 10
49.577929839906183
 20
115.4851604018821
 30
0.0
 40
6.3720455407129437
 50
181.45173282511851
 51
189.33627164621601
  0
POLYLINE
  5
AA4
  8
0
 66
     1
 10
0.0
 20
0.0
 30
0.0
 70
   128
  0
VERTEX
  5
FE4
  8
0
 10
44.848382121578823
 20
107.0942815909038
 30
0.0
  0
VERTEX
  5
FE5
  8
0
 10
45.016743822650078
 20
107.0432853935162
 30
0.0
  0
VERTEX
  5
FE6
  8
0
 10
45.214261508242252
 20
106.9834574641536
 30
0.0
  0
VERTEX
  5
FE7
  8
0
 10
45.433302058533791
 20
106.9171105095993
 30
0.0
  0
VERTEX
  5
FE8
  8
0
 10
45.665402545289162
 20
106.8468077624093
 30
0.0
  0
VERTEX
  5
FE9
  8
0
 10
45.901591538147102
 20
106.7752665890257
 30
0.0
  0
VERTEX
  5
FEA
  8
0
 10
46.132743007198933
 20
106.7052511548499
 30
0.0
  0
VERTEX
  5
FEB
  8
0
 10
46.349922774986389
 20
106.6394676504533
 30
0.0
  0
VERTEX
  5
FEC
  8
0
 10
46.544739625112179
 20
106.5804581208031
 30
0.0
  0
VERTEX
  5
FED
  8
0
 10
46.70966474588311
 20
106.5305026763926
 30
0.0
  0
VERTEX
  5
FEE
  8
0
 10
46.83832323427594
 20
106.4915321817498
 30
0.0
  0
SEQEND
  5
FEF
  8
0
  0
ARC
  5
AA5
  8
0
 10
45.56797513255384
 20
105.7487187361574
 30
0.0
 40
1.471582860222904
 50
344.42248724026922
 51
30.316201340519779
  0
LINE
  5
AA6
  8
0
 10
46.985503866032722
 20
105.3535372534643
 30
0.0
 11
46.923629588143001
 21
105.20398733707771
 31
0.0
  0
ARC
  5
AA7
  8
0
 10
45.665329944155189
 20
105.8946691419049
 30
0.0
 40
1.435395189339618
 50
284.11797036274942
 51
331.23757717313413
  0
POLYLINE
  5
AA8
  8
0
 66
     1
 10
0.0
 20
0.0
 30
0.0
 70
   128
  0
VERTEX
  5
FF0
  8
0
 10
44.181335366026531
 20
105.4820155309389
 30
0.0
  0
VERTEX
  5
FF1
  8
0
 10
44.336513264731529
 20
105.39915343316891
 30
0.0
  0
VERTEX
  5
FF2
  8
0
 10
44.51856354500449
 20
105.3019415171693
 30
0.0
  0
VERTEX
  5
FF3
  8
0
 10
44.720451927439342
 20
105.1941362725447
 30
0.0
  0
VERTEX
  5
FF4
  8
0
 10
44.93437672282851
 20
105.0799039708326
 30
0.0
  0
VERTEX
  5
FF5
  8
0
 10
45.152070580677162
 20
104.96365908103689
 30
0.0
  0
VERTEX
  5
FF6
  8
0
 10
45.365120864168773
 20
104.849893837596
 30
0.0
  0
VERTEX
  5
FF7
  8
0
 10
45.565294681743751
 20
104.7430045487235
 30
0.0
  0
VERTEX
  5
FF8
  8
0
 10
45.744856468097332
 20
104.6471216300378
 30
0.0
  0
VERTEX
  5
FF9
  8
0
 10
45.896866007403503
 20
104.5659512797247
 30
0.0
  0
VERTEX
  5
FFA
  8
0
 10
46.01545037950671
 20
104.5026292608927
 30
0.0
  0
SEQEND
  5
FFB
  8
0
  0
ARC
  5
AA9
  8
0
 10
50.685385336207673
 20
103.7352015965708
 30
0.0
 40
6.7345396974044078
 50
150.0804237767741
 51
164.96664374516999
  0
POLYLINE
  5
AAA
  8
0
 66
     1
 10
0.0
 20
0.0
 30
0.0
 70
   128
  0
VERTEX
  5
FFC
  8
0
 10
45.188074580089221
 20
108.80570288783559
 30
0.0
  0
VERTEX
  5
FFD
  8
0
 10
45.363149254278312
 20
108.7885321517351
 30
0.0
  0
VERTEX
  5
FFE
  8
0
 10
45.568544066206577
 20
108.7683877608615
 30
0.0
  0
VERTEX
  5
FFF
  8
0
 10
45.796319490925441
 20
108.74604824267951
 30
0.0
  0
VERTEX
  5
1000
  8
0
 10
46.037675461427341
 20
108.7223769332158
 30
0.0
  0
VERTEX
  5
1001
  8
0
 10
46.28328291948236
 20
108.698288507654
 30
0.0
  0
VERTEX
  5
1002
  8
0
 10
46.52365168805516
 20
108.6747138811151
 30
0.0
  0
VERTEX
  5
1003
  8
0
 10
46.749493687109123
 20
108.6525642363231
 30
0.0
  0
VERTEX
  5
1004
  8
0
 10
46.95207869882978
 20
108.6326952841009
 30
0.0
  0
VERTEX
  5
1005
  8
0
 10
47.123580819622639
 20
108.6158750163267
 30
0.0
  0
VERTEX
  5
1006
  8
0
 10
47.257369964079032
 20
108.6027533797423
 30
0.0
  0
SEQEND
  5
1007
  8
0
  0
ARC
  5
AAB
  8
0
 10
46.225213996440353
 20
107.64958341313221
 30
0.0
 40
1.40494801568588
 50
354.5169299871456
 51
42.7216944882367
  0
LINE
  5
AAC
  8
0
 10
47.623733638481262
 20
107.5153383476536
 30
0.0
 11
47.592225133136871
 21
107.3565909223507
 31
0.0
  0
ARC
  5
AAD
  8
0
 10
46.22335735532954
 20
107.7885207446201
 30
0.0
 40
1.4353962395397419
 50
295.36792402219208
 51
342.4875335851134
  0
ARC
  5
AAE
  8
0
 10
50.793504574667537
 20
109.38774891326359
 30
0.0
 40
6.3721639449210521
 50
193.21087272421181
 51
201.0952644836554
  0
ARC
  5
AAF
  8
0
 10
46.052879981939917
 20
107.7446290590086
 30
0.0
 40
1.4747881203752791
 50
164.82592596298801
 51
172.7211477578727
  0
ARC
  5
AB0
  8
0
 10
49.8066339473244
 20
104.4154691249723
 30
0.0
 40
6.372224346431997
 50
136.45183636183901
 51
144.33615471916929
  0
ARC
  5
AB1
  8
0
 10
46.367101318473878
 20
109.5827510378035
 30
0.0
 40
1.471580140792887
 50
6.9224084300686597
 51
52.816188993244118
  0
LINE
  5
AB2
  8
0
 10
47.827954052642951
 20
109.7601133783573
 30
0.0
 11
47.828021107868317
 21
109.598269116319
 31
0.0
  0
ARC
  5
AB3
  8
0
 10
46.401185388326468
 20
109.7548495447229
 30
0.0
 40
1.4354015469964141
 50
306.61802406153748
 51
353.73744150093358
  0
ARC
  5
AB4
  8
0
 10
51.865499649472007
 20
109.6808512280432
 30
0.0
 40
6.7345296921603817
 50
172.58042682175031
 51
187.46667046991919
  0
POLYLINE
  5
AB5
  8
0
 66
     1
 10
0.0
 20
0.0
 30
0.0
 70
   128
  0
VERTEX
  5
1008
  8
0
 10
27.81172247852481
 20
112.25465429517131
 30
0.0
  0
VERTEX
  5
1009
  8
0
 10
27.643360777453552
 20
112.3056504925589
 30
0.0
  0
VERTEX
  5
100A
  8
0
 10
27.445843091861381
 20
112.36547842192149
 30
0.0
  0
VERTEX
  5
100B
  8
0
 10
27.226802541569839
 20
112.4318253764759
 30
0.0
  0
VERTEX
  5
100C
  8
0
 10
26.994702054814471
 20
112.5021281236659
 30
0.0
  0
VERTEX
  5
100D
  8
0
 10
26.758513061956531
 20
112.57366929704951
 30
0.0
  0
VERTEX
  5
100E
  8
0
 10
26.5273615929047
 20
112.64368473122521
 30
0.0
  0
VERTEX
  5
100F
  8
0
 10
26.31018182511724
 20
112.7094682356219
 30
0.0
  0
VERTEX
  5
1010
  8
0
 10
26.115364974991451
 20
112.7684777652721
 30
0.0
  0
VERTEX
  5
1011
  8
0
 10
25.950439854220519
 20
112.8184332096825
 30
0.0
  0
VERTEX
  5
1012
  8
0
 10
25.82178136582769
 20
112.85740370432541
 30
0.0
  0
SEQEND
  5
1013
  8
0
  0
ARC
  5
AB6
  8
0
 10
27.0921294675498
 20
113.6002171499178
 30
0.0
 40
1.4715828602228951
 50
164.42248724027081
 51
210.31620134052059
  0
LINE
  5
AB7
  8
0
 10
25.674600734070911
 20
113.9953986326109
 30
0.0
 11
25.736475011960639
 21
114.1449485489975
 31
0.0
  0
ARC
  5
AB8
  8
0
 10
26.994774655948451
 20
113.4542667441702
 30
0.0
 40
1.4353951893396011
 50
104.1179703627493
 51
151.23757717313549
  0
ARC
  5
AB9
  8
0
 10
21.97471926389596
 20
115.61373428950439
 30
0.0
 40
6.7345396974044389
 50
330.08042377677413
 51
344.96664374516803
  0
POLYLINE
  5
ABA
  8
0
 66
     1
 10
0.0
 20
0.0
 30
0.0
 70
   128
  0
VERTEX
  5
1014
  8
0
 10
43.212568501637342
 20
104.0308626884471
 30
0.0
  0
VERTEX
  5
1015
  8
0
 10
43.348598408208261
 20
103.91931911500789
 30
0.0
  0
VERTEX
  5
1016
  8
0
 10
43.508186119304071
 20
103.7884589800487
 30
0.0
  0
VERTEX
  5
1017
  8
0
 10
43.685163485513101
 20
103.6433388994883
 30
0.0
  0
VERTEX
  5
1018
  8
0
 10
43.87269227083123
 20
103.4895668322096
 30
0.0
  0
VERTEX
  5
1019
  8
0
 10
44.063524922982822
 20
103.3330855475615
 30
0.0
  0
VERTEX
  5
101A
  8
0
 10
44.250286764160762
 20
103.17994212302069
 30
0.0
  0
VERTEX
  5
101B
  8
0
 10
44.425761907056931
 20
103.03605464788779
 30
0.0
  0
VERTEX
  5
101C
  8
0
 10
44.583166598037842
 20
102.9069835835944
 30
0.0
  0
VERTEX
  5
101D
  8
0
 10
44.716420232013832
 20
102.7977170938502
 30
0.0
  0
VERTEX
  5
101E
  8
0
 10
44.820372595147262
 20
102.7124773295472
 30
0.0
  0
SEQEND
  5
101F
  8
0
  0
ARC
  5
ABB
  8
0
 10
43.362459884734953
 20
102.5123499335248
 30
0.0
 40
1.4715843318751449
 50
321.92248546729928
 51
7.8161317362208234
  0
LINE
  5
ABC
  8
0
 10
44.520857392505768
 20
101.60478414538009
 30
0.0
 11
44.406463040665749
 21
101.49029572996
 31
0.0
  0
ARC
  5
ABD
  8
0
 10
43.508258019084337
 20
102.6099339758555
 30
0.0
 40
1.435396134335702
 50
261.61796251557638
 51
308.73755809273382
  0
POLYLINE
  5
ABE
  8
0
 66
     1
 10
0.0
 20
0.0
 30
0.0
 70
   128
  0
VERTEX
  5
1020
  8
0
 10
41.979310217008951
 20
102.7965906591962
 30
0.0
  0
VERTEX
  5
1021
  8
0
 10
42.090965549157033
 20
102.6606524878989
 30
0.0
  0
VERTEX
  5
1022
  8
0
 10
42.221956534937981
 20
102.5011728102217
 30
0.0
  0
VERTEX
  5
1023
  8
0
 10
42.367222367481361
 20
102.32431418764099
 30
0.0
  0
VERTEX
  5
1024
  8
0
 10
42.521148102984789
 20
102.13691206219301
 30
0.0
  0
VERTEX
  5
1025
  8
0
 10
42.677786315486792
 20
101.9462079325567
 30
0.0
  0
VERTEX
  5
1026
  8
0
 10
42.831082942591081
 20
101.75957181992629
 30
0.0
  0
VERTEX
  5
1027
  8
0
 10
42.975114772723082
 20
101.5842158863197
 30
0.0
  0
VERTEX
  5
1028
  8
0
 10
43.10431482519305
 20
101.4269164347897
 30
0.0
  0
VERTEX
  5
1029
  8
0
 10
43.213691211001041
 20
101.2937531391035
 30
0.0
  0
VERTEX
  5
102A
  8
0
 10
43.299016191319588
 20
101.1898706251631
 30
0.0
  0
SEQEND
  5
102B
  8
0
  0
ARC
  5
ABF
  8
0
 10
47.319754778946923
 20
98.693791065427234
 30
0.0
 40
6.7344868123535608
 50
127.5803700048106
 51
142.46670806736361
  0
ARC
  5
AC0
  8
0
 10
44.624596765528217
 20
104.0219227135315
 30
0.0
 40
1.4715816525741849
 50
333.1724236139633
 51
19.066162970429229
  0
LINE
  5
AC1
  8
0
 10
45.937790183977249
 20
103.35778748186929
 30
0.0
 11
45.847929662720333
 21
103.2231820331762
 31
0.0
  0
ARC
  5
AC2
  8
0
 10
44.74855163862852
 20
104.14607787597291
 30
0.0
 40
1.4353984730754701
 50
272.86802357806329
 51
319.98751978496011
  0
ARC
  5
AC3
  8
0
 10
49.582727284254048
 20
103.87465897206199
 30
0.0
 40
6.3720736433880889
 50
170.7108168752693
 51
178.59532221385621
  0
ARC
  5
AC4
  8
0
 10
44.574256425430569
 20
104.17076422743961
 30
0.0
 40
1.474788120375262
 50
142.3259259629873
 51
150.2211477578725
  0
ARC
  5
AC5
  8
0
 10
46.768224322381421
 20
99.658597916996627
 30
0.0
 40
6.3721414908086302
 50
113.95183487925929
 51
121.8362513909796
  0
ARC
  5
AC6
  8
0
 10
26.607224618163681
 20
111.60430682706649
 30
0.0
 40
1.4747881203752691
 50
344.82592596299111
 51
352.72114775787111
  0
ARC
  5
AC7
  8
0
 10
22.853470652779212
 20
114.93346676110281
 30
0.0
 40
6.372224346432029
 50
316.45183636183901
 51
324.33615471916801
  0
POLYLINE
  5
AC8
  8
0
 66
     1
 10
0.0
 20
0.0
 30
0.0
 70
   128
  0
VERTEX
  5
102C
  8
0
 10
25.402734636024601
 20
110.7461825063328
 30
0.0
  0
VERTEX
  5
102D
  8
0
 10
25.536523780480991
 20
110.7330608697484
 30
0.0
  0
VERTEX
  5
102E
  8
0
 10
25.70802590127386
 20
110.71624060197421
 30
0.0
  0
VERTEX
  5
102F
  8
0
 10
25.91061091299451
 20
110.69637164975209
 30
0.0
  0
VERTEX
  5
1030
  8
0
 10
26.136452912048469
 20
110.67422200496
 30
0.0
  0
VERTEX
  5
1031
  8
0
 10
26.37682168062128
 20
110.6506473784211
 30
0.0
  0
VERTEX
  5
1032
  8
0
 10
26.622429138676299
 20
110.6265589528593
 30
0.0
  0
VERTEX
  5
1033
  8
0
 10
26.863785109178188
 20
110.6028876433956
 30
0.0
  0
VERTEX
  5
1034
  8
0
 10
27.091560533897049
 20
110.5805481252136
 30
0.0
  0
VERTEX
  5
1035
  8
0
 10
27.296955345825321
 20
110.56040373434
 30
0.0
  0
VERTEX
  5
1036
  8
0
 10
27.472030020014412
 20
110.5432329982395
 30
0.0
  0
SEQEND
  5
1037
  8
0
  0
ARC
  5
AC9
  8
0
 10
26.434890603663291
 20
111.69935247294291
 30
0.0
 40
1.4049480156858689
 50
174.5169299871456
 51
222.7216944882378
  0
LINE
  5
ACA
  8
0
 10
25.036370961622371
 20
111.8335975384216
 30
0.0
 11
25.067879466966762
 21
111.99234496372441
 31
0.0
  0
ARC
  5
ACB
  8
0
 10
26.43674724477404
 20
111.560415141455
 30
0.0
 40
1.4353962395397331
 50
115.3679240221921
 51
162.4875335851134
  0
ARC
  5
ACC
  8
0
 10
21.866600025436071
 20
109.9611869728115
 30
0.0
 40
6.3721639449210787
 50
13.210872724210279
 51
21.095264483655441
  0
POLYLINE
  5
ACD
  8
0
 66
     1
 10
0.0
 20
0.0
 30
0.0
 70
   128
  0
VERTEX
  5
1038
  8
0
 10
37.206094768059472
 20
100.81716278138261
 30
0.0
  0
VERTEX
  5
1039
  8
0
 10
37.223409335290107
 20
100.64210207703211
 30
0.0
  0
VERTEX
  5
103A
  8
0
 10
37.243722470172713
 20
100.43672402891021
 30
0.0
  0
VERTEX
  5
103B
  8
0
 10
37.266249067776869
 20
100.20896629932029
 30
0.0
  0
VERTEX
  5
103C
  8
0
 10
37.290118690741281
 20
99.967630817915065
 30
0.0
  0
VERTEX
  5
103D
  8
0
 10
37.314408922263453
 20
99.722042917634113
 30
0.0
  0
VERTEX
  5
103E
  8
0
 10
37.338180930980513
 20
99.481692775512784
 30
0.0
  0
VERTEX
  5
103F
  8
0
 10
37.360516258210907
 20
99.255870334232895
 30
0.0
  0
VERTEX
  5
1040
  8
0
 10
37.380551567927967
 20
99.053301154996021
 30
0.0
  0
VERTEX
  5
1041
  8
0
 10
37.397512814656857
 20
98.881813004041774
 30
0.0
  0
VERTEX
  5
1042
  8
0
 10
37.410744347305069
 20
98.748034104133694
 30
0.0
  0
SEQEND
  5
1043
  8
0
  0
ARC
  5
ACE
  8
0
 10
36.23833539481771
 20
99.637418924615545
 30
0.0
 40
1.471580140792887
 50
276.92240843006857
 51
322.81618899324411
  0
LINE
  5
ACF
  8
0
 10
36.415697735371573
 20
98.176566190446465
 30
0.0
 11
36.253853473333209
 21
98.176499135221107
 31
0.0
  0
ARC
  5
AD0
  8
0
 10
36.410433901737179
 20
99.60333485476292
 30
0.0
 40
1.4354015469963859
 50
216.6180240615376
 51
263.73744150093518
  0
POLYLINE
  5
AD1
  8
0
 66
     1
 10
0.0
 20
0.0
 30
0.0
 70
   128
  0
VERTEX
  5
1044
  8
0
 10
35.461287244849871
 20
100.8164456630002
 30
0.0
  0
VERTEX
  5
1045
  8
0
 10
35.444116508749353
 20
100.6413709888111
 30
0.0
  0
VERTEX
  5
1046
  8
0
 10
35.423972117875728
 20
100.4359761768828
 30
0.0
  0
VERTEX
  5
1047
  8
0
 10
35.401632599693748
 20
100.2082007521639
 30
0.0
  0
VERTEX
  5
1048
  8
0
 10
35.377961290230068
 20
99.966844781662076
 30
0.0
  0
VERTEX
  5
1049
  8
0
 10
35.35387286466829
 20
99.72123732360707
 30
0.0
  0
VERTEX
  5
104A
  8
0
 10
35.330298238129387
 20
99.480868555034263
 30
0.0
  0
VERTEX
  5
104B
  8
0
 10
35.308148593337307
 20
99.255026555980294
 30
0.0
  0
VERTEX
  5
104C
  8
0
 10
35.288279641115139
 20
99.052441544259651
 30
0.0
  0
VERTEX
  5
104D
  8
0
 10
35.271459373340967
 20
98.880939423466785
 30
0.0
  0
VERTEX
  5
104E
  8
0
 10
35.258337736756573
 20
98.747150279010384
 30
0.0
  0
SEQEND
  5
104F
  8
0
  0
ARC
  5
AD2
  8
0
 10
36.336435585057387
 20
94.139020593617374
 30
0.0
 40
6.7345296921603977
 50
82.580426821748745
 51
97.466670469919251
  0
POLYLINE
  5
AD3
  8
0
 66
     1
 10
0.0
 20
0.0
 30
0.0
 70
   128
  0
VERTEX
  5
1050
  8
0
 10
40.52895412097967
 20
101.8266317019115
 30
0.0
  0
VERTEX
  5
1051
  8
0
 10
40.61194334428108
 20
101.671522721077
 30
0.0
  0
VERTEX
  5
1052
  8
0
 10
40.709304737553957
 20
101.48955160322291
 30
0.0
  0
VERTEX
  5
1053
  8
0
 10
40.81727575759686
 20
101.28775169643259
 30
0.0
  0
VERTEX
  5
1054
  8
0
 10
40.931683613614211
 20
101.0739209646235
 30
0.0
  0
VERTEX
  5
1055
  8
0
 10
41.048107317344311
 20
100.856323033
 30
0.0
  0
VERTEX
  5
1056
  8
0
 10
41.162047649429212
 20
100.6433658817659
 30
0.0
  0
VERTEX
  5
1057
  8
0
 10
41.269101782397392
 20
100.4432805398355
 30
0.0
  0
VERTEX
  5
1058
  8
0
 10
41.365131850049863
 20
100.2637979159008
 30
0.0
  0
VERTEX
  5
1059
  8
0
 10
41.446427463249329
 20
100.1118545004974
 30
0.0
  0
VERTEX
  5
105A
  8
0
 10
41.509846805290351
 20
99.993322282458394
 30
0.0
  0
SEQEND
  5
105B
  8
0
  0
ARC
  5
AD4
  8
0
 10
40.086327182761181
 20
100.3663465700249
 30
0.0
 40
1.4715825613400499
 50
299.42244293315542
 51
345.31615985675973
  0
LINE
  5
AD5
  8
0
 10
40.80923471848763
 20
99.084566585148437
 30
0.0
 11
40.659736024842623
 21
99.022570304001434
 31
0.0
  0
ARC
  5
AD6
  8
0
 10
40.258369882066972
 20
100.40071431490981
 30
0.0
 40
1.435400883157486
 50
239.1180557633304
 51
286.23749932354752
  0
POLYLINE
  5
AD7
  8
0
 66
     1
 10
0.0
 20
0.0
 30
0.0
 70
   128
  0
VERTEX
  5
105C
  8
0
 10
38.917236377180579
 20
101.1582606056581
 30
0.0
  0
VERTEX
  5
105D
  8
0
 10
38.968370875970493
 20
100.9899417454253
 30
0.0
  0
VERTEX
  5
105E
  8
0
 10
39.028360855461131
 20
100.79247341992961
 30
0.0
  0
VERTEX
  5
105F
  8
0
 10
39.094888020933638
 20
100.5734868863473
 30
0.0
  0
VERTEX
  5
1060
  8
0
 10
39.165381223590138
 20
100.34144414159159
 30
0.0
  0
VERTEX
  5
1061
  8
0
 10
39.237116577730539
 20
100.1053138220559
 30
0.0
  0
VERTEX
  5
1062
  8
0
 10
39.307321768880847
 20
99.874220095003693
 30
0.0
  0
VERTEX
  5
1063
  8
0
 10
39.373283854381206
 20
99.657094343925564
 30
0.0
  0
VERTEX
  5
1064
  8
0
 10
39.432453571514259
 20
99.462325922573655
 30
0.0
  0
VERTEX
  5
1065
  8
0
 10
39.482544290528658
 20
99.297441779996021
 30
0.0
  0
VERTEX
  5
1066
  8
0
 10
39.521620490283738
 20
99.168814956570714
 30
0.0
  0
SEQEND
  5
1067
  8
0
  0
ARC
  5
AD8
  8
0
 10
42.281088082669257
 20
95.324072833159519
 30
0.0
 40
6.7344818108961837
 50
105.0803595422724
 51
119.9667101224824
  0
ARC
  5
AD9
  8
0
 10
41.830072920269281
 20
101.2780134396837
 30
0.0
 40
1.471585365962703
 50
310.67249649234037
 51
356.56612796598671
  0
LINE
  5
ADA
  8
0
 10
42.78915573160446
 20
100.1618935311089
 30
0.0
 11
42.654624323056112
 21
100.0719231137882
 31
0.0
  0
ARC
  5
ADB
  8
0
 10
41.992107857515059
 20
101.34528276245641
 30
0.0
 40
1.4353998961854919
 50
250.36805290154439
 51
297.4875154015952
  0
ARC
  5
ADC
  8
0
 10
46.354366263196418
 20
99.244600285879415
 30
0.0
 40
6.3719944177677226
 50
148.2107598745811
 51
156.09536278106179
  0
ARC
  5
ADD
  8
0
 10
41.84052752472882
 20
101.4347883953718
 30
0.0
 40
1.474788120375262
 50
119.8259259629873
 51
127.7211477578723
  0
ARC
  5
ADE
  8
0
 10
42.140744758896339
 20
96.426590403183241
 30
0.0
 40
6.3720455407129579
 50
91.451732825118498
 51
99.336271646216005
  0
ARC
  5
ADF
  8
0
 10
38.198225993014319
 20
99.812387241442153
 30
0.0
 40
1.4715835964217541
 50
288.17248509586381
 51
334.0661511908188
  0
LINE
  5
AE0
  8
0
 10
38.657181544856201
 20
98.414203389907925
 30
0.0
 11
38.498459963754783
 21
98.382564499403102
 31
0.0
  0
ARC
  5
AE1
  8
0
 10
38.363060668650661
 20
99.780959093013593
 30
0.0
 40
1.404934307558094
 50
227.3251585387043
 51
275.53041351197271
  0
ARC
  5
AE2
  8
0
 10
41.600103653051228
 20
96.202231390384654
 30
0.0
 40
6.3721978802454906
 50
125.7108918096974
 51
133.59524090412731
  0
ARC
  5
AE3
  8
0
 10
38.267878723652252
 20
99.953229081555193
 30
0.0
 40
1.474788120375262
 50
97.325925962986872
 51
105.2211477578719
  0
ARC
  5
AE4
  8
0
 10
36.628727665495212
 20
95.211486671653589
 30
0.0
 40
6.3719221860923518
 50
68.951679622146841
 51
76.836369891697089
  0
ARC
  5
AE5
  8
0
 10
34.305167770146447
 20
99.779306246649071
 30
0.0
 40
1.4049480156858689
 50
264.5169299871456
 51
312.72169448823672
  0
LINE
  5
AE6
  8
0
 10
34.170922704667817
 20
98.380786604608161
 30
0.0
 11
34.012175279364953
 21
98.412295109952552
 31
0.0
  0
ARC
  5
AE7
  8
0
 10
34.444105101634342
 20
99.781162887759862
 30
0.0
 40
1.4353962395397379
 50
205.36792402219271
 51
252.48753358511499
  0
POLYLINE
  5
AE8
  8
0
 66
     1
 10
0.0
 20
0.0
 30
0.0
 70
   128
  0
VERTEX
  5
1068
  8
0
 10
33.749865947918067
 20
101.15613812151059
 30
0.0
  0
VERTEX
  5
1069
  8
0
 10
33.698869750530491
 20
100.9877764204393
 30
0.0
  0
VERTEX
  5
106A
  8
0
 10
33.639041821167837
 20
100.7902587348471
 30
0.0
  0
VERTEX
  5
106B
  8
0
 10
33.572694866613517
 20
100.5712181845556
 30
0.0
  0
VERTEX
  5
106C
  8
0
 10
33.502392119423519
 20
100.33911769780021
 30
0.0
  0
VERTEX
  5
106D
  8
0
 10
33.430850946039918
 20
100.1029287049423
 30
0.0
  0
VERTEX
  5
106E
  8
0
 10
33.360835511864188
 20
99.871777235890491
 30
0.0
  0
VERTEX
  5
106F
  8
0
 10
33.295052007467518
 20
99.654597468103034
 30
0.0
  0
VERTEX
  5
1070
  8
0
 10
33.236042477817307
 20
99.459780617977245
 30
0.0
  0
VERTEX
  5
1071
  8
0
 10
33.186087033406857
 20
99.294855497206314
 30
0.0
  0
VERTEX
  5
1072
  8
0
 10
33.14711653876401
 20
99.166197008813484
 30
0.0
  0
SEQEND
  5
1073
  8
0
  0
ARC
  5
AE9
  8
0
 10
36.043333270277863
 20
95.211015668421865
 30
0.0
 40
6.3721639449210654
 50
103.2108727242118
 51
111.0952644836554
  0
ARC
  5
AEA
  8
0
 10
34.400213416022837
 20
99.951640261149493
 30
0.0
 40
1.474788120375256
 50
74.825925962986034
 51
82.721147757871066
  0
ARC
  5
AEB
  8
0
 10
31.071053481986549
 20
96.197886295765002
 30
0.0
 40
6.3722243464320067
 50
46.451836361837849
 51
54.336154719167979
  0
POLYLINE
  5
AEC
  8
0
 66
     1
 10
0.0
 20
0.0
 30
0.0
 70
   128
  0
VERTEX
  5
1074
  8
0
 10
27.813844962672359
 20
107.0872838659088
 30
0.0
  0
VERTEX
  5
1075
  8
0
 10
27.645526102439529
 20
107.0361493671189
 30
0.0
  0
VERTEX
  5
1076
  8
0
 10
27.448057776943809
 20
106.9761593876283
 30
0.0
  0
VERTEX
  5
1077
  8
0
 10
27.229071243361599
 20
106.90963222215569
 30
0.0
  0
VERTEX
  5
1078
  8
0
 10
26.997028498605861
 20
106.8391390194992
 30
0.0
  0
VERTEX
  5
1079
  8
0
 10
26.760898179070121
 20
106.7674036653588
 30
0.0
  0
VERTEX
  5
107A
  8
0
 10
26.52980445201791
 20
106.69719847420851
 30
0.0
  0
VERTEX
  5
107B
  8
0
 10
26.312678700939781
 20
106.6312363887082
 30
0.0
  0
VERTEX
  5
107C
  8
0
 10
26.117910279587871
 20
106.5720666715751
 30
0.0
  0
VERTEX
  5
107D
  8
0
 10
25.95302613701023
 20
106.52197595256069
 30
0.0
  0
VERTEX
  5
107E
  8
0
 10
25.82439931358493
 20
106.48289975280559
 30
0.0
  0
SEQEND
  5
107F
  8
0
  0
ARC
  5
AED
  8
0
 10
26.467971598456359
 20
107.8062942500751
 30
0.0
 40
1.4715835964217481
 50
198.17248509586381
 51
244.06615119082019
  0
LINE
  5
AEE
  8
0
 10
25.069787746922142
 20
107.3473386982332
 30
0.0
 11
25.038148856417308
 21
107.5060602793346
 31
0.0
  0
ARC
  5
AEF
  8
0
 10
26.436543450027781
 20
107.6414595744387
 30
0.0
 40
1.4049343075580809
 50
137.3251585387043
 51
185.53041351197271
  0
POLYLINE
  5
AF0
  8
0
 66
     1
 10
0.0
 20
0.0
 30
0.0
 70
   128
  0
VERTEX
  5
1080
  8
0
 10
27.472747138396869
 20
108.7984254750299
 30
0.0
  0
VERTEX
  5
1081
  8
0
 10
27.297686434046401
 20
108.7811109077993
 30
0.0
  0
VERTEX
  5
1082
  8
0
 10
27.092308385924468
 20
108.7607977729167
 30
0.0
  0
VERTEX
  5
1083
  8
0
 10
26.864550656334529
 20
108.73827117531251
 30
0.0
  0
VERTEX
  5
1084
  8
0
 10
26.623215174929271
 20
108.71440155234809
 30
0.0
  0
VERTEX
  5
1085
  8
0
 10
26.377627274648319
 20
108.69011132082591
 30
0.0
  0
VERTEX
  5
1086
  8
0
 10
26.137277132527
 20
108.6663393121089
 30
0.0
  0
VERTEX
  5
1087
  8
0
 10
25.911454691247108
 20
108.64400398487849
 30
0.0
  0
VERTEX
  5
1088
  8
0
 10
25.70888551201023
 20
108.62396867516139
 30
0.0
  0
VERTEX
  5
1089
  8
0
 10
25.53739736105598
 20
108.6070074284325
 30
0.0
  0
VERTEX
  5
108A
  8
0
 10
25.403618461147911
 20
108.5937758957843
 30
0.0
  0
SEQEND
  5
108B
  8
0
  0
ARC
  5
AF1
  8
0
 10
22.857815747398831
 20
104.4044165900382
 30
0.0
 40
6.3721978802455226
 50
35.710891809697451
 51
43.595240904125077
  0
ARC
  5
AF2
  8
0
 10
26.608813438569399
 20
107.7366415194371
 30
0.0
 40
1.474788120375256
 50
7.325925962986866
 51
15.22114775787192
  0
ARC
  5
AF3
  8
0
 10
21.867071028667802
 20
109.3757925775942
 30
0.0
 40
6.3719221860923794
 50
338.95167962214691
 51
346.83636989169707
  0
POLYLINE
  5
AF4
  8
0
 66
     1
 10
0.0
 20
0.0
 30
0.0
 70
   128
  0
VERTEX
  5
108C
  8
0
 10
28.482216058925761
 20
105.4755661221097
 30
0.0
  0
VERTEX
  5
108D
  8
0
 10
28.32710707809127
 20
105.3925768988083
 30
0.0
  0
VERTEX
  5
108E
  8
0
 10
28.145135960237148
 20
105.2952155055354
 30
0.0
  0
VERTEX
  5
108F
  8
0
 10
27.943336053446899
 20
105.1872444854925
 30
0.0
  0
VERTEX
  5
1090
  8
0
 10
27.72950532163776
 20
105.0728366294752
 30
0.0
  0
VERTEX
  5
1091
  8
0
 10
27.511907390014301
 20
104.9564129257451
 30
0.0
  0
VERTEX
  5
1092
  8
0
 10
27.298950238780151
 20
104.8424725936602
 30
0.0
  0
VERTEX
  5
1093
  8
0
 10
27.098864896849761
 20
104.735418460692
 30
0.0
  0
VERTEX
  5
1094
  8
0
 10
26.919382272915019
 20
104.6393883930395
 30
0.0
  0
VERTEX
  5
1095
  8
0
 10
26.76743885751165
 20
104.55809277984
 30
0.0
  0
VERTEX
  5
1096
  8
0
 10
26.64890663947261
 20
104.49467343779899
 30
0.0
  0
SEQEND
  5
1097
  8
0
  0
ARC
  5
AF5
  8
0
 10
27.02193092703914
 20
105.91819306032821
 30
0.0
 40
1.4715825613400231
 50
209.42244293315531
 51
255.3161598567616
  0
LINE
  5
AF6
  8
0
 10
25.740150942162639
 20
105.1952855246018
 30
0.0
 11
25.67815466101564
 21
105.3447842182468
 31
0.0
  0
ARC
  5
AF7
  8
0
 10
27.056298671924029
 20
105.7461503610224
 30
0.0
 40
1.4354008831574729
 50
149.11805576332901
 51
196.237499323549
  0
ARC
  5
AF8
  8
0
 10
21.979657190173729
 20
103.7234321604201
 30
0.0
 40
6.7344818108962023
 50
15.08035954227088
 51
29.96671012248158
  0
POLYLINE
  5
AF9
  8
0
 66
     1
 10
0.0
 20
0.0
 30
0.0
 70
   128
  0
VERTEX
  5
1098
  8
0
 10
29.45217501621045
 20
104.0252100260804
 30
0.0
  0
VERTEX
  5
1099
  8
0
 10
29.316236844913131
 20
103.9135546939323
 30
0.0
  0
VERTEX
  5
109A
  8
0
 10
29.15675716723598
 20
103.7825637081514
 30
0.0
  0
VERTEX
  5
109B
  8
0
 10
28.97989854465521
 20
103.637297875608
 30
0.0
  0
VERTEX
  5
109C
  8
0
 10
28.792496419207222
 20
103.48337214010461
 30
0.0
  0
VERTEX
  5
109D
  8
0
 10
28.601792289570941
 20
103.3267339276026
 30
0.0
  0
VERTEX
  5
109E
  8
0
 10
28.41515617694057
 20
103.17343730049831
 30
0.0
  0
VERTEX
  5
109F
  8
0
 10
28.239800243333939
 20
103.0294054703663
 30
0.0
  0
VERTEX
  5
10A0
  8
0
 10
28.082500791803959
 20
102.9002054178963
 30
0.0
  0
VERTEX
  5
10A1
  8
0
 10
27.949337496117721
 20
102.7908290320883
 30
0.0
  0
VERTEX
  5
10A2
  8
0
 10
27.84545498217739
 20
102.70550405176979
 30
0.0
  0
SEQEND
  5
10A3
  8
0
  0
ARC
  5
AFA
  8
0
 10
27.933597796697939
 20
104.1744473228201
 30
0.0
 40
1.471585365962687
 50
220.6724964923427
 51
266.56612796598841
  0
LINE
  5
AFB
  8
0
 10
26.817477888123161
 20
103.21536451148491
 30
0.0
 11
26.72750747080244
 21
103.3498959200333
 31
0.0
  0
ARC
  5
AFC
  8
0
 10
28.000867119470598
 20
104.01241238557429
 30
0.0
 40
1.4353998961854959
 50
160.36805290154291
 51
207.4875154015966
  0
ARC
  5
AFD
  8
0
 10
25.900184642893631
 20
99.650153979892991
 30
0.0
 40
6.371994417767735
 50
58.210759874580297
 51
66.095362781061766
  0
ARC
  5
AFE
  8
0
 10
28.09037275238606
 20
104.1639927183606
 30
0.0
 40
1.4747881203752611
 50
29.82592596298511
 51
37.72114775787103
  0
ARC
  5
AFF
  8
0
 10
23.082174760197429
 20
103.863775484193
 30
0.0
 40
6.3720455407129872
 50
1.4517328251185091
 51
9.3362716462160051
  0
POLYLINE
  5
B00
  8
0
 66
     1
 10
0.0
 20
0.0
 30
0.0
 70
   128
  0
VERTEX
  5
10A4
  8
0
 10
30.686447045461311
 20
102.791951741452
 30
0.0
  0
VERTEX
  5
10A5
  8
0
 10
30.574903472022189
 20
102.6559218348811
 30
0.0
  0
VERTEX
  5
10A6
  8
0
 10
30.444043337062961
 20
102.4963341237853
 30
0.0
  0
VERTEX
  5
10A7
  8
0
 10
30.298923256502519
 20
102.3193567575763
 30
0.0
  0
VERTEX
  5
10A8
  8
0
 10
30.145151189223888
 20
102.13182797225809
 30
0.0
  0
VERTEX
  5
10A9
  8
0
 10
29.988669904575708
 20
101.94099532010659
 30
0.0
  0
VERTEX
  5
10AA
  8
0
 10
29.835526480034961
 20
101.7542334789286
 30
0.0
  0
VERTEX
  5
10AB
  8
0
 10
29.691639004902012
 20
101.57875833603239
 30
0.0
  0
VERTEX
  5
10AC
  8
0
 10
29.562567940608631
 20
101.4213536450515
 30
0.0
  0
VERTEX
  5
10AD
  8
0
 10
29.453301450864441
 20
101.2881000110755
 30
0.0
  0
VERTEX
  5
10AE
  8
0
 10
29.368061686561472
 20
101.1841476479421
 30
0.0
  0
SEQEND
  5
10AF
  8
0
  0
ARC
  5
B01
  8
0
 10
29.167934290539051
 20
102.6420603583544
 30
0.0
 40
1.4715843318751429
 50
231.92248546729931
 51
277.81613173622083
  0
LINE
  5
B02
  8
0
 10
28.260368502394329
 20
101.4836628505836
 30
0.0
 11
28.14588008697427
 21
101.5980572024236
 31
0.0
  0
ARC
  5
B03
  8
0
 10
29.2655183328697
 20
102.49626222400499
 30
0.0
 40
1.43539613433568
 50
171.61796251557629
 51
218.73755809273479
  0
ARC
  5
B04
  8
0
 10
25.34937542244143
 20
98.684765464142458
 30
0.0
 40
6.7344868123536008
 50
37.580370004810632
 51
52.466708067362298
  0
POLYLINE
  5
B05
  8
0
 66
     1
 10
0.0
 20
0.0
 30
0.0
 70
   128
  0
VERTEX
  5
10B0
  8
0
 10
32.137599887953172
 20
101.8231848770629
 30
0.0
  0
VERTEX
  5
10B1
  8
0
 10
32.054737790183196
 20
101.66800697835779
 30
0.0
  0
VERTEX
  5
10B2
  8
0
 10
31.957525874183538
 20
101.48595669808491
 30
0.0
  0
VERTEX
  5
10B3
  8
0
 10
31.849720629558931
 20
101.28406831565
 30
0.0
  0
VERTEX
  5
10B4
  8
0
 10
31.735488327846891
 20
101.0701435202609
 30
0.0
  0
VERTEX
  5
10B5
  8
0
 10
31.619243438051111
 20
100.8524496624122
 30
0.0
  0
VERTEX
  5
10B6
  8
0
 10
31.505478194610252
 20
100.6393993789206
 30
0.0
  0
VERTEX
  5
10B7
  8
0
 10
31.398588905737771
 20
100.43922556134559
 30
0.0
  0
VERTEX
  5
10B8
  8
0
 10
31.302705987052089
 20
100.25966377499201
 30
0.0
  0
VERTEX
  5
10B9
  8
0
 10
31.22153563673891
 20
100.1076542356859
 30
0.0
  0
VERTEX
  5
10BA
  8
0
 10
31.158213617906942
 20
99.989069863582714
 30
0.0
  0
SEQEND
  5
10BB
  8
0
  0
ARC
  5
B06
  8
0
 10
30.677507070545751
 20
101.37992347756111
 30
0.0
 40
1.471581652574161
 50
243.1724236139647
 51
289.0661629704307
  0
LINE
  5
B07
  8
0
 10
30.013371838883529
 20
100.0667300591121
 30
0.0
 11
29.878766390190489
 21
100.156590580369
 31
0.0
  0
ARC
  5
B08
  8
0
 10
30.801662232987159
 20
101.2559686044608
 30
0.0
 40
1.435398473075441
 50
182.8680235780617
 51
229.98751978496011
  0
ARC
  5
B09
  8
0
 10
30.5302433290762
 20
96.421792958835354
 30
0.0
 40
6.3720736433881067
 50
80.710816875269302
 51
88.595322213854615
  0
ARC
  5
B0A
  8
0
 10
30.82634858445374
 20
101.4302638176588
 30
0.0
 40
1.4747881203752631
 50
52.325925962987291
 51
60.221147757871158
  0
ARC
  5
B0B
  8
0
 10
26.31418227401079
 20
99.236295920707946
 30
0.0
 40
6.3721414908086871
 50
23.951834879259309
 51
31.836251390978209
  0
ARC
  5
B0C
  8
0
 10
26.293003281629719
 20
109.76618484827171
 30
0.0
 40
1.471580140792867
 50
186.92240843007019
 51
232.81618899324641
  0
LINE
  5
B0D
  8
0
 10
24.832150547460682
 20
109.58882250771779
 30
0.0
 11
24.832083492235309
 21
109.75066676975619
 31
0.0
  0
ARC
  5
B0E
  8
0
 10
26.25891921177714
 20
109.5940863413522
 30
0.0
 40
1.4354015469963859
 50
126.6180240615375
 51
173.7374415009352
  0
ARC
  5
B0F
  8
0
 10
20.794604950631591
 20
109.668084658032
 30
0.0
 40
6.7345296921604101
 50
352.5804268217488
 51
7.4666704699176396
  0
ARC
  5
B10
  8
0
 10
39.976782364610528
 20
113.3241953611975
 30
0.0
 40
2.3130067012440811
 50
188.91694562954771
 51
193.1528784590412
  0
POLYLINE
  5
B11
  8
0
 66
     1
 10
0.0
 20
0.0
 30
0.0
 70
   128
  0
VERTEX
  5
10BC
  8
0
 10
37.691730538078623
 20
112.9656734460841
 30
0.0
  0
VERTEX
  5
10BD
  8
0
 10
37.794418281571041
 20
113.2138720763723
 30
0.0
  0
VERTEX
  5
10BE
  8
0
 10
37.902238078110877
 20
113.4744745263706
 30
0.0
  0
VERTEX
  5
10BF
  8
0
 10
38.013643815808962
 20
113.7437445627401
 30
0.0
  0
VERTEX
  5
10C0
  8
0
 10
38.127038392865131
 20
114.0178220862399
 30
0.0
  0
VERTEX
  5
10C1
  8
0
 10
38.240796069310079
 20
114.2927764499436
 30
0.0
  0
VERTEX
  5
10C2
  8
0
 10
38.353285633654359
 20
114.5646662967156
 30
0.0
  0
VERTEX
  5
10C3
  8
0
 10
38.462894617275367
 20
114.8295931102584
 30
0.0
  0
VERTEX
  5
10C4
  8
0
 10
38.568050947667132
 20
115.08375895711281
 30
0.0
  0
SEQEND
  5
10C5
  8
0
  0
ARC
  5
B12
  8
0
 10
38.456082238604381
 20
119.95653070400709
 30
0.0
 40
4.8740580104405682
 50
271.31633617164351
 51
290.22327765511398
  0
ARC
  5
B13
  8
0
 10
43.6344849253341
 20
116.9849042436161
 30
0.0
 40
3.843318966996367
 50
204.63376365687819
 51
245.41330846577929
  0
ARC
  5
B14
  8
0
 10
46.610373715633692
 20
111.80894260446389
 30
0.0
 40
4.8740671252423438
 50
159.82380779387009
 51
178.73071270599101
  0
POLYLINE
  5
B15
  8
0
 66
     1
 10
0.0
 20
0.0
 30
0.0
 70
   128
  0
VERTEX
  5
10C6
  8
0
 10
39.620137887702349
 20
111.0388496940831
 30
0.0
  0
VERTEX
  5
10C7
  8
0
 10
39.868252000466953
 20
111.14174139721941
 30
0.0
  0
VERTEX
  5
10C8
  8
0
 10
40.128765974820617
 20
111.24977516512079
 30
0.0
  0
VERTEX
  5
10C9
  8
0
 10
40.397944508747223
 20
111.36140220834559
 30
0.0
  0
VERTEX
  5
10CA
  8
0
 10
40.671928434328201
 20
111.47502193263421
 30
0.0
  0
VERTEX
  5
10CB
  8
0
 10
40.946789665774467
 20
111.5890054548035
 30
0.0
  0
VERTEX
  5
10CC
  8
0
 10
41.218586845950249
 20
111.70171830373511
 30
0.0
  0
VERTEX
  5
10CD
  8
0
 10
41.483423786864641
 20
111.81154475117719
 30
0.0
  0
VERTEX
  5
10CE
  8
0
 10
41.73750255505837
 20
111.916910163487
 30
0.0
  0
SEQEND
  5
10CF
  8
0
  0
ARC
  5
B16
  8
0
 10
39.976782364610528
 20
113.3241953611975
 30
0.0
 40
2.3130067012440851
 50
256.89419526181842
 51
261.13012809131141
  0
ARC
  5
B17
  8
0
 10
42.575853334876768
 20
115.92540253322851
 30
0.0
 40
5.7721339272451333
 50
212.80849883639871
 51
237.23857419295311
  0
ARC
  5
B18
  8
0
 10
32.40430309317162
 20
100.4365451105356
 30
0.0
 40
1.471582860222914
 50
254.42248724027129
 51
300.31620134051968
  0
LINE
  5
B19
  8
0
 10
32.00912161047853
 20
99.019016377056701
 30
0.0
 11
31.85957169409193
 21
99.080890654946415
 31
0.0
  0
ARC
  5
B1A
  8
0
 10
32.550253498919147
 20
100.3391902989342
 30
0.0
 40
1.4353951893396031
 50
194.11797036275081
 51
241.23757717313549
  0
ARC
  5
B1B
  8
0
 10
30.390785953585009
 20
95.319134906881786
 30
0.0
 40
6.7345396974043972
 50
60.08042377677409
 51
74.966643745168057
  0
ARC
  5
B1C
  8
0
 10
36.327932850994792
 20
114.8338425077073
 30
0.0
 40
2.313006701244078
 50
233.9169456295493
 51
238.1528784590412
  0
POLYLINE
  5
B1D
  8
0
 66
     1
 10
0.0
 20
0.0
 30
0.0
 70
   128
  0
VERTEX
  5
10D0
  8
0
 10
34.965670549006227
 20
112.96455353068809
 30
0.0
  0
VERTEX
  5
10D1
  8
0
 10
34.862778845869968
 20
113.2126676434527
 30
0.0
  0
VERTEX
  5
10D2
  8
0
 10
34.754745077968607
 20
113.4731816178064
 30
0.0
  0
VERTEX
  5
10D3
  8
0
 10
34.643118034743743
 20
113.742360151733
 30
0.0
  0
VERTEX
  5
10D4
  8
0
 10
34.529498310455153
 20
114.016344077314
 30
0.0
  0
VERTEX
  5
10D5
  8
0
 10
34.415514788285861
 20
114.2912053087602
 30
0.0
  0
VERTEX
  5
10D6
  8
0
 10
34.30280193935431
 20
114.56300248893599
 30
0.0
  0
VERTEX
  5
10D7
  8
0
 10
34.192975491912136
 20
114.8278394298504
 30
0.0
  0
VERTEX
  5
10D8
  8
0
 10
34.087610079602371
 20
115.08191819804409
 30
0.0
  0
SEQEND
  5
10D9
  8
0
  0
ARC
  5
B1E
  8
0
 10
30.562857279566369
 20
118.4483194601398
 30
0.0
 40
4.8740680913176471
 50
316.3163656338387
 51
335.2232710506164
  0
ARC
  5
B1F
  8
0
 10
36.325807402229259
 20
120.0087405824214
 30
0.0
 40
3.8433185402845962
 50
249.63375607298661
 51
290.41330720598921
  0
ARC
  5
B20
  8
0
 10
42.090031091698727
 20
118.4530511699764
 30
0.0
 40
4.8740613609817913
 50
204.82379571808249
 51
223.7307216398433
  0
ARC
  5
B21
  8
0
 10
36.327932850994792
 20
114.8338425077073
 30
0.0
 40
2.3130067012440758
 50
301.89419526181689
 51
306.13012809131078
  0
ARC
  5
B22
  8
0
 10
36.326422035333479
 20
118.5109927524591
 30
0.0
 40
5.7721322915265842
 50
257.80849952721559
 51
282.23857938057711
  0
ARC
  5
B23
  8
0
 10
41.489426864721509
 20
109.6765873920946
 30
0.0
 40
2.3130067012440878
 50
143.916945629547
 51
148.15287845904109
  0
ARC
  5
B24
  8
0
 10
45.103903817153977
 20
115.441662963523
 30
0.0
 40
4.8740680913176151
 50
226.316365633841
 51
245.2232710506164
  0
ARC
  5
B25
  8
0
 10
46.664324939435573
 20
109.6787128408601
 30
0.0
 40
3.8433185402845691
 50
159.6337560729865
 51
200.41330720598921
  0
ARC
  5
B26
  8
0
 10
45.108635526990611
 20
103.9144891513906
 30
0.0
 40
4.8740613609818091
 50
114.823795718081
 51
133.73072163984321
  0
POLYLINE
  5
B27
  8
0
 66
     1
 10
0.0
 20
0.0
 30
0.0
 70
   128
  0
VERTEX
  5
10DA
  8
0
 10
39.621257803098331
 20
108.3127897050108
 30
0.0
  0
VERTEX
  5
10DB
  8
0
 10
39.869456433386567
 20
108.2101019615183
 30
0.0
  0
VERTEX
  5
10DC
  8
0
 10
40.130058883384827
 20
108.1022821649785
 30
0.0
  0
VERTEX
  5
10DD
  8
0
 10
40.399328919754389
 20
107.9908764272804
 30
0.0
  0
VERTEX
  5
10DE
  8
0
 10
40.673406443254123
 20
107.8774818502242
 30
0.0
  0
VERTEX
  5
10DF
  8
0
 10
40.948360806957851
 20
107.76372417377929
 30
0.0
  0
VERTEX
  5
10E0
  8
0
 10
41.220250653729799
 20
107.65123460943499
 30
0.0
  0
VERTEX
  5
10E1
  8
0
 10
41.485177467272642
 20
107.54162562581401
 30
0.0
  0
VERTEX
  5
10E2
  8
0
 10
41.73934331412709
 20
107.4364692954222
 30
0.0
  0
SEQEND
  5
10E3
  8
0
  0
ARC
  5
B28
  8
0
 10
41.489426864721509
 20
109.6765873920946
 30
0.0
 40
2.3130067012440789
 50
211.89419526181831
 51
216.1301280913107
  0
ARC
  5
B29
  8
0
 10
45.166577109473387
 20
109.67809820775589
 30
0.0
 40
5.772132291526554
 50
167.808499527214
 51
192.23857938057861
  0
ARC
  5
B2A
  8
0
 10
32.68032488189187
 20
113.32119800759629
 30
0.0
 40
2.3130067012440909
 50
278.91694562954928
 51
283.15287845904118
  0
POLYLINE
  5
B2B
  8
0
 66
     1
 10
0.0
 20
0.0
 30
0.0
 70
   128
  0
VERTEX
  5
10E4
  8
0
 10
30.920761285976539
 20
111.9124665906529
 30
0.0
  0
VERTEX
  5
10E5
  8
0
 10
31.174927132830991
 20
111.8073102602611
 30
0.0
  0
VERTEX
  5
10E6
  8
0
 10
31.43985394637383
 20
111.6977012766401
 30
0.0
  0
VERTEX
  5
10E7
  8
0
 10
31.711743793145789
 20
111.5852117122958
 30
0.0
  0
VERTEX
  5
10E8
  8
0
 10
31.98669815684951
 20
111.4714540358509
 30
0.0
  0
VERTEX
  5
10E9
  8
0
 10
32.260775680349241
 20
111.3580594587947
 30
0.0
  0
VERTEX
  5
10EA
  8
0
 10
32.530045716718803
 20
111.24665372109661
 30
0.0
  0
VERTEX
  5
10EB
  8
0
 10
32.790648166717062
 20
111.13883392455681
 30
0.0
  0
VERTEX
  5
10EC
  8
0
 10
33.038846797005313
 20
111.0361461810644
 30
0.0
  0
SEQEND
  5
10ED
  8
0
  0
ARC
  5
B2C
  8
0
 10
26.047989539082291
 20
111.8004978815902
 30
0.0
 40
4.8740580104405771
 50
1.3163361716434849
 51
20.223277655113989
  0
ARC
  5
B2D
  8
0
 10
29.01961599947327
 20
116.9789005683199
 30
0.0
 40
3.843318966996367
 50
294.63376365687668
 51
335.41330846577767
  0
ARC
  5
B2E
  8
0
 10
34.195577638625537
 20
119.95478935861949
 30
0.0
 40
4.8740671252423722
 50
249.82380779387219
 51
268.73071270599098
  0
ARC
  5
B2F
  8
0
 10
32.68032488189187
 20
113.32119800759629
 30
0.0
 40
2.3130067012440718
 50
346.89419526181678
 51
351.1301280913097
  0
ARC
  5
B30
  8
0
 10
30.079117709860899
 20
115.92026897786261
 30
0.0
 40
5.7721339272451502
 50
302.80849883639729
 51
327.23857419295172
  0
POLYLINE
  5
B31
  8
0
 66
     1
 10
0.0
 20
0.0
 30
0.0
 70
   128
  0
VERTEX
  5
10EE
  8
0
 10
32.514471907795439
 20
115.3798124337445
 30
0.0
  0
VERTEX
  5
10EF
  8
0
 10
32.414195242033372
 20
115.5297535056124
 30
0.0
  0
VERTEX
  5
10F0
  8
0
 10
32.309885716692577
 20
115.6857253568123
 30
0.0
  0
VERTEX
  5
10F1
  8
0
 10
32.203694454089771
 20
115.8445102678488
 30
0.0
  0
VERTEX
  5
10F2
  8
0
 10
32.097812390581737
 20
116.0028332428883
 30
0.0
  0
VERTEX
  5
10F3
  8
0
 10
31.994423477605949
 20
116.1574281336616
 30
0.0
  0
VERTEX
  5
10F4
  8
0
 10
31.89566090951956
 20
116.30510562601189
 30
0.0
  0
VERTEX
  5
10F5
  8
0
 10
31.80356102313198
 20
116.442819829459
 30
0.0
  0
VERTEX
  5
10F6
  8
0
 10
31.72002511347927
 20
116.567729744489
 30
0.0
  0
SEQEND
  5
10F7
  8
0
  0
ARC
  5
B32
  8
0
 10
33.441518425089498
 20
116.6399110333097
 30
0.0
 40
1.7230060940112819
 50
176.41686260395019
 51
182.40097536241771
  0
ARC
  5
B33
  8
0
 10
33.441518425089498
 20
116.6399110333097
 30
0.0
 40
1.7230060940112879
 50
42.646098358440859
 51
48.630211116909173
  0
POLYLINE
  5
B34
  8
0
 66
     1
 10
0.0
 20
0.0
 30
0.0
 70
   128
  0
VERTEX
  5
10F8
  8
0
 10
34.988256518424521
 20
116.4056786851833
 30
0.0
  0
VERTEX
  5
10F9
  8
0
 10
34.952993036874602
 20
116.5825801486025
 30
0.0
  0
VERTEX
  5
10FA
  8
0
 10
34.916311267458873
 20
116.76659645083051
 30
0.0
  0
VERTEX
  5
10FB
  8
0
 10
34.878967793353858
 20
116.9539324523757
 30
0.0
  0
VERTEX
  5
10FC
  8
0
 10
34.841733051159451
 20
117.14072316455351
 30
0.0
  0
VERTEX
  5
10FD
  8
0
 10
34.805375149169038
 20
117.32311524021129
 30
0.0
  0
VERTEX
  5
10FE
  8
0
 10
34.770643918470512
 20
117.4973466018091
 30
0.0
  0
VERTEX
  5
10FF
  8
0
 10
34.73825601178504
 20
117.65982327553129
 30
0.0
  0
VERTEX
  5
1100
  8
0
 10
34.708879420229273
 20
117.8071929657708
 30
0.0
  0
SEQEND
  5
1101
  8
0
  0
POLYLINE
  5
B35
  8
0
 66
     1
 10
0.0
 20
0.0
 30
0.0
 70
   128
  0
VERTEX
  5
1102
  8
0
 10
30.621574840203891
 20
113.485359591792
 30
0.0
  0
VERTEX
  5
1103
  8
0
 10
30.471551346288091
 20
113.58551285731301
 30
0.0
  0
VERTEX
  5
1104
  8
0
 10
30.315494279072649
 20
113.68969432579981
 30
0.0
  0
VERTEX
  5
1105
  8
0
 10
30.156621823714151
 20
113.79575520324209
 30
0.0
  0
VERTEX
  5
1106
  8
0
 10
29.998211770013938
 20
113.9015068815897
 30
0.0
  0
VERTEX
  5
1107
  8
0
 10
29.843532128886348
 20
114.00476866903411
 30
0.0
  0
VERTEX
  5
1108
  8
0
 10
29.695773611472021
 20
114.10341016518569
 30
0.0
  0
VERTEX
  5
1109
  8
0
 10
29.557983505235079
 20
114.19539689588051
 30
0.0
  0
VERTEX
  5
110A
  8
0
 10
29.433005137995849
 20
114.27883036004999
 30
0.0
  0
SEQEND
  5
110B
  8
0
  0
ARC
  5
B36
  8
0
 10
30.995835304279581
 20
115.0043041912388
 30
0.0
 40
1.7230060940112819
 50
198.91686260395039
 51
204.90097536241791
  0
ARC
  5
B37
  8
0
 10
30.995835304279581
 20
115.0043041912388
 30
0.0
 40
1.7230060940112719
 50
65.146098358441193
 51
71.130211116908981
  0
POLYLINE
  5
B38
  8
0
 66
     1
 10
0.0
 20
0.0
 30
0.0
 70
   128
  0
VERTEX
  5
110C
  8
0
 10
29.598841557906042
 20
108.3326721614103
 30
0.0
  0
VERTEX
  5
110D
  8
0
 10
29.421940094486839
 20
108.2974086798603
 30
0.0
  0
VERTEX
  5
110E
  8
0
 10
29.237923792258869
 20
108.2607269104446
 30
0.0
  0
VERTEX
  5
110F
  8
0
 10
29.050587790713681
 20
108.2233834363396
 30
0.0
  0
VERTEX
  5
1110
  8
0
 10
28.863797078535921
 20
108.1861486941452
 30
0.0
  0
VERTEX
  5
1111
  8
0
 10
28.68140500287808
 20
108.1497907921548
 30
0.0
  0
VERTEX
  5
1112
  8
0
 10
28.5071736412803
 20
108.11505956145631
 30
0.0
  0
VERTEX
  5
1113
  8
0
 10
28.344696967558029
 20
108.08267165477081
 30
0.0
  0
VERTEX
  5
1114
  8
0
 10
28.19732727731861
 20
108.053295063215
 30
0.0
  0
SEQEND
  5
1115
  8
0
  0
ARC
  5
B39
  8
0
 10
28.789427936303749
 20
109.6713702867235
 30
0.0
 40
1.7230060940112719
 50
243.916862603949
 51
249.90097536241791
  0
ARC
  5
B3A
  8
0
 10
28.789427936303749
 20
109.6713702867235
 30
0.0
 40
1.7230060940112739
 50
110.14609835844399
 51
116.13021111690981
  0
POLYLINE
  5
B3B
  8
0
 66
     1
 10
0.0
 20
0.0
 30
0.0
 70
   128
  0
VERTEX
  5
1116
  8
0
 10
28.19599828000463
 20
111.28895846697191
 30
0.0
  0
VERTEX
  5
1117
  8
0
 10
28.343392184631
 20
111.2597029473509
 30
0.0
  0
VERTEX
  5
1118
  8
0
 10
28.505894935385349
 20
111.2274485690395
 30
0.0
  0
VERTEX
  5
1119
  8
0
 10
28.680154702321659
 20
111.1928605291868
 30
0.0
  0
VERTEX
  5
111A
  8
0
 10
28.862576580301891
 20
111.15665245371559
 30
0.0
  0
VERTEX
  5
111B
  8
0
 10
29.04939802612461
 20
111.1195711469154
 30
0.0
  0
VERTEX
  5
111C
  8
0
 10
29.236764295653469
 20
111.0823816902811
 30
0.0
  0
VERTEX
  5
111D
  8
0
 10
29.420811331526409
 20
111.0458511443685
 30
0.0
  0
VERTEX
  5
111E
  8
0
 10
29.597741665945421
 20
111.0107330655555
 30
0.0
  0
SEQEND
  5
111F
  8
0
  0
ARC
  5
B3C
  8
0
 10
25.99577966066801
 20
109.670223045215
 30
0.0
 40
3.8433185402845962
 50
339.6337560729861
 51
20.41330720598917
  0
POLYLINE
  5
B3D
  8
0
 66
     1
 10
0.0
 20
0.0
 30
0.0
 70
   128
  0
VERTEX
  5
1120
  8
0
 10
43.062362934158209
 20
108.3382028205196
 30
0.0
  0
VERTEX
  5
1121
  8
0
 10
43.239293268577221
 20
108.3030847417067
 30
0.0
  0
VERTEX
  5
1122
  8
0
 10
43.423340304450157
 20
108.266554195794
 30
0.0
  0
VERTEX
  5
1123
  8
0
 10
43.61070657397903
 20
108.22936473915981
 30
0.0
  0
VERTEX
  5
1124
  8
0
 10
43.797528019801739
 20
108.1922834323595
 30
0.0
  0
VERTEX
  5
1125
  8
0
 10
43.979949897781971
 20
108.15607535688829
 30
0.0
  0
VERTEX
  5
1126
  8
0
 10
44.15420966471828
 20
108.1214873170356
 30
0.0
  0
VERTEX
  5
1127
  8
0
 10
44.31671241547263
 20
108.08923293872429
 30
0.0
  0
VERTEX
  5
1128
  8
0
 10
44.464106320098999
 20
108.05997741910321
 30
0.0
  0
SEQEND
  5
1129
  8
0
  0
ARC
  5
B3E
  8
0
 10
43.297866233825118
 20
106.79165779061
 30
0.0
 40
1.7230060940112799
 50
41.416862603948303
 51
47.400975362417931
  0
ARC
  5
B3F
  8
0
 10
43.297866233825118
 20
106.79165779061
 30
0.0
 40
1.7230060940112759
 50
267.64609835844158
 51
273.63021111690892
  0
POLYLINE
  5
B40
  8
0
 66
     1
 10
0.0
 20
0.0
 30
0.0
 70
   128
  0
VERTEX
  5
112A
  8
0
 10
42.038529759899738
 20
105.86357629428311
 30
0.0
  0
VERTEX
  5
112B
  8
0
 10
42.188553253815542
 20
105.7634230287622
 30
0.0
  0
VERTEX
  5
112C
  8
0
 10
42.344610321030977
 20
105.6592415602754
 30
0.0
  0
VERTEX
  5
112D
  8
0
 10
42.503482776389482
 20
105.553180682833
 30
0.0
  0
VERTEX
  5
112E
  8
0
 10
42.661892830089691
 20
105.4474290044854
 30
0.0
  0
VERTEX
  5
112F
  8
0
 10
42.816572471217277
 20
105.3441672170411
 30
0.0
  0
VERTEX
  5
1130
  8
0
 10
42.964330988631609
 20
105.2455257208894
 30
0.0
  0
VERTEX
  5
1131
  8
0
 10
43.102121094868551
 20
105.1535389901946
 30
0.0
  0
VERTEX
  5
1132
  8
0
 10
43.22709946210778
 20
105.0701055260251
 30
0.0
  0
SEQEND
  5
1133
  8
0
  0
ARC
  5
B41
  8
0
 10
46.612115061021314
 20
107.54843800448501
 30
0.0
 40
4.8740580104405344
 50
181.31633617164351
 51
200.22327765511551
  0
ARC
  5
B42
  8
0
 10
31.170677735382071
 20
109.67234849398061
 30
0.0
 40
2.3130067012440771
 50
323.91694562954712
 51
328.15287845904032
  0
POLYLINE
  5
B43
  8
0
 66
     1
 10
0.0
 20
0.0
 30
0.0
 70
   128
  0
VERTEX
  5
1134
  8
0
 10
33.039966712401281
 20
108.310086191992
 30
0.0
  0
VERTEX
  5
1135
  8
0
 10
32.791852599636677
 20
108.20719448885571
 30
0.0
  0
VERTEX
  5
1136
  8
0
 10
32.531338625283013
 20
108.0991607209544
 30
0.0
  0
VERTEX
  5
1137
  8
0
 10
32.262160091356407
 20
107.9875336777295
 30
0.0
  0
VERTEX
  5
1138
  8
0
 10
31.988176165775432
 20
107.8739139534409
 30
0.0
  0
VERTEX
  5
1139
  8
0
 10
31.713314934329158
 20
107.7599304312716
 30
0.0
  0
VERTEX
  5
113A
  8
0
 10
31.441517754153381
 20
107.6472175823401
 30
0.0
  0
VERTEX
  5
113B
  8
0
 10
31.176680813238988
 20
107.5373911348979
 30
0.0
  0
VERTEX
  5
113C
  8
0
 10
30.92260204504527
 20
107.43202572258809
 30
0.0
  0
SEQEND
  5
113D
  8
0
  0
ARC
  5
B44
  8
0
 10
27.556200782949588
 20
103.9072729225521
 30
0.0
 40
4.8740680913176488
 50
46.316365633838743
 51
65.223271050614272
  0
ARC
  5
B45
  8
0
 10
27.551469073113029
 20
115.4344467346845
 30
0.0
 40
4.8740613609818206
 50
294.82379571808042
 51
313.73072163984318
  0
ARC
  5
B46
  8
0
 10
31.170677735382071
 20
109.67234849398061
 30
0.0
 40
2.3130067012440931
 50
31.8941952618169
 51
36.130128091308471
  0
ARC
  5
B47
  8
0
 10
27.493527490630211
 20
109.6708376783192
 30
0.0
 40
5.7721322915265949
 50
347.80849952721411
 51
12.238579380577081
  0
ARC
  5
B48
  8
0
 10
32.683322235493051
 20
106.0247405248777
 30
0.0
 40
2.3130067012440798
 50
8.9169456295477154
 51
13.15287845904122
  0
POLYLINE
  5
B49
  8
0
 66
     1
 10
0.0
 20
0.0
 30
0.0
 70
   128
  0
VERTEX
  5
113E
  8
0
 10
34.968374062025021
 20
106.383262439991
 30
0.0
  0
VERTEX
  5
113F
  8
0
 10
34.865686318532603
 20
106.1350638097028
 30
0.0
  0
VERTEX
  5
1140
  8
0
 10
34.757866521992753
 20
105.8744613597045
 30
0.0
  0
VERTEX
  5
1141
  8
0
 10
34.646460784294668
 20
105.60519132333501
 30
0.0
  0
VERTEX
  5
1142
  8
0
 10
34.533066207238498
 20
105.33111379983529
 30
0.0
  0
VERTEX
  5
1143
  8
0
 10
34.419308530793558
 20
105.05615943613149
 30
0.0
  0
VERTEX
  5
1144
  8
0
 10
34.306818966449271
 20
104.7842695893596
 30
0.0
  0
VERTEX
  5
1145
  8
0
 10
34.197209982828269
 20
104.5193427758167
 30
0.0
  0
VERTEX
  5
1146
  8
0
 10
34.092053652436498
 20
104.2651769289623
 30
0.0
  0
SEQEND
  5
1147
  8
0
  0
ARC
  5
B4A
  8
0
 10
34.204022361499199
 20
99.392405182068075
 30
0.0
 40
4.874058010440562
 50
91.316336171643471
 51
110.223277655114
  0
ARC
  5
B4B
  8
0
 10
29.025619674769469
 20
102.3640316424591
 30
0.0
 40
3.8433189669963741
 50
24.633763656876749
 51
65.41330846577776
  0
ARC
  5
B4C
  8
0
 10
26.049730884469909
 20
107.5399932816113
 30
0.0
 40
4.8740671252423589
 50
339.82380779387017
 51
358.73071270598939
  0
ARC
  5
B4D
  8
0
 10
32.683322235493051
 20
106.0247405248777
 30
0.0
 40
2.313006701244074
 50
76.89419526181679
 51
81.130128091309686
  0
ARC
  5
B4E
  8
0
 10
30.08425126522684
 20
103.4235333528466
 30
0.0
 40
5.7721339272451608
 50
32.808498836397327
 51
57.238574192951717
  0
ARC
  5
B4F
  8
0
 10
29.362238366278461
 20
112.55727809546509
 30
0.0
 40
1.723006094011279
 50
221.41686260395059
 51
227.40097536241441
  0
ARC
  5
B50
  8
0
 10
29.362238366278461
 20
112.55727809546509
 30
0.0
 40
1.7230060940112759
 50
87.646098358441606
 51
93.630211116910502
  0
ARC
  5
B51
  8
0
 10
41.664269295823992
 20
104.34463169483629
 30
0.0
 40
1.7230060940112779
 50
18.916862603948939
 51
24.90097536241721
  0
ARC
  5
B52
  8
0
 10
41.664269295823992
 20
104.34463169483629
 30
0.0
 40
1.723006094011281
 50
245.14609835844121
 51
251.13021111690901
  0
POLYLINE
  5
B53
  8
0
 66
     1
 10
0.0
 20
0.0
 30
0.0
 70
   128
  0
VERTEX
  5
1148
  8
0
 10
40.14563269230819
 20
103.96912345233061
 30
0.0
  0
VERTEX
  5
1149
  8
0
 10
40.245909358070257
 20
103.81918238046271
 30
0.0
  0
VERTEX
  5
114A
  8
0
 10
40.350218883411053
 20
103.6632105292628
 30
0.0
  0
VERTEX
  5
114B
  8
0
 10
40.456410146013859
 20
103.50442561822631
 30
0.0
  0
VERTEX
  5
114C
  8
0
 10
40.562292209521893
 20
103.3461026431869
 30
0.0
  0
VERTEX
  5
114D
  8
0
 10
40.665681122497681
 20
103.1915077524136
 30
0.0
  0
VERTEX
  5
114E
  8
0
 10
40.764443690584073
 20
103.0438302600632
 30
0.0
  0
VERTEX
  5
114F
  8
0
 10
40.85654357697166
 20
102.9061160566161
 30
0.0
  0
VERTEX
  5
1150
  8
0
 10
40.94007948662437
 20
102.7812061415861
 30
0.0
  0
SEQEND
  5
1151
  8
0
  0
ARC
  5
B54
  8
0
 10
43.640488600630299
 20
102.3700353177553
 30
0.0
 40
3.843318966996355
 50
114.6337636568782
 51
155.4133084657777
  0
ARC
  5
B55
  8
0
 10
39.979779718211716
 20
106.0277378784788
 30
0.0
 40
2.3130067012440909
 50
98.916945629547712
 51
103.1528784590412
  0
ARC
  5
B56
  8
0
 10
38.464526961478072
 20
99.394146527455675
 30
0.0
 40
4.8740671252423784
 50
69.823807793870145
 51
88.730712705989404
  0
POLYLINE
  5
B57
  8
0
 66
     1
 10
0.0
 20
0.0
 30
0.0
 70
   128
  0
VERTEX
  5
1152
  8
0
 10
37.694434051097403
 20
106.384382355387
 30
0.0
  0
VERTEX
  5
1153
  8
0
 10
37.797325754233668
 20
106.13626824262241
 30
0.0
  0
VERTEX
  5
1154
  8
0
 10
37.905359522135029
 20
105.87575426826881
 30
0.0
  0
VERTEX
  5
1155
  8
0
 10
38.0169865653599
 20
105.6065757343422
 30
0.0
  0
VERTEX
  5
1156
  8
0
 10
38.130606289648483
 20
105.33259180876119
 30
0.0
  0
VERTEX
  5
1157
  8
0
 10
38.244589811817768
 20
105.0577305773149
 30
0.0
  0
VERTEX
  5
1158
  8
0
 10
38.357302660749319
 20
104.7859333971391
 30
0.0
  0
VERTEX
  5
1159
  8
0
 10
38.4671291081915
 20
104.5210964562247
 30
0.0
  0
VERTEX
  5
115A
  8
0
 10
38.572494520501259
 20
104.267017688031
 30
0.0
  0
SEQEND
  5
115B
  8
0
  0
ARC
  5
B58
  8
0
 10
39.979779718211716
 20
106.0277378784788
 30
0.0
 40
2.3130067012440891
 50
166.89419526181831
 51
171.13012809131129
  0
ARC
  5
B59
  8
0
 10
42.580986890242741
 20
103.42866690821261
 30
0.0
 40
5.7721339272451342
 50
122.8084988363987
 51
147.23857419295169
  0
POLYLINE
  5
B5A
  8
0
 66
     1
 10
0.0
 20
0.0
 30
0.0
 70
   128
  0
VERTEX
  5
115C
  8
0
 10
43.061263042197588
 20
111.0162637246649
 30
0.0
  0
VERTEX
  5
115D
  8
0
 10
43.238164505616787
 20
111.0515272062148
 30
0.0
  0
VERTEX
  5
115E
  8
0
 10
43.422180807844761
 20
111.08820897563049
 30
0.0
  0
VERTEX
  5
115F
  8
0
 10
43.609516809389952
 20
111.12555244973549
 30
0.0
  0
VERTEX
  5
1160
  8
0
 10
43.796307521567712
 20
111.16278719192989
 30
0.0
  0
VERTEX
  5
1161
  8
0
 10
43.97869959722555
 20
111.19914509392029
 30
0.0
  0
VERTEX
  5
1162
  8
0
 10
44.152930958823333
 20
111.2338763246189
 30
0.0
  0
VERTEX
  5
1163
  8
0
 10
44.3154076325456
 20
111.26626423130431
 30
0.0
  0
VERTEX
  5
1164
  8
0
 10
44.462777322785023
 20
111.29564082286009
 30
0.0
  0
SEQEND
  5
1165
  8
0
  0
ARC
  5
B5B
  8
0
 10
43.870676663799827
 20
109.67756559935169
 30
0.0
 40
1.7230060940112719
 50
63.916862603949021
 51
69.900975362416361
  0
ARC
  5
B5C
  8
0
 10
43.870676663799827
 20
109.67756559935169
 30
0.0
 40
1.7230060940112839
 50
290.14609835844101
 51
296.13021111690841
  0
POLYLINE
  5
B5D
  8
0
 66
     1
 10
0.0
 20
0.0
 30
0.0
 70
   128
  0
VERTEX
  5
1166
  8
0
 10
42.035396790758732
 20
113.49004833529391
 30
0.0
  0
VERTEX
  5
1167
  8
0
 10
42.185337862626682
 20
113.590325001056
 30
0.0
  0
VERTEX
  5
1168
  8
0
 10
42.34130971382654
 20
113.6946345263968
 30
0.0
  0
VERTEX
  5
1169
  8
0
 10
42.500094624863031
 20
113.8008257889996
 30
0.0
  0
VERTEX
  5
116A
  8
0
 10
42.658417599902521
 20
113.90670785250759
 30
0.0
  0
VERTEX
  5
116B
  8
0
 10
42.81301249067581
 20
114.0100967654834
 30
0.0
  0
VERTEX
  5
116C
  8
0
 10
42.96068998302615
 20
114.1088593335698
 30
0.0
  0
VERTEX
  5
116D
  8
0
 10
43.09840418647326
 20
114.2009592199574
 30
0.0
  0
VERTEX
  5
116E
  8
0
 10
43.223314101503263
 20
114.28449512961009
 30
0.0
  0
SEQEND
  5
116F
  8
0
  0
ARC
  5
B5E
  8
0
 10
43.295495390323993
 20
112.5630018179998
 30
0.0
 40
1.723006094011283
 50
86.416862603948474
 51
92.400975362417725
  0
ARC
  5
B5F
  8
0
 10
43.295495390323993
 20
112.5630018179998
 30
0.0
 40
1.7230060940112779
 50
312.64609835844078
 51
318.63021111690921
  0
POLYLINE
  5
B60
  8
0
 66
     1
 10
0.0
 20
0.0
 30
0.0
 70
   128
  0
VERTEX
  5
1170
  8
0
 10
40.140943948806289
 20
115.3829454028855
 30
0.0
  0
VERTEX
  5
1171
  8
0
 10
40.241097214327219
 20
115.53296889680129
 30
0.0
  0
VERTEX
  5
1172
  8
0
 10
40.345278682814012
 20
115.68902596401669
 30
0.0
  0
VERTEX
  5
1173
  8
0
 10
40.451339560256372
 20
115.8478984193752
 30
0.0
  0
VERTEX
  5
1174
  8
0
 10
40.557091238603952
 20
116.00630847307541
 30
0.0
  0
VERTEX
  5
1175
  8
0
 10
40.660353026048313
 20
116.16098811420299
 30
0.0
  0
VERTEX
  5
1176
  8
0
 10
40.758994522199991
 20
116.3087466316174
 30
0.0
  0
VERTEX
  5
1177
  8
0
 10
40.850981252894762
 20
116.4465367378543
 30
0.0
  0
VERTEX
  5
1178
  8
0
 10
40.934414717064271
 20
116.5715151050935
 30
0.0
  0
SEQEND
  5
1179
  8
0
  0
ARC
  5
B61
  8
0
 10
41.659888548253029
 20
115.00868493880979
 30
0.0
 40
1.723006094011275
 50
108.9168626039489
 51
114.9009753624179
  0
ARC
  5
B62
  8
0
 10
41.659888548253029
 20
115.00868493880979
 30
0.0
 40
1.7230060940112899
 50
335.1460983584397
 51
341.13021111690898
  0
POLYLINE
  5
B63
  8
0
 66
     1
 10
0.0
 20
0.0
 30
0.0
 70
   128
  0
VERTEX
  5
117A
  8
0
 10
37.666317422569762
 20
116.406778577144
 30
0.0
  0
VERTEX
  5
117B
  8
0
 10
37.701435501382718
 20
116.58370891156299
 30
0.0
  0
VERTEX
  5
117C
  8
0
 10
37.737966047295401
 20
116.7677559474359
 30
0.0
  0
VERTEX
  5
117D
  8
0
 10
37.775155503929618
 20
116.9551222169648
 30
0.0
  0
VERTEX
  5
117E
  8
0
 10
37.812236810729871
 20
117.1419436627875
 30
0.0
  0
VERTEX
  5
117F
  8
0
 10
37.848444886201086
 20
117.3243655407677
 30
0.0
  0
VERTEX
  5
1180
  8
0
 10
37.883032926053772
 20
117.498625307704
 30
0.0
  0
VERTEX
  5
1181
  8
0
 10
37.915287304365108
 20
117.6611280584584
 30
0.0
  0
VERTEX
  5
1182
  8
0
 10
37.944542823986183
 20
117.8085219630848
 30
0.0
  0
SEQEND
  5
1183
  8
0
  0
ARC
  5
B64
  8
0
 10
39.212862452479357
 20
116.6422818768109
 30
0.0
 40
1.723006094011279
 50
131.41686260395059
 51
137.40097536241791
  0
ARC
  5
B65
  8
0
 10
39.212862452479357
 20
116.6422818768109
 30
0.0
 40
1.7230060940112759
 50
357.64609835843999
 51
3.6302111169088902
  0
ARC
  5
B66
  8
0
 10
36.326954643737679
 20
117.21509230678561
 30
0.0
 40
1.723006094011277
 50
153.916862603949
 51
159.9009753624178
  0
ARC
  5
B67
  8
0
 10
36.326954643737679
 20
117.21509230678561
 30
0.0
 40
1.723006094011289
 50
20.146098358440991
 51
26.130211116909859
  0
ARC
  5
B68
  8
0
 10
36.332171749108802
 20
104.51509337836789
 30
0.0
 40
2.313006701244078
 50
53.916945629547037
 51
58.152878459041197
  0
ARC
  5
B69
  8
0
 10
42.097247320537228
 20
100.9006164259353
 30
0.0
 40
4.8740680913176186
 50
136.3163656338387
 51
155.2232710506164
  0
ARC
  5
B6A
  8
0
 10
36.334297197874349
 20
99.340195303653815
 30
0.0
 40
3.8433185402846011
 50
69.633756072986003
 51
110.4133072059891
  0
ARC
  5
B6B
  8
0
 10
30.57007350840485
 20
100.89588471609881
 30
0.0
 40
4.8740613609818144
 50
24.823795718080319
 51
43.730721639843239
  0
ARC
  5
B6C
  8
0
 10
36.332171749108802
 20
104.51509337836789
 30
0.0
 40
2.3130067012440811
 50
121.8941952618182
 51
126.1301280913107
  0
ARC
  5
B6D
  8
0
 10
36.333682564770129
 20
100.83794313361599
 30
0.0
 40
5.7721322915265816
 50
77.808499527214067
 51
102.2385793805786
  0
ARC
  5
B6E
  8
0
 10
36.330052300051818
 20
109.6744679430376
 30
0.0
 40
3.4205262752974108
 50
245.9422561098902
 51
249.10481761096969
  0
ARC
  5
B6F
  8
0
 10
36.330052300051818
 20
109.6744679430376
 30
0.0
 40
3.4205262752974259
 50
200.94225610988889
 51
204.10481761096841
  0
ARC
  5
B70
  8
0
 10
36.330052300051818
 20
109.6744679430376
 30
0.0
 40
3.4205262752974162
 50
155.94225610989011
 51
159.1048176109681
  0
ARC
  5
B71
  8
0
 10
36.330052300051818
 20
109.6744679430376
 30
0.0
 40
3.4205262752974179
 50
110.94225610989039
 51
114.1048176109698
  0
ARC
  5
B72
  8
0
 10
36.330052300051818
 20
109.6744679430376
 30
0.0
 40
3.4205262752974139
 50
65.942256109890167
 51
69.104817610968126
  0
ARC
  5
B73
  8
0
 10
36.330052300051818
 20
109.6744679430376
 30
0.0
 40
3.4205262752974099
 50
20.94225610988893
 51
24.10481761096835
  0
ARC
  5
B74
  8
0
 10
36.330052300051818
 20
109.6744679430376
 30
0.0
 40
3.4205262752974188
 50
335.9422561098902
 51
339.10481761096821
  0
ARC
  5
B75
  8
0
 10
36.330052300051818
 20
109.6744679430376
 30
0.0
 40
3.4205262752974139
 50
290.94225610988889
 51
294.10481761096833
  0
POLYLINE
  5
B76
  8
0
 66
     1
 10
0.0
 20
0.0
 30
0.0
 70
   128
  0
VERTEX
  5
1184
  8
0
 10
30.624707809344901
 20
105.8588875507812
 30
0.0
  0
VERTEX
  5
1185
  8
0
 10
30.474766737476951
 20
105.7586108850191
 30
0.0
  0
VERTEX
  5
1186
  8
0
 10
30.31879488627709
 20
105.6543013596783
 30
0.0
  0
VERTEX
  5
1187
  8
0
 10
30.160009975240602
 20
105.54811009707549
 30
0.0
  0
VERTEX
  5
1188
  8
0
 10
30.00168700020112
 20
105.4422280335675
 30
0.0
  0
VERTEX
  5
1189
  8
0
 10
29.84709210942782
 20
105.3388391205917
 30
0.0
  0
VERTEX
  5
118A
  8
0
 10
29.69941461707748
 20
105.2400765525053
 30
0.0
  0
VERTEX
  5
118B
  8
0
 10
29.561700413630369
 20
105.1479766661177
 30
0.0
  0
VERTEX
  5
118C
  8
0
 10
29.43679049860037
 20
105.064440756465
 30
0.0
  0
SEQEND
  5
118D
  8
0
  0
ARC
  5
B77
  8
0
 10
29.364609209779591
 20
106.78593406807531
 30
0.0
 40
1.723006094011283
 50
266.41686260394857
 51
272.40097536241768
  0
ARC
  5
B78
  8
0
 10
29.364609209779591
 20
106.78593406807531
 30
0.0
 40
1.723006094011283
 50
132.6460983584409
 51
138.6302111169104
  0
POLYLINE
  5
B79
  8
0
 66
     1
 10
0.0
 20
0.0
 30
0.0
 70
   128
  0
VERTEX
  5
118E
  8
0
 10
32.519160651297341
 20
103.9659904831896
 30
0.0
  0
VERTEX
  5
118F
  8
0
 10
32.419007385776411
 20
103.8159669892738
 30
0.0
  0
VERTEX
  5
1190
  8
0
 10
32.314825917289618
 20
103.6599099220584
 30
0.0
  0
VERTEX
  5
1191
  8
0
 10
32.208765039847258
 20
103.5010374666999
 30
0.0
  0
VERTEX
  5
1192
  8
0
 10
32.103013361499677
 20
103.3426274129997
 30
0.0
  0
VERTEX
  5
1193
  8
0
 10
31.99975157405532
 20
103.1879477718721
 30
0.0
  0
VERTEX
  5
1194
  8
0
 10
31.901110077903638
 20
103.0401892544578
 30
0.0
  0
VERTEX
  5
1195
  8
0
 10
31.809123347208871
 20
102.90239914822079
 30
0.0
  0
VERTEX
  5
1196
  8
0
 10
31.725689883039362
 20
102.7774207809816
 30
0.0
  0
SEQEND
  5
1197
  8
0
  0
ARC
  5
B7A
  8
0
 10
31.00021605185054
 20
104.3402509472654
 30
0.0
 40
1.7230060940112819
 50
288.91686260394891
 51
294.90097536241569
  0
ARC
  5
B7B
  8
0
 10
31.00021605185054
 20
104.3402509472654
 30
0.0
 40
1.7230060940112899
 50
155.14609835844121
 51
161.13021111691049
  0
POLYLINE
  5
B7C
  8
0
 66
     1
 10
0.0
 20
0.0
 30
0.0
 70
   128
  0
VERTEX
  5
1198
  8
0
 10
37.671848081679123
 20
102.94325720089179
 30
0.0
  0
VERTEX
  5
1199
  8
0
 10
37.707111563229027
 20
102.76635573747259
 30
0.0
  0
VERTEX
  5
119A
  8
0
 10
37.743793332644771
 20
102.58233943524461
 30
0.0
  0
VERTEX
  5
119B
  8
0
 10
37.781136806749771
 20
102.3950034336994
 30
0.0
  0
VERTEX
  5
119C
  8
0
 10
37.818371548944178
 20
102.2082127215217
 30
0.0
  0
VERTEX
  5
119D
  8
0
 10
37.854729450934599
 20
102.0258206458638
 30
0.0
  0
VERTEX
  5
119E
  8
0
 10
37.889460681633118
 20
101.851589284266
 30
0.0
  0
VERTEX
  5
119F
  8
0
 10
37.921848588318603
 20
101.6891126105438
 30
0.0
  0
VERTEX
  5
11A0
  8
0
 10
37.95122517987437
 20
101.5417429203044
 30
0.0
  0
SEQEND
  5
11A1
  8
0
  0
ARC
  5
B7D
  8
0
 10
36.333149956365851
 20
102.1338435792896
 30
0.0
 40
1.7230060940112899
 50
333.91686260394903
 51
339.90097536241637
  0
ARC
  5
B7E
  8
0
 10
36.333149956365851
 20
102.1338435792896
 30
0.0
 40
1.723006094011283
 50
200.14609835844101
 51
206.13021111690989
  0
POLYLINE
  5
B7F
  8
0
 66
     1
 10
0.0
 20
0.0
 30
0.0
 70
   128
  0
VERTEX
  5
11A2
  8
0
 10
34.993787177533868
 20
102.9421573089312
 30
0.0
  0
VERTEX
  5
11A3
  8
0
 10
34.958669098720918
 20
102.7652269745122
 30
0.0
  0
VERTEX
  5
11A4
  8
0
 10
34.922138552808228
 20
102.5811799386392
 30
0.0
  0
VERTEX
  5
11A5
  8
0
 10
34.884949096174012
 20
102.3938136691104
 30
0.0
  0
VERTEX
  5
11A6
  8
0
 10
34.847867789373758
 20
102.2069922232876
 30
0.0
  0
VERTEX
  5
11A7
  8
0
 10
34.811659713902543
 20
102.0245703453074
 30
0.0
  0
VERTEX
  5
11A8
  8
0
 10
34.777071674049857
 20
101.85031057837109
 30
0.0
  0
VERTEX
  5
11A9
  8
0
 10
34.744817295738528
 20
101.68780782761669
 30
0.0
  0
VERTEX
  5
11AA
  8
0
 10
34.715561776117447
 20
101.5404139229904
 30
0.0
  0
SEQEND
  5
11AB
  8
0
  0
ARC
  5
B80
  8
0
 10
39.218586175014032
 20
102.7090248527654
 30
0.0
 40
1.7230060940112919
 50
356.41686260394852
 51
2.4009753624177419
  0
ARC
  5
B81
  8
0
 10
39.218586175014032
 20
102.7090248527654
 30
0.0
 40
1.7230060940112779
 50
222.6460983584409
 51
228.6302111169104
  0
ARC
  5
B82
  8
0
 10
33.447242147624202
 20
102.7066540092643
 30
0.0
 40
1.7230060940112799
 50
311.41686260394829
 51
317.40097536241802
  0
ARC
  5
B83
  8
0
 10
33.447242147624202
 20
102.7066540092643
 30
0.0
 40
1.7230060940112859
 50
177.64609835844161
 51
183.63021111690881
  0
CIRCLE
  5
B84
  8
0
 10
36.330052300051818
 20
109.6744679430376
 30
0.0
 40
11.499999999999989
  0
POLYLINE
  5
B85
  8
0
 66
     1
 10
0.0
 20
0.0
 30
0.0
 70
   128
  0
VERTEX
  5
11AC
  8
0
 10
29.401851098705858
 20
97.674467838729484
 30
0.0
  0
VERTEX
  5
11AD
  8
0
 10
25.071126057461871
 20
105.1755000421653
 30
0.0
  0
VERTEX
  5
11AE
  8
0
 10
24.20569641764558
 20
106.6744679169605
 30
0.0
  0
VERTEX
  5
11AF
  8
0
 10
23.338341734067569
 20
108.1767702758188
 30
0.0
  0
VERTEX
  5
11B0
  8
0
 10
22.473645976440078
 20
109.6744679430376
 30
0.0
  0
SEQEND
  5
11B1
  8
0
  0
POLYLINE
  5
B8A
  8
0
 66
     1
 10
0.0
 20
0.0
 30
0.0
 70
   128
  0
VERTEX
  5
11B2
  8
0
 10
22.473647090405219
 20
109.67446601359249
 30
0.0
  0
VERTEX
  5
11B3
  8
0
 10
26.804368591562881
 20
117.1755001464735
 30
0.0
  0
VERTEX
  5
11B4
  8
0
 10
27.669798231379161
 20
118.67446755560739
 30
0.0
  0
VERTEX
  5
11B5
  8
0
 10
28.537152914957169
 20
120.176770030881
 30
0.0
  0
VERTEX
  5
11B6
  8
0
 10
29.40184913824595
 20
121.6744680473457
 30
0.0
  0
SEQEND
  5
11B7
  8
0
  0
LINE
  5
B8B
  8
0
 10
43.258255461857679
 20
97.674467838729484
 30
0.0
 11
29.40184913824595
 21
97.674467838729484
 31
0.0
  0
LINE
  5
B90
  8
0
 10
29.40184913824595
 20
121.6744680473457
 30
0.0
 11
43.258255461857679
 21
121.6744680473457
 31
0.0
  0
POLYLINE
  5
B91
  8
0
 66
     1
 10
0.0
 20
0.0
 30
0.0
 70
   128
  0
VERTEX
  5
11B8
  8
0
 10
43.258253501397768
 20
121.6744680473457
 30
0.0
  0
VERTEX
  5
11B9
  8
0
 10
47.588978542641762
 20
114.1734358439098
 30
0.0
  0
VERTEX
  5
11BA
  8
0
 10
48.454408182458053
 20
112.6744679691146
 30
0.0
  0
VERTEX
  5
11BB
  8
0
 10
49.32176286603606
 20
111.1721656102563
 30
0.0
  0
VERTEX
  5
11BC
  8
0
 10
50.186458623663547
 20
109.6744679430376
 30
0.0
  0
SEQEND
  5
11BD
  8
0
  0
POLYLINE
  5
B96
  8
0
 66
     1
 10
0.0
 20
0.0
 30
0.0
 70
   128
  0
VERTEX
  5
11BE
  8
0
 10
50.186457509698421
 20
109.6744698724827
 30
0.0
  0
VERTEX
  5
11BF
  8
0
 10
45.855736008540752
 20
102.1734357396017
 30
0.0
  0
VERTEX
  5
11C0
  8
0
 10
44.990306368724468
 20
100.6744683304678
 30
0.0
  0
VERTEX
  5
11C1
  8
0
 10
44.122951685146461
 20
99.172165855194194
 30
0.0
  0
VERTEX
  5
11C2
  8
0
 10
43.258255461857679
 20
97.674467838729484
 30
0.0
  0
SEQEND
  5
11C3
  8
0
  0
ARC
  5
B97
  8
0
 10
25.465052300051781
 20
67.744628164532074
 30
0.0
 40
0.6349999999999959
 50
175.7339246997891
 51
180.0
  0
ARC
  5
B98
  8
0
 10
47.195052300051771
 20
67.744628164532116
 30
0.0
 40
0.6350000000000052
 50
359.99999999999682
 51
4.2726603436415136
  0
ARC
  5
B99
  8
0
 10
36.334124312413252
 20
67.792128164532159
 30
0.0
 40
1.587499999999977
 50
52.047021448088948
 51
127.9493625916685
  0
LINE
  5
B9A
  8
0
 10
24.830052277700052
 20
67.744628106013636
 30
0.0
 11
24.830052277700052
 21
66.363628067777256
 31
0.0
  0
LINE
  5
B9B
  8
0
 10
47.830052322403532
 20
66.363628067777256
 30
0.0
 11
47.830052322403532
 21
67.744628106013636
 31
0.0
  0
ARC
  5
B9C
  8
0
 10
34.400213416022808
 20
67.79212816453213
 30
0.0
 40
1.5875000000000159
 50
52.05063740833377
 51
129.75366854549341
  0
ARC
  5
B9D
  8
0
 10
38.267878723652252
 20
67.79212816453213
 30
0.0
 40
1.5875000000000099
 50
50.234451136640367
 51
127.952978551911
  0
ARC
  5
B9E
  8
0
 10
32.540465145679491
 20
67.79212816453213
 30
0.0
 40
1.587500000000023
 50
54.32183243994276
 51
133.9332039764513
  0
ARC
  5
B9F
  8
0
 10
40.127163552177869
 20
67.79212816453213
 30
0.0
 40
1.5875000000000219
 50
46.042544268776012
 51
126.0235182920118
  0
ARC
  5
BA0
  8
0
 10
30.82634858445374
 20
67.79212816453213
 30
0.0
 40
1.5875000000000059
 50
57.485744143682943
 51
142.324006488865
  0
ARC
  5
BA1
  8
0
 10
41.840527524728792
 20
67.79212816453213
 30
0.0
 40
1.587500000000015
 50
37.625920498178473
 51
122.820709079407
  0
ARC
  5
BA2
  8
0
 10
36.333149956365851
 20
67.395253164532136
 30
0.0
 40
1.9843749999999949
 50
59.010597476665033
 51
121.2458465232846
  0
ARC
  5
BA3
  8
0
 10
43.342127024705491
 20
67.79212816453213
 30
0.0
 40
1.5875000000000039
 50
21.027888876295801
 51
118.3643950686531
  0
ARC
  5
BA4
  8
0
 10
29.323736270505801
 20
67.79212816453213
 30
0.0
 40
1.587499999999991
 50
61.892265192558916
 51
159.0514420716213
  0
ARC
  5
BA5
  8
0
 10
33.447242147624202
 20
67.395253164532136
 30
0.0
 40
1.984374999999994
 50
75.426700032529993
 51
104.0892504306851
  0
ARC
  5
BA6
  8
0
 10
39.218586175014032
 20
67.395253164532136
 30
0.0
 40
1.9843749999999969
 50
76.119398809415998
 51
104.78998284184431
  0
ARC
  5
BA7
  8
0
 10
44.574256425430569
 20
67.79212816453213
 30
0.0
 40
1.587500000000009
 50
17.788753240600862
 51
112.94740707382751
  0
ARC
  5
BA8
  8
0
 10
28.090372752386031
 20
67.79212816453213
 30
0.0
 40
1.5875000000000019
 50
67.25396213765049
 51
161.90520075825739
  0
ARC
  5
BA9
  8
0
 10
31.000216051850519
 20
67.395253164532136
 30
0.0
 40
1.9843749999999969
 50
65.868887054902487
 51
92.754320834278346
  0
ARC
  5
BAA
  8
0
 10
41.664269295823992
 20
67.395253164532136
 30
0.0
 40
1.984375000000002
 50
87.415854699027193
 51
114.33184049748471
  0
ARC
  5
BAB
  8
0
 10
36.332171749108802
 20
66.204628164532124
 30
0.0
 40
3.1750000000000069
 50
69.008324431584583
 51
111.1334115188743
  0
POLYLINE
  5
BAC
  8
0
 66
     1
 10
0.0
 20
0.0
 30
0.0
 70
   128
  0
VERTEX
  5
11C4
  8
0
 10
33.107013090209108
 20
69.351231259063582
 30
0.0
  0
VERTEX
  5
11C5
  8
0
 10
32.772496224076491
 20
69.378375586823324
 30
0.0
  0
VERTEX
  5
11C6
  8
0
 10
32.595227353901613
 20
69.378405854806985
 30
0.0
  0
SEQEND
  5
11C7
  8
0
  0
POLYLINE
  5
BAD
  8
0
 66
     1
 10
0.0
 20
0.0
 30
0.0
 70
   128
  0
VERTEX
  5
11C8
  8
0
 10
32.199023405716758
 20
69.342474498555745
 30
0.0
  0
VERTEX
  5
11C9
  8
0
 10
32.025733611241918
 20
69.310783919648031
 30
0.0
  0
VERTEX
  5
11CA
  8
0
 10
31.737976356104951
 20
69.235625722215275
 30
0.0
  0
SEQEND
  5
11CB
  8
0
  0
POLYLINE
  5
BAE
  8
0
 66
     1
 10
0.0
 20
0.0
 30
0.0
 70
   128
  0
VERTEX
  5
11CC
  8
0
 10
40.920965487764221
 20
69.23692026059399
 30
0.0
  0
VERTEX
  5
11CD
  8
0
 10
40.637495576099489
 20
69.310756911293353
 30
0.0
  0
VERTEX
  5
11CE
  8
0
 10
40.479197746769529
 20
69.340103816942076
 30
0.0
  0
SEQEND
  5
11CF
  8
0
  0
POLYLINE
  5
BAF
  8
0
 66
     1
 10
0.0
 20
0.0
 30
0.0
 70
   128
  0
VERTEX
  5
11D0
  8
0
 10
40.06171051661763
 20
69.378570698902706
 30
0.0
  0
VERTEX
  5
11D1
  8
0
 10
39.890457524613481
 20
69.378371395871724
 30
0.0
  0
VERTEX
  5
11D2
  8
0
 10
39.551209539801818
 20
69.350570485696892
 30
0.0
  0
SEQEND
  5
11D3
  8
0
  0
ARC
  5
BB0
  8
0
 10
45.489565685020267
 20
67.79212816453213
 30
0.0
 40
1.5874999999999919
 50
12.661936023754469
 51
106.84068143655669
  0
ARC
  5
BB1
  8
0
 10
27.173655498417531
 20
67.79212816453213
 30
0.0
 40
1.587499999999997
 50
73.303334265681684
 51
167.2225083445735
  0
ARC
  5
BB2
  8
0
 10
29.364609209779591
 20
67.395253164532093
 30
0.0
 40
1.984375000000012
 50
67.171628703552813
 51
90.034142521677794
  0
POLYLINE
  5
BB3
  8
0
 66
     1
 10
0.0
 20
0.0
 30
0.0
 70
   128
  0
VERTEX
  5
11D4
  8
0
 10
28.98131601761375
 20
69.342258431718435
 30
0.0
  0
VERTEX
  5
11D5
  8
0
 10
28.72431615616475
 20
69.273488641486253
 30
0.0
  0
VERTEX
  5
11D6
  8
0
 10
28.688363379494291
 20
69.260845937535862
 30
0.0
  0
SEQEND
  5
11D7
  8
0
  0
POLYLINE
  5
BB4
  8
0
 66
     1
 10
0.0
 20
0.0
 30
0.0
 70
   128
  0
VERTEX
  5
11D8
  8
0
 10
43.970451338843439
 20
69.262168881253103
 30
0.0
  0
VERTEX
  5
11D9
  8
0
 10
43.937529085830789
 20
69.273703311339716
 30
0.0
  0
VERTEX
  5
11DA
  8
0
 10
43.71221700932179
 20
69.335886322662915
 30
0.0
  0
SEQEND
  5
11DB
  8
0
  0
ARC
  5
BB5
  8
0
 10
43.29786623382509
 20
67.395253164532093
 30
0.0
 40
1.9843750000000231
 50
89.413168251140206
 51
112.98081519358929
  0
ARC
  5
BB6
  8
0
 10
36.33005230005179
 20
63.029628164532078
 30
0.0
 40
6.3500000000000254
 50
78.246858385125108
 51
101.8030412564607
  0
ARC
  5
BB7
  8
0
 10
26.608813438569371
 20
67.792128164532102
 30
0.0
 40
1.5875000000000159
 50
79.809508275075061
 51
174.3108669763065
  0
ARC
  5
BB8
  8
0
 10
46.052879981939888
 20
67.792128164532102
 30
0.0
 40
1.587500000000025
 50
5.6954872766630897
 51
100.27677773034711
  0
ARC
  5
BB9
  8
0
 10
31.170677735382071
 20
66.204628164532096
 30
0.0
 40
3.1750000000000211
 50
76.246825589679929
 51
91.7624494884043
  0
ARC
  5
BBA
  8
0
 10
41.489426864721509
 20
66.204628164532096
 30
0.0
 40
3.175000000000002
 50
88.281725474300373
 51
103.7810193591522
  0
ARC
  5
BBB
  8
0
 10
28.789427936303749
 20
67.395253164532093
 30
0.0
 40
1.984374999999998
 50
81.915055642691257
 51
100.7928122492884
  0
ARC
  5
BBC
  8
0
 10
43.870676663799827
 20
67.395253164532093
 30
0.0
 40
1.9843750000000011
 50
79.277493432473122
 51
98.173684985361646
  0
ARC
  5
BBD
  8
0
 10
26.41755313643441
 20
67.792128164532102
 30
0.0
 40
1.587500000000013
 50
86.575165470326866
 51
180.0
  0
ARC
  5
BBE
  8
0
 10
46.242551463669173
 20
67.792128164532102
 30
0.0
 40
1.587500000000009
 50
0.0060897587092544
 51
93.453557977897091
  0
LINE
  5
BBF
  8
0
 10
26.60802250976954
 20
69.379627750024895
 30
0.0
 11
26.512388719872579
 21
69.376792804107765
 31
0.0
  0
POLYLINE
  5
BC0
  8
0
 66
     1
 10
0.0
 20
0.0
 30
0.0
 70
   128
  0
VERTEX
  5
11DC
  8
0
 10
46.052085815624331
 20
69.379627750024895
 30
0.0
  0
VERTEX
  5
11DD
  8
0
 10
45.935369676605802
 20
69.375390232310394
 30
0.0
  0
VERTEX
  5
11DE
  8
0
 10
45.768869689361189
 20
69.354304623559813
 30
0.0
  0
SEQEND
  5
11DF
  8
0
  0
LINE
  5
BC1
  8
0
 10
29.363426494107589
 20
69.379627750024866
 30
0.0
 11
29.338874502734289
 21
69.379490845606384
 31
0.0
  0
ARC
  5
BC2
  8
0
 10
43.295495390323957
 20
67.395253164532079
 30
0.0
 40
1.98437500000001
 50
89.37703140815637
 51
112.9412645079997
  0
LINE
  5
BC3
  8
0
 10
32.681820097074848
 20
69.379627750024866
 30
0.0
 11
32.593986133740287
 21
69.378453817919564
 31
0.0
  0
POLYLINE
  5
BC4
  8
0
 66
     1
 10
0.0
 20
0.0
 30
0.0
 70
   128
  0
VERTEX
  5
11E0
  8
0
 10
32.206048371897083
 20
69.344005127207112
 30
0.0
  0
VERTEX
  5
11E1
  8
0
 10
32.022609024004083
 20
69.310756911293339
 30
0.0
  0
VERTEX
  5
11E2
  8
0
 10
31.925501416132789
 20
69.288597487614226
 30
0.0
  0
SEQEND
  5
11E3
  8
0
  0
POLYLINE
  5
BC5
  8
0
 66
     1
 10
0.0
 20
0.0
 30
0.0
 70
   128
  0
VERTEX
  5
11E4
  8
0
 10
39.978280777738441
 20
69.379627750024866
 30
0.0
  0
VERTEX
  5
11E5
  8
0
 10
39.887608376027089
 20
69.378375586823296
 30
0.0
  0
VERTEX
  5
11E6
  8
0
 10
39.549889157221664
 20
69.350798194066357
 30
0.0
  0
SEQEND
  5
11E7
  8
0
  0
ARC
  5
BC6
  8
0
 10
27.170538915083281
 20
67.792128164532102
 30
0.0
 40
1.5875000000000019
 50
89.943774912770294
 51
100.2196243214342
  0
ARC
  5
BC7
  8
0
 10
45.486449101685992
 20
67.792128164532102
 30
0.0
 40
1.587500000000007
 50
89.94375902480644
 51
106.7819288971202
  0
POLYLINE
  5
BC8
  8
0
 66
     1
 10
0.0
 20
0.0
 30
0.0
 70
   128
  0
VERTEX
  5
11E8
  8
0
 10
30.99802566941176
 20
69.379626818702292
 30
0.0
  0
VERTEX
  5
11E9
  8
0
 10
30.967979806170799
 20
69.379432637945484
 30
0.0
  0
VERTEX
  5
11EA
  8
0
 10
30.902791882560589
 20
69.377445661232542
 30
0.0
  0
SEQEND
  5
11EB
  8
0
  0
LINE
  5
BC9
  8
0
 10
41.66207893069182
 20
69.379626818702292
 30
0.0
 11
41.584629214064222
 21
69.378200498179254
 31
0.0
  0
ARC
  5
BCA
  8
0
 10
28.085848174672979
 20
67.792128164532102
 30
0.0
 40
1.5874999999999959
 50
89.918354497161246
 51
106.7553919307671
  0
POLYLINE
  5
BCB
  8
0
 66
     1
 10
0.0
 20
0.0
 30
0.0
 70
   128
  0
VERTEX
  5
11EC
  8
0
 10
44.571994452432733
 20
69.379626353041004
 30
0.0
  0
VERTEX
  5
11ED
  8
0
 10
44.336421995119188
 20
69.362390366152596
 30
0.0
  0
VERTEX
  5
11EE
  8
0
 10
44.239874577776533
 20
69.344980687604021
 30
0.0
  0
SEQEND
  5
11EF
  8
0
  0
POLYLINE
  5
BCC
  8
0
 66
     1
 10
0.0
 20
0.0
 30
0.0
 70
   128
  0
VERTEX
  5
11F0
  8
0
 10
33.444380269081343
 20
69.379625887379703
 30
0.0
  0
VERTEX
  5
11F1
  8
0
 10
33.394062307358723
 20
69.379060574576926
 30
0.0
  0
VERTEX
  5
11F2
  8
0
 10
33.105692707628947
 20
69.351004947677922
 30
0.0
  0
SEQEND
  5
11F3
  8
0
  0
POLYLINE
  5
BCD
  8
0
 66
     1
 10
0.0
 20
0.0
 30
0.0
 70
   128
  0
VERTEX
  5
11F4
  8
0
 10
39.215724331022251
 20
69.379625887379703
 30
0.0
  0
VERTEX
  5
11F5
  8
0
 10
38.969796730832201
 20
69.364685144976448
 30
0.0
  0
VERTEX
  5
11F6
  8
0
 10
38.709328158454042
 20
69.314679641977619
 30
0.0
  0
SEQEND
  5
11F7
  8
0
  0
POLYLINE
  5
BCE
  8
0
 66
     1
 10
0.0
 20
0.0
 30
0.0
 70
   128
  0
VERTEX
  5
11F8
  8
0
 10
29.338874502734289
 20
69.379490845606384
 30
0.0
  0
VERTEX
  5
11F9
  8
0
 10
29.08876177172457
 20
69.362992931858372
 30
0.0
  0
VERTEX
  5
11FA
  8
0
 10
29.06851249064599
 20
69.359904666200947
 30
0.0
  0
SEQEND
  5
11FB
  8
0
  0
LINE
  5
BCF
  8
0
 10
43.339247929559093
 20
69.37962542171843
 30
0.0
 11
43.317070810751062
 21
69.379510869041752
 31
0.0
  0
ARC
  5
BD0
  8
0
 10
30.819577075374699
 20
67.792128164532073
 30
0.0
 40
1.587500000000005
 50
89.877800414908251
 51
115.6103835915809
  0
LINE
  5
BD1
  8
0
 10
41.837141963348721
 20
69.379624490395855
 30
0.0
 11
41.751669834063392
 21
69.377504334554743
 31
0.0
  0
ARC
  5
BD2
  8
0
 10
32.532941047925647
 20
67.792128164532073
 30
0.0
 40
1.5875000000000039
 50
89.864221789605807
 51
102.8120672916675
  0
LINE
  5
BD3
  8
0
 10
40.12340155679081
 20
69.379623559073281
 30
0.0
 11
40.060469063625668
 21
69.378525064096522
 31
0.0
  0
ARC
  5
BD4
  8
0
 10
34.392225876451249
 20
67.792128164532073
 30
0.0
 40
1.587499999999989
 50
89.855857979312347
 51
106.40582362476459
  0
ARC
  5
BD5
  8
0
 10
38.259891184080693
 20
67.792128164532073
 30
0.0
 40
1.587500000000011
 50
89.855856832398885
 51
113.6322529126349
  0
LINE
  5
BD6
  8
0
 10
25.830052441612821
 20
66.363628067777256
 30
0.0
 11
27.31305232520495
 21
65.507417822957734
 31
0.0
  0
LINE
  5
BD7
  8
0
 10
45.34705227489863
 20
65.507417822957734
 30
0.0
 11
46.830052158490759
 21
66.363628067777256
 31
0.0
  0
LINE
  5
BD8
  8
0
 10
27.41255669172202
 20
63.645320640646609
 30
0.0
 11
27.282632535950292
 21
63.379628163532111
 31
0.0
  0
LINE
  5
BD9
  8
0
 10
45.377472064153288
 20
63.379628163532111
 30
0.0
 11
45.247547908381563
 21
63.645320640646609
 31
0.0
  0
ARC
  5
BDA
  8
0
 10
27.186052300051792
 20
65.28744726276264
 30
0.0
 40
0.2540000000000122
 50
0.0
 51
59.99999999999946
  0
ARC
  5
BDB
  8
0
 10
45.474052300051767
 20
65.28744726276264
 30
0.0
 40
0.2540000000000051
 50
119.99999999999829
 51
180.0
  0
ARC
  5
BDC
  8
0
 10
45.474052300051767
 20
63.76026307137888
 30
0.0
 40
0.2539999999999975
 50
180.0
 51
206.90607403242299
  0
ARC
  5
BDD
  8
0
 10
27.186052300051792
 20
63.76026307137888
 30
0.0
 40
0.2540000000000049
 50
333.09392596757709
 51
0.0
  0
LINE
  5
BDE
  8
0
 10
27.44005212809239
 20
65.287447230660121
 30
0.0
 11
27.44005212809239
 21
63.76026307582179
 31
0.0
  0
LINE
  5
BDF
  8
0
 10
45.22005247201119
 20
63.76026307582179
 30
0.0
 11
45.22005247201119
 21
65.287447230660121
 31
0.0
  0
LINE
  5
C36
  8
0
 10
22.47364597644005
 20
44.877050024227003
 30
0.0
 11
24.330052195743662
 21
44.37962877447972
 31
0.0
  0
LINE
  5
C37
  8
0
 10
48.330052404359918
 20
44.37962877447972
 30
0.0
 11
50.186458623663519
 21
44.877050024227003
 31
0.0
  0
LINE
  5
C38
  8
0
 10
24.330052195743662
 20
63.379628163532111
 30
0.0
 11
22.47364597644005
 21
62.882205575008641
 31
0.0
  0
LINE
  5
C39
  8
0
 10
50.186458623663519
 20
62.882205575008641
 30
0.0
 11
48.330052404359918
 21
63.379628163532111
 31
0.0
  0
LINE
  5
C3A
  8
0
 10
24.83215054746066
 20
67.792128351286735
 30
0.0
 11
24.832115157202821
 21
67.792128351286735
 31
0.0
  0
ARC
  5
C3B
  8
0
 10
25.361302002494771
 20
67.772100347739297
 30
0.0
 40
0.5295303421814772
 50
119.0329039819957
 51
177.8324304544644
  0
ARC
  5
C3C
  8
0
 10
25.471916674276031
 20
67.89332238638147
 30
0.0
 40
0.4454152585494752
 50
172.7446635717734
 51
193.131710363357
  0
LINE
  5
C3D
  8
0
 10
25.06978774692212
 20
67.792128351286735
 30
0.0
 11
25.03814885641728
 21
67.792128351286735
 31
0.0
  0
ARC
  5
C3E
  8
0
 10
25.905871013385941
 20
67.470331266300775
 30
0.0
 40
0.895873089430794
 50
103.642031167794
 51
158.94896281572619
  0
ARC
  5
C3F
  8
0
 10
26.102097633398792
 20
68.029400777698356
 30
0.0
 40
0.4858249151374594
 50
166.55847337560911
 51
209.2348693051828
  0
LINE
  5
C40
  8
0
 10
25.740150942162622
 20
67.792128351286777
 30
0.0
 11
25.678154661015611
 21
67.792128351286735
 31
0.0
  0
ARC
  5
C41
  8
0
 10
26.824603690596831
 20
67.088383724557616
 30
0.0
 40
1.292785466826075
 50
97.811001523674776
 51
147.0188532466706
  0
ARC
  5
C42
  8
0
 10
27.17803531856978
 20
68.193882820031305
 30
0.0
 40
0.6036406172302465
 50
171.33991900852149
 51
221.724718895395
  0
LINE
  5
C43
  8
0
 10
26.81747788812314
 20
67.792128351286777
 30
0.0
 11
26.727507470802411
 21
67.792128351286777
 31
0.0
  0
ARC
  5
C44
  8
0
 10
28.10070232556555
 20
66.710298279367379
 30
0.0
 40
1.6783984215193191
 50
98.747364399783265
 51
139.86723542079829
  0
ARC
  5
C45
  8
0
 10
28.636438282731209
 20
68.415518407630742
 30
0.0
 40
0.7932606795832266
 50
184.1304509299944
 51
231.80007979670651
  0
LINE
  5
C46
  8
0
 10
28.2603685023943
 20
67.792128351286777
 30
0.0
 11
28.145880086974248
 21
67.792128351286777
 31
0.0
  0
ARC
  5
C47
  8
0
 10
29.72389273917571
 20
66.334441198395496
 30
0.0
 40
2.065612506582704
 50
99.919489659302499
 51
135.11448669125659
  0
ARC
  5
C48
  8
0
 10
32.332179243472531
 20
70.477997460832739
 30
0.0
 40
3.6377365905549981
 50
215.42996956926149
 51
227.5897957779334
  0
LINE
  5
C49
  8
0
 10
30.013371838883501
 20
67.792128351286777
 30
0.0
 11
29.878766390190471
 21
67.792128351286777
 31
0.0
  0
ARC
  5
C4A
  8
0
 10
31.637363521908728
 20
65.994367049532855
 30
0.0
 40
2.4226627261381402
 50
101.4070649442228
 51
132.09280010160751
  0
ARC
  5
C4B
  8
0
 10
33.160594380758113
 20
70.088176268454475
 30
0.0
 40
2.639033169391825
 50
220.64539762258079
 51
240.4625613702072
  0
LINE
  5
C4C
  8
0
 10
32.009121610478502
 20
67.792128351286777
 30
0.0
 11
31.859571694091901
 21
67.792128351286777
 31
0.0
  0
ARC
  5
C4D
  8
0
 10
33.780737756574872
 20
65.708962137861306
 30
0.0
 40
2.7346307322683949
 50
103.3973352716167
 51
130.37930120174639
  0
ARC
  5
C4E
  8
0
 10
30.43651692324028
 20
63.368737828355727
 30
0.0
 40
5.6878569248953772
 50
51.049575022675882
 51
61.539092642230237
  0
LINE
  5
C4F
  8
0
 10
34.170922704667788
 20
67.792128351286777
 30
0.0
 11
34.012175279364932
 21
67.792128351286777
 31
0.0
  0
ARC
  5
C50
  8
0
 10
37.199897627778483
 20
63.397286787734537
 30
0.0
 40
5.3375388948053244
 50
111.3310228776688
 51
124.5750543900396
  0
ARC
  5
C51
  8
0
 10
33.859975762612748
 20
64.809479050438483
 30
0.0
 40
3.82450615710512
 50
51.249432596389212
 51
68.553515529952435
  0
LINE
  5
C52
  8
0
 10
36.415697735371538
 20
67.792128351286777
 30
0.0
 11
36.25385347333318
 21
67.792128351286777
 31
0.0
  0
ARC
  5
C53
  8
0
 10
38.606916762049508
 20
65.160076625688419
 30
0.0
 40
3.4247827827616768
 50
110.4426453544761
 51
129.77784370782209
  0
ARC
  5
C54
  8
0
 10
35.474236048638488
 20
63.405231020374082
 30
0.0
 40
5.3283016506885383
 50
55.418533172456172
 51
68.688502291838518
  0
LINE
  5
C55
  8
0
 10
38.657181544856172
 20
67.792128351286777
 30
0.0
 11
38.498459963754762
 21
67.792128351286777
 31
0.0
  0
ARC
  5
C56
  8
0
 10
41.65841517360348
 20
64.232161634325479
 30
0.0
 40
4.6562609806792388
 50
117.3166550395417
 51
130.13259804840769
  0
ARC
  5
C57
  8
0
 10
38.816012751877537
 20
65.566611887339263
 30
0.0
 40
2.890024055016585
 50
50.360039712440937
 51
75.868222032094735
  0
LINE
  5
C58
  8
0
 10
40.809234718487602
 20
67.792128351286777
 30
0.0
 11
40.659736024842601
 21
67.792128351286777
 31
0.0
  0
ARC
  5
C59
  8
0
 10
35.409994118266241
 20
75.061379754299367
 30
0.0
 40
9.0550436232676006
 50
306.60313969086121
 51
312.34873940310177
  0
ARC
  5
C5A
  8
0
 10
40.986292158009199
 20
65.906455188209065
 30
0.0
 40
2.517756042765372
 50
48.499497601805643
 51
77.998051975913654
  0
LINE
  5
C5B
  8
0
 10
42.789155731604438
 20
67.792128351286777
 30
0.0
 11
42.654624323056083
 21
67.792128351286777
 31
0.0
  0
ARC
  5
C5C
  8
0
 10
39.551628056083501
 20
71.166481591279961
 30
0.0
 40
4.6763067946849448
 50
313.81449640395527
 51
323.25981994759508
  0
ARC
  5
C5D
  8
0
 10
42.91831889411565
 20
66.287343472604306
 30
0.0
 40
2.1163531208242872
 50
45.318562146475251
 51
79.637017916649611
  0
LINE
  5
C5E
  8
0
 10
44.520857392505739
 20
67.792128351286777
 30
0.0
 11
44.40646304066572
 21
67.792128351286777
 31
0.0
  0
ARC
  5
C5F
  8
0
 10
44.08442033968543
 20
68.387893870844067
 30
0.0
 40
0.73852139804331
 50
306.22520537537662
 51
357.90389857242582
  0
ARC
  5
C60
  8
0
 10
44.554290247451739
 20
66.691938072504371
 30
0.0
 40
1.6982112902297291
 50
40.379877885191981
 51
80.985530686605756
  0
LINE
  5
C61
  8
0
 10
45.937790183977221
 20
67.792128351286777
 30
0.0
 11
45.847929662720297
 21
67.792128351286777
 31
0.0
  0
ARC
  5
C62
  8
0
 10
45.588073688608368
 20
68.150794503842164
 30
0.0
 40
0.5009421484782357
 50
314.27616761018089
 51
14.16325883253959
  0
ARC
  5
C63
  8
0
 10
45.83834866609336
 20
67.087256125631654
 30
0.0
 40
1.294094097917488
 50
33.003065398568509
 51
82.134169319948185
  0
LINE
  5
C64
  8
0
 10
46.985503866032701
 20
67.792128351286735
 30
0.0
 11
46.923629588142973
 21
67.792128351286777
 31
0.0
  0
POLYLINE
  5
C65
  8
0
 66
     1
 10
0.0
 20
0.0
 30
0.0
 70
   128
  0
VERTEX
  5
11FC
  8
0
 10
47.02576866622362
 20
68.136727948442797
 30
0.0
  0
VERTEX
  5
11FD
  8
0
 10
47.040998584286307
 20
67.96146747540007
 30
0.0
  0
VERTEX
  5
11FE
  8
0
 10
46.985503866032701
 20
67.792128351286735
 30
0.0
  0
SEQEND
  5
11FF
  8
0
  0
ARC
  5
C66
  8
0
 10
46.784529841702522
 20
67.487250791659591
 30
0.0
 40
0.8633203404121893
 50
20.679819613051791
 51
78.069147240108521
  0
LINE
  5
C67
  8
0
 10
47.623733638481241
 20
67.792128351286735
 30
0.0
 11
47.59222513313685
 21
67.792128351286735
 31
0.0
  0
ARC
  5
C68
  8
0
 10
47.19004706740747
 20
67.892746064752544
 30
0.0
 40
0.445205532527173
 50
346.93814440679517
 51
7.3119171279113209
  0
ARC
  5
C69
  8
0
 10
47.239408564931573
 20
67.743523589866527
 30
0.0
 40
0.5906159060973075
 50
4.7204971425153222
 51
57.982469345246344
  0
LINE
  5
C6A
  8
0
 10
47.827989442900758
 20
67.792128351286735
 30
0.0
 11
47.828021107868288
 21
67.792128351286735
 31
0.0
  0
ARC
  5
C6B
  8
0
 10
35.792684520919643
 20
68.4734951924749
 30
0.0
 40
1.62141926256349
 50
356.31108900306288
 51
20.596946731148151
  0
ARC
  5
C6C
  8
0
 10
36.886124081491893
 20
68.473809974990274
 30
0.0
 40
1.6311459110557189
 50
159.5408971222509
 51
183.6779633952444
  0
LINE
  5
C6D
  8
0
 10
24.830052277700052
 20
66.363628067777256
 30
0.0
 11
47.830052322403532
 21
66.363628067777256
 31
0.0
  0
ARC
  5
C6E
  8
0
 10
34.265605989341708
 20
68.321304473862085
 30
0.0
 40
1.1195133688097729
 50
141.86648624535081
 51
177.54930800232239
  0
ARC
  5
C6F
  8
0
 10
38.403850413393599
 20
68.320808472629494
 30
0.0
 40
1.1188159856761311
 50
2.477644787492812
 51
38.180154927720537
  0
ARC
  5
C70
  8
0
 10
32.27952583473089
 20
68.165770368212407
 30
0.0
 40
1.13961146734605
 50
137.52152596088041
 51
169.7184466567968
  0
ARC
  5
C71
  8
0
 10
40.388470104835392
 20
68.165181307066746
 30
0.0
 40
1.1397801959472309
 50
10.31011089246376
 51
42.479055018927198
  0
ARC
  5
C72
  8
0
 10
30.57938226438111
 20
67.995897913319141
 30
0.0
 40
1.2675302338938139
 50
142.79116962738681
 51
162.8729695808679
  0
ARC
  5
C73
  8
0
 10
42.087432725438788
 20
67.995280616422264
 30
0.0
 40
1.267963356054562
 50
17.150189073551129
 51
37.166680105587197
  0
ARC
  5
C74
  8
0
 10
36.09657792943085
 20
96.129069236248256
 30
0.0
 40
51.749967134171762
 50
270.25849565096888
 51
277.95469271690598
  0
ARC
  5
C75
  8
0
 10
36.599767622068498
 20
96.633841949867431
 30
0.0
 40
52.254909251990753
 50
262.08254687424892
 51
269.70426475787718
  0
LINE
  5
C76
  8
0
 10
29.401849138245922
 20
44.877050024227017
 30
0.0
 11
29.401849138245922
 21
62.882205575008669
 31
0.0
  0
ARC
  5
C77
  8
0
 10
36.599474017139357
 20
11.129643677004051
 30
0.0
 40
52.250679104716568
 50
90.295437226237127
 51
97.917773171261402
  0
ARC
  5
C78
  8
0
 10
36.095682304610449
 20
11.61785119781049
 30
0.0
 40
51.762307560075747
 50
82.046215004874696
 51
89.740574597626036
  0
LINE
  5
C79
  8
0
 10
43.258255461857651
 20
44.877050024227017
 30
0.0
 11
43.258255461857651
 21
62.882205575008669
 31
0.0
  0
ARC
  5
C7A
  8
0
 10
46.862854319565372
 20
57.668989935860928
 30
0.0
 40
13.290103823064751
 50
254.26286829172039
 51
269.39428130961551
  0
ARC
  5
C7C
  8
0
 10
25.797784903504979
 20
57.66526675728565
 30
0.0
 40
13.286375209959241
 50
270.60358306117013
 51
285.73926733749607
  0
ARC
  5
C7E
  8
0
 10
26.078244194235879
 20
57.668985610964512
 30
0.0
 40
13.290099486722379
 50
254.26286589000941
 51
269.39428587854371
  0
LINE
  5
C7F
  8
0
 10
22.47364597644005
 20
44.877050024227003
 30
0.0
 11
22.47364597644005
 21
62.882205575008641
 31
0.0
  0
ARC
  5
C80
  8
0
 10
26.077712042837049
 20
50.094011712401169
 30
0.0
 40
13.286353693868969
 50
90.603589929668445
 51
105.73930169344619
  0
ARC
  5
C81
  8
0
 10
25.797249057442119
 20
50.090292912946722
 30
0.0
 40
13.29007792664706
 50
74.262831353639555
 51
89.394274856027664
  0
ARC
  5
C82
  8
0
 10
46.582395773362741
 20
57.66525724690365
 30
0.0
 40
13.286365680615511
 50
270.60357551531871
 51
285.73927271612911
  0
ARC
  5
C83
  8
0
 10
46.862322912698907
 20
50.094002202017691
 30
0.0
 40
13.28636322321467
 50
90.603597475532922
 51
105.7392963148021
  0
ARC
  5
C84
  8
0
 10
46.581859182777968
 20
50.090297237876172
 30
0.0
 40
13.290073590271479
 50
74.262828951898101
 51
89.394279424988468
  0
LINE
  5
C85
  8
0
 10
50.186458623663519
 20
44.877050024227003
 30
0.0
 11
50.186458623663519
 21
62.882205575008641
 31
0.0
  0
LINE
  5
CB6
  8
0
 10
24.330052195743662
 20
44.37962877447972
 30
0.0
 11
48.330052404359918
 21
44.37962877447972
 31
0.0
  0
LINE
  5
CB8
  8
0
 10
24.330052195743662
 20
63.379628163532111
 30
0.0
 11
48.330052404359918
 21
63.379628163532111
 31
0.0
  0
LINE
  5
CBA
  8
0
 10
24.830052277700052
 20
67.744628106013636
 30
0.0
 11
47.830052322403532
 21
67.744628106013636
 31
0.0
  0
LINE
  5
CBB
  8
0
 10
27.31305232520495
 20
65.507417822957734
 30
0.0
 11
45.347051343576048
 21
65.507417822957734
 31
0.0
  0
LINE
  5
CBD
  8
0
 10
45.220051540688608
 20
65.287447230660121
 30
0.0
 11
27.44005212809239
 21
65.287447230660121
 31
0.0
  0
LINE
  5
CBE
  8
0
 10
27.440053059414971
 20
63.76026307582179
 30
0.0
 11
45.22005247201119
 21
63.76026307582179
 31
0.0
  0
ARC
  5
CC1
  8
0
 10
83.593151747565685
 20
67.744628164532145
 30
0.0
 40
0.6350000000000194
 50
175.7339246997908
 51
180.0
  0
ARC
  5
CC2
  8
0
 10
105.3231517475657
 20
67.74462816453206
 30
0.0
 40
0.6350000000000061
 50
0.0
 51
4.2726603436415136
  0
ARC
  5
CC3
  8
0
 10
94.462223759927156
 20
67.792128164532102
 30
0.0
 40
1.587499999999991
 50
52.047021448091229
 51
127.94936259166749
  0
LINE
  5
CC4
  8
0
 10
82.958151725213952
 20
67.744628106013664
 30
0.0
 11
82.958151725213952
 21
66.363628067777285
 31
0.0
  0
LINE
  5
CC5
  8
0
 10
105.95815176991739
 20
66.363628067777199
 30
0.0
 11
105.95815176991739
 21
67.744628106013593
 31
0.0
  0
ARC
  5
CC6
  8
0
 10
92.528312863536712
 20
67.792128164532102
 30
0.0
 40
1.5875000000000159
 50
52.050637408332491
 51
129.75366854549341
  0
ARC
  5
CC7
  8
0
 10
96.395978171166121
 20
67.792128164532102
 30
0.0
 40
1.587500000000005
 50
50.234451136640367
 51
127.952978551911
  0
ARC
  5
CC8
  8
0
 10
90.668564593193366
 20
67.79212816453213
 30
0.0
 40
1.5875000000000019
 50
54.321832439940479
 51
133.9332039764513
  0
ARC
  5
CC9
  8
0
 10
98.255262999691766
 20
67.792128164532102
 30
0.0
 40
1.5875000000000079
 50
46.042544268776012
 51
126.0235182920096
  0
ARC
  5
CCA
  8
0
 10
88.954448031967615
 20
67.79212816453213
 30
0.0
 40
1.5874999999999899
 50
57.485744143682943
 51
142.324006488865
  0
ARC
  5
CCB
  8
0
 10
99.96862697224266
 20
67.792128164532102
 30
0.0
 40
1.587499999999993
 50
37.62592049817718
 51
122.82070907940481
  0
ARC
  5
CCC
  8
0
 10
94.461249403879734
 20
67.395253164532093
 30
0.0
 40
1.984374999999998
 50
59.010597476667272
 51
121.2458465232809
  0
ARC
  5
CCD
  8
0
 10
101.4702264722193
 20
67.792128164532073
 30
0.0
 40
1.587500000000007
 50
21.027888876295801
 51
118.3643950686531
  0
ARC
  5
CCE
  8
0
 10
87.451835718019638
 20
67.79212816453213
 30
0.0
 40
1.5874999999999879
 50
61.892265192559691
 51
159.05144207161979
  0
ARC
  5
CCF
  8
0
 10
91.575341595138056
 20
67.395253164532093
 30
0.0
 40
1.984375000000008
 50
75.42670003252843
 51
104.0892504306764
  0
ARC
  5
CD0
  8
0
 10
97.346685622527914
 20
67.395253164532079
 30
0.0
 40
1.9843750000000071
 50
76.119398809421128
 51
104.78998284184431
  0
ARC
  5
CD1
  8
0
 10
102.70235587294439
 20
67.792128164532073
 30
0.0
 40
1.5875000000000219
 50
17.788753240600862
 51
112.9474070738261
  0
ARC
  5
CD2
  8
0
 10
86.218472199899907
 20
67.79212816453213
 30
0.0
 40
1.587500000000011
 50
67.25396213765049
 51
161.90520075825589
  0
ARC
  5
CD3
  8
0
 10
89.128315499364362
 20
67.395253164532136
 30
0.0
 40
1.9843750000000071
 50
65.868887054902487
 51
92.754320834190281
  0
ARC
  5
CD4
  8
0
 10
99.792368743337875
 20
67.395253164532079
 30
0.0
 40
1.9843750000000191
 50
87.415854699089152
 51
114.3318404974826
  0
ARC
  5
CD5
  8
0
 10
94.460271196622656
 20
66.204628164532096
 30
0.0
 40
3.1750000000000078
 50
69.008324431586104
 51
111.1334115188707
  0
POLYLINE
  5
CD6
  8
0
 66
     1
 10
0.0
 20
0.0
 30
0.0
 70
   128
  0
VERTEX
  5
1200
  8
0
 10
91.235112537723012
 20
69.351231259063582
 30
0.0
  0
VERTEX
  5
1201
  8
0
 10
90.900595671590395
 20
69.378375586823324
 30
0.0
  0
VERTEX
  5
1202
  8
0
 10
90.72332680141551
 20
69.378405854806985
 30
0.0
  0
SEQEND
  5
1203
  8
0
  0
POLYLINE
  5
CD7
  8
0
 66
     1
 10
0.0
 20
0.0
 30
0.0
 70
   128
  0
VERTEX
  5
1204
  8
0
 10
90.327122853230662
 20
69.342474498555745
 30
0.0
  0
VERTEX
  5
1205
  8
0
 10
90.153833058755822
 20
69.310783919648031
 30
0.0
  0
VERTEX
  5
1206
  8
0
 10
89.866075803618855
 20
69.235625722215303
 30
0.0
  0
SEQEND
  5
1207
  8
0
  0
POLYLINE
  5
CD8
  8
0
 66
     1
 10
0.0
 20
0.0
 30
0.0
 70
   128
  0
VERTEX
  5
1208
  8
0
 10
99.049064935278125
 20
69.236920260593962
 30
0.0
  0
VERTEX
  5
1209
  8
0
 10
98.7655950236134
 20
69.310756911293339
 30
0.0
  0
VERTEX
  5
120A
  8
0
 10
98.607297194283433
 20
69.340103816942033
 30
0.0
  0
SEQEND
  5
120B
  8
0
  0
POLYLINE
  5
CD9
  8
0
 66
     1
 10
0.0
 20
0.0
 30
0.0
 70
   128
  0
VERTEX
  5
120C
  8
0
 10
98.189809964131541
 20
69.378570698902664
 30
0.0
  0
VERTEX
  5
120D
  8
0
 10
98.018556972127385
 20
69.37837139587171
 30
0.0
  0
VERTEX
  5
120E
  8
0
 10
97.679308987315721
 20
69.350570485696863
 30
0.0
  0
SEQEND
  5
120F
  8
0
  0
ARC
  5
CDA
  8
0
 10
103.6176651325341
 20
67.792128164532073
 30
0.0
 40
1.587499999999999
 50
12.661936023754469
 51
106.8406814365551
  0
ARC
  5
CDB
  8
0
 10
85.301754945931407
 20
67.79212816453213
 30
0.0
 40
1.5874999999999999
 50
73.303334265681684
 51
167.2225083445735
  0
ARC
  5
CDC
  8
0
 10
87.492708657293463
 20
67.395253164532136
 30
0.0
 40
1.984374999999984
 50
67.171628703554944
 51
90.034219216274082
  0
POLYLINE
  5
CDD
  8
0
 66
     1
 10
0.0
 20
0.0
 30
0.0
 70
   128
  0
VERTEX
  5
1210
  8
0
 10
87.109415465127654
 20
69.342258431718477
 30
0.0
  0
VERTEX
  5
1211
  8
0
 10
86.852415603678651
 20
69.273488641486296
 30
0.0
  0
VERTEX
  5
1212
  8
0
 10
86.816462827008195
 20
69.26084593753589
 30
0.0
  0
SEQEND
  5
1213
  8
0
  0
POLYLINE
  5
CDE
  8
0
 66
     1
 10
0.0
 20
0.0
 30
0.0
 70
   128
  0
VERTEX
  5
1214
  8
0
 10
102.09855078635729
 20
69.262168881253075
 30
0.0
  0
VERTEX
  5
1215
  8
0
 10
102.06562853334469
 20
69.273703311339673
 30
0.0
  0
VERTEX
  5
1216
  8
0
 10
101.84031645683569
 20
69.335886322662901
 30
0.0
  0
SEQEND
  5
1217
  8
0
  0
ARC
  5
CDF
  8
0
 10
101.42596568133899
 20
67.395253164532079
 30
0.0
 40
1.984375000000008
 50
89.413168250724894
 51
112.9808151935908
  0
ARC
  5
CE0
  8
0
 10
94.458151747565637
 20
63.029628164532078
 30
0.0
 40
6.3500000000000201
 50
78.246858385125108
 51
101.8030412564591
  0
ARC
  5
CE1
  8
0
 10
84.736912886083246
 20
67.79212816453213
 30
0.0
 40
1.587500000000019
 50
79.809508275076666
 51
174.31086697630491
  0
ARC
  5
CE2
  8
0
 10
104.1809794294537
 20
67.792128164532073
 30
0.0
 40
1.5875000000000119
 50
5.6954872766614724
 51
100.27677773034389
  0
ARC
  5
CE3
  8
0
 10
89.298777182895947
 20
66.204628164532124
 30
0.0
 40
3.1750000000000238
 50
76.246825589681507
 51
91.762449488397777
  0
ARC
  5
CE4
  8
0
 10
99.617526312235313
 20
66.204628164532068
 30
0.0
 40
3.175000000000018
 50
88.281725474298753
 51
103.7810193591522
  0
ARC
  5
CE5
  8
0
 10
86.917527383817628
 20
67.395253164532136
 30
0.0
 40
1.9843750000000111
 50
81.915055642663177
 51
100.7928122492734
  0
ARC
  5
CE6
  8
0
 10
101.9987761113136
 20
67.395253164532079
 30
0.0
 40
1.9843750000000211
 50
79.27749343246802
 51
98.173684985397784
  0
ARC
  5
CE7
  8
0
 10
84.545652583948254
 20
67.792128164532159
 30
0.0
 40
1.587499999999981
 50
86.575165470364354
 51
180.0
  0
ARC
  5
CE8
  8
0
 10
104.37065091118301
 20
67.792128164532073
 30
0.0
 40
1.5874999999999939
 50
0.0060897587092544
 51
93.453557977921548
  0
LINE
  5
CE9
  8
0
 10
84.73611916331572
 20
69.379627750024923
 30
0.0
 11
84.640488167386479
 21
69.376792804107794
 31
0.0
  0
POLYLINE
  5
CEA
  8
0
 66
     1
 10
0.0
 20
0.0
 30
0.0
 70
   128
  0
VERTEX
  5
1218
  8
0
 10
104.18018805710589
 20
69.379627750024866
 30
0.0
  0
VERTEX
  5
1219
  8
0
 10
104.06346912411971
 20
69.375390232310366
 30
0.0
  0
VERTEX
  5
121A
  8
0
 10
103.8969691368751
 20
69.354304623559784
 30
0.0
  0
SEQEND
  5
121B
  8
0
  0
LINE
  5
CEB
  8
0
 10
87.491523613315053
 20
69.379627750024923
 30
0.0
 11
87.466973950248189
 21
69.379490845606455
 31
0.0
  0
ARC
  5
CEC
  8
0
 10
101.4235948378378
 20
67.395253164532079
 30
0.0
 40
1.9843750000000031
 50
89.377031408236135
 51
112.94126450800179
  0
LINE
  5
CED
  8
0
 10
90.80992326987905
 20
69.379627750024895
 30
0.0
 11
90.722085581254191
 21
69.378453817919592
 31
0.0
  0
POLYLINE
  5
CEE
  8
0
 66
     1
 10
0.0
 20
0.0
 30
0.0
 70
   128
  0
VERTEX
  5
121C
  8
0
 10
90.334147819410987
 20
69.34400512720714
 30
0.0
  0
VERTEX
  5
121D
  8
0
 10
90.150708471517987
 20
69.310756911293353
 30
0.0
  0
VERTEX
  5
121E
  8
0
 10
90.053600863646693
 20
69.288597487614282
 30
0.0
  0
SEQEND
  5
121F
  8
0
  0
POLYLINE
  5
CEF
  8
0
 66
     1
 10
0.0
 20
0.0
 30
0.0
 70
   128
  0
VERTEX
  5
1220
  8
0
 10
98.106383252050705
 20
69.379627750024866
 30
0.0
  0
VERTEX
  5
1221
  8
0
 10
98.015707823540993
 20
69.378375586823296
 30
0.0
  0
VERTEX
  5
1222
  8
0
 10
97.67798860473556
 20
69.350798194066357
 30
0.0
  0
SEQEND
  5
1223
  8
0
  0
ARC
  5
CF0
  8
0
 10
85.298638362597217
 20
67.79212816453213
 30
0.0
 40
1.587499999999993
 50
89.943741541551304
 51
100.2196243214326
  0
ARC
  5
CF1
  8
0
 10
103.6145485491998
 20
67.792128164532073
 30
0.0
 40
1.5875000000000079
 50
89.943758318276352
 51
106.7819288971187
  0
POLYLINE
  5
CF2
  8
0
 66
     1
 10
0.0
 20
0.0
 30
0.0
 70
   128
  0
VERTEX
  5
1224
  8
0
 10
89.126125116925664
 20
69.379626818702349
 30
0.0
  0
VERTEX
  5
1225
  8
0
 10
89.096079253684707
 20
69.379432637945541
 30
0.0
  0
VERTEX
  5
1226
  8
0
 10
89.030891330074496
 20
69.377445661232599
 30
0.0
  0
SEQEND
  5
1227
  8
0
  0
LINE
  5
CF3
  8
0
 10
99.790178378205724
 20
69.379626818702292
 30
0.0
 11
99.712728661578126
 21
69.378200498179254
 31
0.0
  0
ARC
  5
CF4
  8
0
 10
86.213947622186879
 20
67.79212816453213
 30
0.0
 40
1.5874999999999999
 50
89.918345154343555
 51
106.7553919307686
  0
POLYLINE
  5
CF5
  8
0
 66
     1
 10
0.0
 20
0.0
 30
0.0
 70
   128
  0
VERTEX
  5
1228
  8
0
 10
102.70009389994659
 20
69.379626353041004
 30
0.0
  0
VERTEX
  5
1229
  8
0
 10
102.4645214426331
 20
69.362390366152596
 30
0.0
  0
VERTEX
  5
122A
  8
0
 10
102.36797402529039
 20
69.344980687604021
 30
0.0
  0
SEQEND
  5
122B
  8
0
  0
POLYLINE
  5
CF6
  8
0
 66
     1
 10
0.0
 20
0.0
 30
0.0
 70
   128
  0
VERTEX
  5
122C
  8
0
 10
91.572479949425883
 20
69.379625887379746
 30
0.0
  0
VERTEX
  5
122D
  8
0
 10
91.522161754872627
 20
69.379060574576954
 30
0.0
  0
VERTEX
  5
122E
  8
0
 10
91.233792155142851
 20
69.351004947677936
 30
0.0
  0
SEQEND
  5
122F
  8
0
  0
POLYLINE
  5
CF7
  8
0
 66
     1
 10
0.0
 20
0.0
 30
0.0
 70
   128
  0
VERTEX
  5
1230
  8
0
 10
97.343823545705504
 20
69.379625887379703
 30
0.0
  0
VERTEX
  5
1231
  8
0
 10
97.097896178346105
 20
69.364685144976448
 30
0.0
  0
VERTEX
  5
1232
  8
0
 10
96.837427605967946
 20
69.314679641977619
 30
0.0
  0
SEQEND
  5
1233
  8
0
  0
POLYLINE
  5
CF8
  8
0
 66
     1
 10
0.0
 20
0.0
 30
0.0
 70
   128
  0
VERTEX
  5
1234
  8
0
 10
87.466973950248189
 20
69.379490845606455
 30
0.0
  0
VERTEX
  5
1235
  8
0
 10
87.216861219238467
 20
69.362992931858429
 30
0.0
  0
VERTEX
  5
1236
  8
0
 10
87.19661193815989
 20
69.359904666201004
 30
0.0
  0
SEQEND
  5
1237
  8
0
  0
LINE
  5
CF9
  8
0
 10
101.467347377073
 20
69.37962542171843
 30
0.0
 11
101.44517025826489
 21
69.379510869041752
 31
0.0
  0
ARC
  5
CFA
  8
0
 10
88.947676522888685
 20
67.79212816453213
 30
0.0
 40
1.5875000000000019
 50
89.877803595621614
 51
115.6103835915824
  0
LINE
  5
CFB
  8
0
 10
99.965240945201344
 20
69.379624490395855
 30
0.0
 11
99.879769281577296
 21
69.377504334554743
 31
0.0
  0
ARC
  5
CFC
  8
0
 10
90.661040495439636
 20
67.79212816453213
 30
0.0
 40
1.587499999999995
 50
89.864220193343513
 51
102.8120672916743
  0
LINE
  5
CFD
  8
0
 10
98.251501004304714
 20
69.379623559073281
 30
0.0
 11
98.188568511139579
 21
69.378525064096522
 31
0.0
  0
ARC
  5
CFE
  8
0
 10
92.520325323965267
 20
67.792128164532102
 30
0.0
 40
1.587500000000015
 50
89.855857192336615
 51
106.4058236247631
  0
ARC
  5
CFF
  8
0
 10
96.387990631594562
 20
67.792128164532102
 30
0.0
 40
1.5875000000000019
 50
89.855854723492087
 51
113.632252912637
  0
LINE
  5
D00
  8
0
 10
83.958151889126725
 20
66.363628067777285
 30
0.0
 11
85.441151772718854
 21
65.507417822957763
 31
0.0
  0
LINE
  5
D01
  8
0
 10
103.47515172241251
 20
65.507417822957706
 30
0.0
 11
104.95815160600461
 21
66.363628067777213
 31
0.0
  0
LINE
  5
D02
  8
0
 10
85.540656139235864
 20
63.645320640646652
 30
0.0
 11
85.410731983464132
 21
63.379628163532153
 31
0.0
  0
LINE
  5
D03
  8
0
 10
103.5055715116671
 20
63.37962816353209
 30
0.0
 11
103.3756473558954
 21
63.645320640646581
 31
0.0
  0
ARC
  5
D04
  8
0
 10
85.314151747565631
 20
65.287447262762669
 30
0.0
 40
0.2540000000000264
 50
0.0
 51
59.999999999994408
  0
ARC
  5
D05
  8
0
 10
103.6021517475656
 20
65.287447262762612
 30
0.0
 40
0.2540000000000191
 50
119.9999999999997
 51
180.0
  0
ARC
  5
D06
  8
0
 10
103.6021517475656
 20
63.760263071378859
 30
0.0
 40
0.2540000000000191
 50
180.0
 51
206.90607403242299
  0
ARC
  5
D07
  8
0
 10
85.314151747565631
 20
63.760263071378908
 30
0.0
 40
0.2540000000000191
 50
333.09392596757709
 51
0.0
  0
LINE
  5
D08
  8
0
 10
85.568151575606294
 20
65.287447230660149
 30
0.0
 11
85.568151575606237
 21
63.760263075821833
 31
0.0
  0
LINE
  5
D09
  8
0
 10
103.34815191952499
 20
63.760263075821769
 30
0.0
 11
103.34815191952509
 21
65.287447230660092
 31
0.0
  0
LINE
  5
D60
  8
0
 10
82.960249994974561
 20
67.792128351286777
 30
0.0
 11
82.960214604716725
 21
67.792128351286777
 31
0.0
  0
ARC
  5
D61
  8
0
 10
83.489401450008657
 20
67.772100347739354
 30
0.0
 40
0.5295303421814579
 50
119.0329039819979
 51
177.83243045446761
  0
ARC
  5
D62
  8
0
 10
83.600016121789906
 20
67.893322386381499
 30
0.0
 40
0.4454152585494752
 50
172.7446635717734
 51
193.131710363357
  0
LINE
  5
D63
  8
0
 10
83.197887194436021
 20
67.792128351286777
 30
0.0
 11
83.166248303931184
 21
67.792128351286777
 31
0.0
  0
ARC
  5
D64
  8
0
 10
84.033970460899809
 20
67.470331266300775
 30
0.0
 40
0.8958730894308082
 50
103.642031167794
 51
158.94896281572471
  0
ARC
  5
D65
  8
0
 10
84.230197080912376
 20
68.029400777698299
 30
0.0
 40
0.4858249151371878
 50
166.55847337559251
 51
209.2348693051886
  0
LINE
  5
D66
  8
0
 10
83.868250389676462
 20
67.792128351286777
 30
0.0
 11
83.806254108529458
 21
67.792128351286777
 31
0.0
  0
ARC
  5
D67
  8
0
 10
84.952703138110664
 20
67.088383724557616
 30
0.0
 40
1.292785466826075
 50
97.811001523674776
 51
147.0188532466706
  0
ARC
  5
D68
  8
0
 10
85.306134766083645
 20
68.193882820031305
 30
0.0
 40
0.6036406172302465
 50
171.33991900852149
 51
221.724718895395
  0
LINE
  5
D69
  8
0
 10
84.945577335636983
 20
67.792128351286777
 30
0.0
 11
84.855606918316255
 21
67.792128351286777
 31
0.0
  0
ARC
  5
D6A
  8
0
 10
86.228801773079397
 20
66.710298279367379
 30
0.0
 40
1.6783984215193211
 50
98.747364399784857
 51
139.86723542079829
  0
ARC
  5
D6B
  8
0
 10
86.764537730245024
 20
68.415518407630742
 30
0.0
 40
0.7932606795832353
 50
184.1304509299944
 51
231.80007979670651
  0
LINE
  5
D6C
  8
0
 10
86.388467949908147
 20
67.792128351286777
 30
0.0
 11
86.273979534488092
 21
67.792128351286777
 31
0.0
  0
ARC
  5
D6D
  8
0
 10
87.851992186689529
 20
66.334441198395496
 30
0.0
 40
2.0656125065827009
 50
99.919489659300879
 51
135.11448669125659
  0
ARC
  5
D6E
  8
0
 10
90.460278690986357
 20
70.477997460832739
 30
0.0
 40
3.637736590555019
 50
215.42996956926149
 51
227.5897957779334
  0
LINE
  5
D6F
  8
0
 10
88.141471286397348
 20
67.792128351286777
 30
0.0
 11
88.006865837704311
 21
67.792128351286777
 31
0.0
  0
ARC
  5
D70
  8
0
 10
89.765462969422586
 20
65.994367049532855
 30
0.0
 40
2.4226627261381419
 50
101.4070649442244
 51
132.09280010160751
  0
ARC
  5
D71
  8
0
 10
91.288693828271946
 20
70.088176268454475
 30
0.0
 40
2.6390331693918321
 50
220.64539762258079
 51
240.4625613702072
  0
LINE
  5
D72
  8
0
 10
90.137221057992349
 20
67.792128351286735
 30
0.0
 11
89.987671141605745
 21
67.792128351286777
 31
0.0
  0
ARC
  5
D73
  8
0
 10
91.908837204088755
 20
65.708962137861263
 30
0.0
 40
2.734630732268426
 50
103.3973352716187
 51
130.37930120174761
  0
ARC
  5
D74
  8
0
 10
88.564616370754095
 20
63.368737828355712
 30
0.0
 40
5.6878569248953861
 50
51.049575022675882
 51
61.539092642230237
  0
LINE
  5
D75
  8
0
 10
92.299022152181635
 20
67.792128351286735
 30
0.0
 11
92.140274726878772
 21
67.792128351286735
 31
0.0
  0
ARC
  5
D76
  8
0
 10
95.327997075292345
 20
63.397286787734508
 30
0.0
 40
5.3375388948053288
 50
111.3310228776688
 51
124.5750543900396
  0
ARC
  5
D77
  8
0
 10
91.988075210127377
 20
64.809479050439876
 30
0.0
 40
3.824506157103523
 50
51.249432596385653
 51
68.553515529955476
  0
LINE
  5
D78
  8
0
 10
94.543797182885328
 20
67.792128351286735
 30
0.0
 11
94.381952920846985
 21
67.792128351286735
 31
0.0
  0
ARC
  5
D79
  8
0
 10
96.73501620956381
 20
65.160076625687481
 30
0.0
 40
3.4247827827626929
 50
110.44264535447761
 51
129.77784370781981
  0
ARC
  5
D7A
  8
0
 10
93.60233549615225
 20
63.40523102037406
 30
0.0
 40
5.3283016506885543
 50
55.418533172456172
 51
68.688502291838518
  0
LINE
  5
D7B
  8
0
 10
96.785280992370019
 20
67.792128351286735
 30
0.0
 11
96.626559411268602
 21
67.792128351286735
 31
0.0
  0
ARC
  5
D7C
  8
0
 10
99.786514621119395
 20
64.232161634322154
 30
0.0
 40
4.6562609806830961
 50
117.3166550395454
 51
130.13259804840189
  0
ARC
  5
D7D
  8
0
 10
96.944112199391384
 20
65.566611887339235
 30
0.0
 40
2.8900240550165539
 50
50.360039712440937
 51
75.868222032094735
  0
LINE
  5
D7E
  8
0
 10
98.937334166001449
 20
67.792128351286721
 30
0.0
 11
98.787835472356448
 21
67.792128351286721
 31
0.0
  0
ARC
  5
D7F
  8
0
 10
93.538093565780059
 20
75.06137975429931
 30
0.0
 40
9.0550436232676006
 50
306.60313969086121
 51
312.34873940310177
  0
ARC
  5
D80
  8
0
 10
99.114391605522997
 20
65.906455188209009
 30
0.0
 40
2.5177560427653818
 50
48.499497601805643
 51
77.998051975913654
  0
LINE
  5
D81
  8
0
 10
100.9172551791183
 20
67.792128351286721
 30
0.0
 11
100.7827237705699
 21
67.792128351286721
 31
0.0
  0
ARC
  5
D82
  8
0
 10
97.679727503597306
 20
71.166481591279876
 30
0.0
 40
4.6763067946849377
 50
313.81449640395641
 51
323.25981994759638
  0
ARC
  5
D83
  8
0
 10
101.0464183416295
 20
66.287343472604249
 30
0.0
 40
2.1163531208242681
 50
45.318562146476417
 51
79.637017916651502
  0
LINE
  5
D84
  8
0
 10
102.64895684001959
 20
67.792128351286721
 30
0.0
 11
102.5345624881796
 21
67.792128351286721
 31
0.0
  0
ARC
  5
D85
  8
0
 10
102.2125197871993
 20
68.387893870844024
 30
0.0
 40
0.7385213980433162
 50
306.22520537537298
 51
357.90389857242258
  0
ARC
  5
D86
  8
0
 10
102.68238969496559
 20
66.691938072504314
 30
0.0
 40
1.698211290229718
 50
40.379877885191981
 51
80.985530686607376
  0
LINE
  5
D87
  8
0
 10
104.0658896314911
 20
67.792128351286721
 30
0.0
 11
103.97602911023409
 21
67.792128351286721
 31
0.0
  0
ARC
  5
D88
  8
0
 10
103.71617313612229
 20
68.150794503842121
 30
0.0
 40
0.5009421484781943
 50
314.27616761017748
 51
14.163258832541571
  0
ARC
  5
D89
  8
0
 10
103.9664481136071
 20
67.087256125631541
 30
0.0
 40
1.294094097917531
 50
33.003065398569881
 51
82.134169319946565
  0
LINE
  5
D8A
  8
0
 10
105.11360331354651
 20
67.792128351286721
 30
0.0
 11
105.05172903565681
 21
67.792128351286721
 31
0.0
  0
POLYLINE
  5
D8B
  8
0
 66
     1
 10
0.0
 20
0.0
 30
0.0
 70
   128
  0
VERTEX
  5
1238
  8
0
 10
105.1538681137375
 20
68.136727948442768
 30
0.0
  0
VERTEX
  5
1239
  8
0
 10
105.1690980318001
 20
67.961467475400042
 30
0.0
  0
VERTEX
  5
123A
  8
0
 10
105.11360331354651
 20
67.792128351286721
 30
0.0
  0
SEQEND
  5
123B
  8
0
  0
ARC
  5
D8C
  8
0
 10
104.9126292892164
 20
67.487250791659534
 30
0.0
 40
0.8633203404121875
 50
20.67981961305389
 51
78.069147240110425
  0
LINE
  5
D8D
  8
0
 10
105.7518330859951
 20
67.792128351286721
 30
0.0
 11
105.7203245806507
 21
67.792128351286721
 31
0.0
  0
ARC
  5
D8E
  8
0
 10
105.3181465149213
 20
67.892746064752487
 30
0.0
 40
0.4452055325271722
 50
346.9381444067983
 51
7.3119171279145521
  0
ARC
  5
D8F
  8
0
 10
105.3675080124454
 20
67.743523589866498
 30
0.0
 40
0.5906159060972814
 50
4.7204971425153222
 51
57.982469345248589
  0
LINE
  5
D90
  8
0
 10
105.95608889041461
 20
67.792128351286721
 30
0.0
 11
105.9561205553822
 21
67.792128351286721
 31
0.0
  0
ARC
  5
D91
  8
0
 10
93.920783968433497
 20
68.473495192474843
 30
0.0
 40
1.621419262563466
 50
356.31108900306288
 51
20.596946731150251
  0
ARC
  5
D92
  8
0
 10
95.014223529005747
 20
68.473809974990246
 30
0.0
 40
1.6311459110557329
 50
159.5408971222509
 51
183.6779633952444
  0
LINE
  5
D93
  8
0
 10
82.958151725213952
 20
66.363628067777285
 30
0.0
 11
105.9581508385948
 21
66.363628067777199
 31
0.0
  0
ARC
  5
D94
  8
0
 10
92.393705436855555
 20
68.321304473862
 30
0.0
 40
1.1195133688098129
 50
141.86648624534851
 51
177.5493080023208
  0
ARC
  5
D95
  8
0
 10
96.531949860907446
 20
68.320808472629423
 30
0.0
 40
1.1188159856761171
 50
2.477644787492812
 51
38.180154927721539
  0
ARC
  5
D96
  8
0
 10
90.407625282244737
 20
68.165770368212407
 30
0.0
 40
1.13961146734606
 50
137.52152596088041
 51
169.7184466567968
  0
ARC
  5
D97
  8
0
 10
98.516569552349225
 20
68.165181307066675
 30
0.0
 40
1.1397801959472309
 50
10.31011089246376
 51
42.479055018927198
  0
ARC
  5
D98
  8
0
 10
88.707481711894957
 20
67.995897913319141
 30
0.0
 40
1.2675302338938259
 50
142.791169627388
 51
162.8729695808679
  0
ARC
  5
D99
  8
0
 10
100.21553217295261
 20
67.995280616422178
 30
0.0
 40
1.2679633560545669
 50
17.150189073553161
 51
37.166680105588192
  0
ARC
  5
D9A
  8
0
 10
100.25148677056011
 20
83.307809784737387
 30
0.0
 40
38.928729586279402
 50
270.30417354202041
 51
279.17419717728512
  0
ARC
  5
D9B
  8
0
 10
100.6656070813726
 20
83.31734197702518
 30
0.0
 40
38.938265846562437
 50
260.82689116259172
 51
269.6947381181015
  0
LINE
  5
D9C
  8
0
 10
94.458151747565509
 20
44.877050024227003
 30
0.0
 11
94.458151747565594
 21
62.882205575008641
 31
0.0
  0
ARC
  5
D9D
  8
0
 10
100.6648212203232
 20
24.451497616444701
 30
0.0
 40
38.928679147133813
 50
90.304180399616882
 51
99.174215713897226
  0
ARC
  5
D9E
  8
0
 10
100.25069458897509
 20
24.441995151147921
 30
0.0
 40
38.93818566781713
 50
80.826869235575671
 51
89.694734650911045
  0
ARC
  5
DA1
  8
0
 10
88.251487569674495
 20
83.307798887464955
 30
0.0
 40
38.928718684364398
 50
270.30417229751657
 51
279.1741984217889
  0
ARC
  5
DA2
  8
0
 10
88.250694524433285
 20
24.441995630817189
 30
0.0
 40
38.938185187942871
 50
80.826869180822527
 51
89.694734705663365
  0
ARC
  5
DA4
  8
0
 10
88.665607016829085
 20
83.317342456676656
 30
0.0
 40
38.938266326418898
 50
260.8268912173433
 51
269.69473806335247
  0
ARC
  5
DA6
  8
0
 10
88.664822019428925
 20
24.451486719308011
 30
0.0
 40
38.928690048913161
 50
90.304181644107587
 51
99.174214469408028
  0
LINE
  5
DA7
  8
0
 10
106.45815185187369
 20
63.3796281635301
 30
0.0
 11
106.45815185187369
 21
44.37962877447967
 31
0.0
  0
LINE
  5
DAB
  8
0
 10
82.458151643257466
 20
44.379628774479748
 30
0.0
 11
82.458151643257466
 21
63.379628163532153
 31
0.0
  0
LINE
  5
DAC
  8
0
 10
82.458151643257466
 20
44.379628774479748
 30
0.0
 11
106.45815185187369
 21
44.379628774479762
 31
0.0
  0
LINE
  5
DAE
  8
0
 10
82.458151643257509
 20
63.379628163532153
 30
0.0
 11
106.45815185187369
 21
63.3796281635301
 31
0.0
  0
LINE
  5
DD9
  8
0
 10
82.958151725213952
 20
67.744628106013664
 30
0.0
 11
105.9581508385948
 21
67.744628106013593
 31
0.0
  0
LINE
  5
DDB
  8
0
 10
85.441151772718854
 20
65.507417822957763
 30
0.0
 11
103.47515172241251
 21
65.507417822957706
 31
0.0
  0
LINE
  5
DDD
  8
0
 10
103.34815174756559
 20
65.287447230660092
 30
0.0
 11
85.568151575606294
 21
65.287447230660149
 31
0.0
  0
LINE
  5
DDF
  8
0
 10
85.568151575606237
 20
63.760263075821833
 30
0.0
 11
103.34815191952499
 21
63.760263075821769
 31
0.0
  0
LINE
  5
DE1
  8
1
 10
36.330052300051818
 20
16.379628401950711
 30
0.0
 11
36.330052300051847
 21
72.379628163532161
 31
0.0
  0
LINE
  5
DE2
  8
1
 10
53.186458623663562
 20
109.6744679430376
 30
0.0
 11
19.473645976440078
 21
109.6744679430376
 31
0.0
  0
LINE
  5
DE3
  8
1
 10
94.458151747565594
 20
16.379628401950701
 30
0.0
 11
94.458151747565594
 21
72.379628163532146
 31
0.0
  0
LINE
  5
DEE
  8
1
 10
36.330052300051818
 20
94.67446783872947
 30
0.0
 11
36.330052300051818
 21
124.6744680473457
 31
0.0
  0
CIRCLE
  5
DEF
  8
0
 10
36.330052300051818
 20
109.6744679430376
 30
0.0
 40
12.00000010430815
  0
LINE
  5
E04
  8
0
 10
29.80225230004379
 20
41.382428401950733
 30
0.0
 11
28.330052300051818
 21
38.83250320306152
 31
0.0
  0
LINE
  5
E05
  8
0
 10
44.330052300051811
 20
38.832503203033738
 30
0.0
 11
42.85785230004381
 21
41.382428401950733
 31
0.0
  0
LINE
  5
E06
  8
0
 10
28.330052300051818
 20
21.379628401950701
 30
0.0
 11
44.330052300051811
 21
21.379628401950701
 31
0.0
  0
LINE
  5
E07
  8
0
 10
42.330052300051818
 20
19.37962840195069
 30
0.0
 11
44.330052300051811
 21
21.379628401950701
 31
0.0
  0
LINE
  5
E08
  8
0
 10
28.330052300051818
 20
21.379628401950701
 30
0.0
 11
30.330052300051818
 21
19.37962840195069
 31
0.0
  0
LINE
  5
E09
  8
0
 10
28.330052300051818
 20
21.379628401950701
 30
0.0
 11
28.330052300051818
 21
38.832503203061592
 31
0.0
  0
LINE
  5
E0A
  8
3
 10
29.4125523000518
 20
20.297128401950701
 30
0.0
 11
29.4125523000518
 21
40.707448202255009
 31
0.0
  0
LINE
  5
E0B
  8
3
 10
43.247552300051829
 20
20.297128401950701
 30
0.0
 11
43.247552300051829
 21
40.707448202227127
 31
0.0
  0
LINE
  5
E0C
  8
0
 10
44.330052300051811
 20
21.379628401950701
 30
0.0
 11
44.330052300051811
 21
38.832503203033681
 31
0.0
  0
LINE
  5
E0D
  8
0
 10
30.330052300051818
 20
19.37962840195069
 30
0.0
 11
42.330052300051818
 21
19.37962840195069
 31
0.0
  0
LINE
  5
E0E
  8
0
 10
28.90446446069404
 20
39.82741424977943
 30
0.0
 11
43.755640139393499
 21
39.82741424977943
 31
0.0
  0
ARC
  5
E0F
  8
0
 10
28.278252300043789
 20
42.855628401950689
 30
0.0
 40
1.5240000000000291
 50
0.0
 51
89.999999999999986
  0
ARC
  5
E10
  8
0
 10
44.381852300043811
 20
42.855628401950689
 30
0.0
 40
1.5240000000000291
 50
89.999999999999986
 51
180.0
  0
LINE
  5
E11
  8
0
 10
29.80225230004379
 20
42.855628401950689
 30
0.0
 11
29.80225230004379
 21
41.382428401950733
 31
0.0
  0
LINE
  5
E12
  8
0
 10
42.85785230004381
 20
41.382428401950733
 30
0.0
 11
42.85785230004381
 21
42.855628401950689
 31
0.0
  0
LINE
  5
E13
  8
0
 10
29.80225230004379
 20
41.382428401950733
 30
0.0
 11
42.85785230004381
 21
41.382428401950733
 31
0.0
  0
LINE
  5
E14
  8
0
 10
42.85785230004381
 20
42.855628401950689
 30
0.0
 11
29.80225230004379
 21
42.855628401950689
 31
0.0
  0
LINE
  5
E15
  8
0
 10
87.930351747557566
 20
41.382428401950733
 30
0.0
 11
86.45815174756558
 21
38.83250320306152
 31
0.0
  0
LINE
  5
E16
  8
0
 10
102.45815174756559
 20
38.832503203033738
 30
0.0
 11
100.98595174755761
 21
41.382428401950733
 31
0.0
  0
LINE
  5
E17
  8
0
 10
86.45815174756558
 20
21.379628401950701
 30
0.0
 11
102.45815174756559
 21
21.379628401950701
 31
0.0
  0
LINE
  5
E18
  8
0
 10
100.45815174756559
 20
19.37962840195069
 30
0.0
 11
102.45815174756559
 21
21.379628401950701
 31
0.0
  0
LINE
  5
E19
  8
0
 10
86.45815174756558
 20
21.379628401950701
 30
0.0
 11
88.458151747565566
 21
19.37962840195069
 31
0.0
  0
LINE
  5
E1A
  8
0
 10
86.45815174756558
 20
21.379628401950701
 30
0.0
 11
86.45815174756558
 21
38.832503203061592
 31
0.0
  0
LINE
  5
E1B
  8
3
 10
87.540651747565562
 20
20.297128401950701
 30
0.0
 11
87.540651747565562
 21
40.707448202255009
 31
0.0
  0
LINE
  5
E1C
  8
3
 10
101.3756517475656
 20
20.297128401950701
 30
0.0
 11
101.3756517475656
 21
40.707448202227127
 31
0.0
  0
LINE
  5
E1D
  8
0
 10
102.45815174756559
 20
21.379628401950701
 30
0.0
 11
102.45815174756559
 21
38.832503203033681
 31
0.0
  0
LINE
  5
E1E
  8
0
 10
88.458151747565566
 20
19.37962840195069
 30
0.0
 11
100.45815174756559
 21
19.37962840195069
 31
0.0
  0
LINE
  5
E1F
  8
0
 10
87.032563908207806
 20
39.82741424977943
 30
0.0
 11
101.8837395869072
 21
39.82741424977943
 31
0.0
  0
ARC
  5
E20
  8
0
 10
86.406351747557565
 20
42.855628401950689
 30
0.0
 40
1.5240000000000291
 50
0.0
 51
89.999999999999986
  0
ARC
  5
E21
  8
0
 10
102.50995174755749
 20
42.855628401950689
 30
0.0
 40
1.5240000000000291
 50
89.999999999999986
 51
180.0
  0
LINE
  5
E22
  8
0
 10
87.930351747557566
 20
42.855628401950689
 30
0.0
 11
87.930351747557566
 21
41.382428401950733
 31
0.0
  0
LINE
  5
E23
  8
0
 10
100.98595174755761
 20
41.382428401950733
 30
0.0
 11
100.98595174755761
 21
42.855628401950689
 31
0.0
  0
LINE
  5
E24
  8
0
 10
87.930351747557566
 20
41.382428401950733
 30
0.0
 11
100.98595174755761
 21
41.382428401950733
 31
0.0
  0
LINE
  5
E25
  8
0
 10
100.98595174755761
 20
42.855628401950689
 30
0.0
 11
87.930351747557566
 21
42.855628401950689
 31
0.0
  0
TEXT
  5
EE5
  8
0
 62
     3
 10
0.0
 20
0.0
 30
0.0
 40
5.0
  1
MBUH-16025-35UR
  7
STANDARD1
  0
ENDSEC
  0
EOF
