  0
SECTION
  2
HEADER
  9
$ACADVER
  1
AC1009
  9
$INSBASE
 10
0.0
 20
0.0
 30
0.0
  9
$EXTMIN
 10
0.0
 20
-1.4802182810368341
 30
0.0
  9
$EXTMAX
 10
62.5
 20
94.281189722554643
 30
0.0
  9
$LIMMIN
 10
0.0
 20
0.0
  9
$LIMMAX
 10
187.5
 20
135.0
  9
$ORTHOMODE
 70
     1
  9
$REGENMODE
 70
     1
  9
$FILLMODE
 70
     1
  9
$QTEXTMODE
 70
     0
  9
$MIRRTEXT
 70
     0
  9
$DRAGMODE
 70
     2
  9
$LTSCALE
 40
5.0
  9
$OSMODE
 70
  3071
  9
$ATTMODE
 70
     1
  9
$TEXTSIZE
 40
0.06
  9
$TRACEWID
 40
0.05
  9
$TEXTSTYLE
  7
STANDARD
  9
$CLAYER
  8
0
  9
$CELTYPE
  6
BYLAYER
  9
$CECOLOR
 62
   256
  9
$DIMSCALE
 40
0.5
  9
$DIMASZ
 40
3.0
  9
$DIMEXO
 40
2.0
  9
$DIMDLI
 40
10.0
  9
$DIMRND
 40
0.0
  9
$DIMDLE
 40
0.0
  9
$DIMEXE
 40
2.0
  9
$DIMTP
 40
0.0
  9
$DIMTM
 40
0.0
  9
$DIMTXT
 40
3.0
  9
$DIMCEN
 40
0.0
  9
$DIMTSZ
 40
0.0
  9
$DIMTOL
 70
     0
  9
$DIMLIM
 70
     0
  9
$DIMTIH
 70
     0
  9
$DIMTOH
 70
     0
  9
$DIMSE1
 70
     0
  9
$DIMSE2
 70
     0
  9
$DIMTAD
 70
     1
  9
$DIMZIN
 70
     0
  9
$DIMBLK
  1

  9
$DIMASO
 70
     0
  9
$DIMSHO
 70
     0
  9
$DIMPOST
  1

  9
$DIMAPOST
  1

  9
$DIMALT
 70
     0
  9
$DIMALTD
 70
     2
  9
$DIMALTF
 40
25.399999999999999
  9
$DIMLFAC
 40
1.0
  9
$DIMTOFL
 70
     1
  9
$DIMTVP
 40
1.6000000000000001
  9
$DIMTIX
 70
     1
  9
$DIMSOXD
 70
     0
  9
$DIMSAH
 70
     0
  9
$DIMBLK1
  1

  9
$DIMBLK2
  1

  9
$DIMSTYLE
  2
STANDARD
  9
$DIMCLRD
 70
     0
  9
$DIMCLRE
 70
     0
  9
$DIMCLRT
 70
     0
  9
$DIMTFAC
 40
1.0
  9
$DIMGAP
 40
0.09
  9
$LUNITS
 70
     2
  9
$LUPREC
 70
     4
  9
$SKETCHINC
 40
0.1
  9
$FILLETRAD
 40
0.4
  9
$AUNITS
 70
     0
  9
$AUPREC
 70
     4
  9
$MENU
  1
E:\r13\win\SUPPORT\ACAD
  9
$ELEVATION
 40
0.0
  9
$PELEVATION
 40
0.0
  9
$THICKNESS
 40
0.0
  9
$LIMCHECK
 70
     0
  9
$BLIPMODE
 70
     0
  9
$CHAMFERA
 40
0.0
  9
$CHAMFERB
 40
0.0
  9
$SKPOLY
 70
     0
  9
$TDCREATE
 40
2449840.5902083339
  9
$TDUPDATE
 40
2456597.6354710651
  9
$TDINDWG
 40
0.1100786458
  9
$TDUSRTIMER
 40
0.1100786458
  9
$USRTIMER
 70
     1
  9
$ANGBASE
 50
0.0
  9
$ANGDIR
 70
     0
  9
$PDMODE
 70
     0
  9
$PDSIZE
 40
0.0
  9
$PLINEWID
 40
0.0
  9
$COORDS
 70
     1
  9
$SPLFRAME
 70
     0
  9
$SPLINETYPE
 70
     6
  9
$SPLINESEGS
 70
     8
  9
$ATTDIA
 70
     0
  9
$ATTREQ
 70
     1
  9
$HANDLING
 70
     1
  9
$HANDSEED
  5
D1A
  9
$SURFTAB1
 70
     6
  9
$SURFTAB2
 70
     6
  9
$SURFTYPE
 70
     6
  9
$SURFU
 70
     6
  9
$SURFV
 70
     6
  9
$UCSNAME
  2

  9
$UCSORG
 10
0.0
 20
0.0
 30
0.0
  9
$UCSXDIR
 10
1.0
 20
0.0
 30
0.0
  9
$UCSYDIR
 10
0.0
 20
1.0
 30
0.0
  9
$PUCSNAME
  2

  9
$PUCSORG
 10
0.0
 20
0.0
 30
0.0
  9
$PUCSXDIR
 10
1.0
 20
0.0
 30
0.0
  9
$PUCSYDIR
 10
0.0
 20
1.0
 30
0.0
  9
$USERI1
 70
     3
  9
$USERI2
 70
     1
  9
$USERI3
 70
     0
  9
$USERI4
 70
     0
  9
$USERI5
 70
     0
  9
$USERR1
 40
0.5
  9
$USERR2
 40
3.0
  9
$USERR3
 40
3.0
  9
$USERR4
 40
3.0
  9
$USERR5
 40
10.0
  9
$WORLDVIEW
 70
     1
  9
$SHADEDGE
 70
     3
  9
$SHADEDIF
 70
    70
  9
$TILEMODE
 70
     1
  9
$MAXACTVP
 70
    16
  9
$PLIMCHECK
 70
     0
  9
$PEXTMIN
 10
1.0000000000000000E+020
 20
1.0000000000000000E+020
 30
1.0000000000000000E+020
  9
$PEXTMAX
 10
-1.0000000000000000E+020
 20
-1.0000000000000000E+020
 30
-1.0000000000000000E+020
  9
$PLIMMIN
 10
0.0
 20
0.0
  9
$PLIMMAX
 10
12.0
 20
9.0
  9
$UNITMODE
 70
     0
  9
$VISRETAIN
 70
     0
  9
$PLINEGEN
 70
     0
  9
$PSLTSCALE
 70
     0
  0
ENDSEC
  0
SECTION
  2
TABLES
  0
TABLE
  2
VPORT
 70
     1
  0
VPORT
  2
*ACTIVE
 70
     0
 10
0.0
 20
0.0
 11
1.0
 21
1.0
 12
93.747139195326156
 22
67.05183146954721
 13
0.0
 23
0.0
 14
5.0
 24
5.0
 15
10.0
 25
10.0
 16
0.0
 26
0.0
 36
1.0
 17
0.0
 27
0.0
 37
0.0
 40
138.6470298934976
 41
2.304913294797688
 42
50.0
 43
0.0
 44
0.0
 50
0.0
 51
0.0
 71
     0
 72
   100
 73
     1
 74
     0
 75
     0
 76
     0
 77
     0
 78
     2
  0
ENDTAB
  0
TABLE
  2
LTYPE
 70
     3
  0
LTYPE
  2
CONTINUOUS
 70
     0
  3
Solid Line
 72
    65
 73
     0
 40
0.0
  0
LTYPE
  2
CENTER
 70
     0
  3
____ _ ____ _ ____ _ ____ _ ____ _ ____ _ ____
 72
    65
 73
     4
 40
2.0
 49
1.25
 49
-0.25
 49
0.25
 49
-0.25
  0
LTYPE
  2
PHANTOM2
 70
     0
  3
___ _ _ ___ _ _ ___ _ _ ___ _ _
 72
    65
 73
     6
 40
1.25
 49
0.625
 49
-0.125
 49
0.125
 49
-0.125
 49
0.125
 49
-0.125
  0
ENDTAB
  0
TABLE
  2
LAYER
 70
     3
  0
LAYER
  2
0
 70
     0
 62
     7
  6
CONTINUOUS
  0
LAYER
  2
1
 70
     0
 62
     1
  6
CENTER
  0
LAYER
  2
3
 70
     0
 62
     3
  6
CONTINUOUS
  0
ENDTAB
  0
TABLE
  2
STYLE
 70
     2
  0
STYLE
  2
STANDARD
 70
     0
 40
0.0
 41
1.0
 50
0.0
 71
     0
 42
0.06
  3
TXT
  4
BIGFONT
  0
STYLE
  2
STANDARD1
 70
     0
 40
0.0
 41
1.0
 50
0.0
 71
     0
 42
3.0
  3
txt
  4

  0
ENDTAB
  0
TABLE
  2
VIEW
 70
     0
  0
ENDTAB
  0
TABLE
  2
UCS
 70
     0
  0
ENDTAB
  0
TABLE
  2
APPID
 70
     3
  0
APPID
  2
ACAD
 70
     0
  0
APPID
  2
ACAD_MLEADERVER
 70
     0
  0
APPID
  2
ACAD_NAV_VCDISPLAY
 70
     0
  0
ENDTAB
  0
TABLE
  2
DIMSTYLE
 70
     1
  0
DIMSTYLE
  2
STANDARD
 70
     0
  3

  4

  5

  6

  7

 40
1.0
 41
0.18
 42
0.0625
 43
0.38
 44
0.18
 45
0.0
 46
0.0
 47
0.0
 48
0.0
140
0.18
141
0.09
142
0.0
143
25.399999999999999
144
1.0
145
0.0
146
1.0
147
0.09
 71
     0
 72
     0
 73
     1
 74
     1
 75
     0
 76
     0
 77
     0
 78
     0
170
     0
171
     2
172
     0
173
     0
174
     0
175
     0
176
     0
177
     0
178
     0
  0
ENDTAB
  0
ENDSEC
  0
SECTION
  2
BLOCKS
  0
BLOCK
  8
0
  2
$MODEL_SPACE
 70
     0
 10
0.0
 20
0.0
 30
0.0
  3
$MODEL_SPACE
  1

  0
ENDBLK
  5
119
  8
0
  0
BLOCK
 67
     1
  8
0
  2
$PAPER_SPACE
 70
     0
 10
0.0
 20
0.0
 30
0.0
  3
$PAPER_SPACE
  1

  0
ENDBLK
  5
117
 67
     1
  8
0
  0
ENDSEC
  0
SECTION
  2
ENTITIES
  0
LINE
  5
8E1
  8
0
 10
45.723455062872198
 20
59.392925921103071
 30
0.0
 11
39.723455062872539
 21
59.392925921103071
 31
0.0
  0
LINE
  5
8E2
  8
0
 10
39.649060185293763
 20
59.572531043524421
 30
0.0
 11
45.79784994045098
 21
59.572531043524421
 31
0.0
  0
LINE
  5
8E4
  8
0
 10
37.723455062872318
 20
61.498136165945859
 30
0.0
 11
47.723454640989473
 21
61.498136165945859
 31
0.0
  0
LINE
  5
912
  8
0
 10
37.723455062872318
 20
58.879136178145842
 30
0.0
 11
47.72345506287234
 21
58.879136178145842
 31
0.0
  0
LINE
  5
916
  8
0
 10
37.723455062872318
 20
50.879136178146062
 30
0.0
 11
47.723455062872318
 21
50.879136178146062
 31
0.0
  0
LINE
  5
917
  8
0
 10
37.723455062872318
 20
50.879136178146062
 30
0.0
 11
37.723455062872318
 21
58.879136178145842
 31
0.0
  0
LINE
  5
919
  8
0
 10
47.723455062872318
 20
58.879136178145842
 30
0.0
 11
47.723455062872318
 21
50.879136178146062
 31
0.0
  0
ARC
  5
91C
  8
0
 10
45.165833441013881
 20
43.002741934705547
 30
0.0
 40
15.876498808756679
 50
80.729551159906435
 51
89.79205220061516
  0
ARC
  5
91D
  8
0
 10
45.280714223487188
 20
43.007114006680773
 30
0.0
 40
15.87212545385623
 50
90.206696662478393
 51
99.271699977002783
  0
ARC
  5
91E
  8
0
 10
45.166195902257641
 20
66.751158349604637
 30
0.0
 40
15.872125453850201
 50
270.20669666247682
 51
279.2716999770052
  0
LINE
  5
91F
  8
0
 10
42.72345506287251
 20
51.086395599783202
 30
0.0
 11
42.72345506287251
 21
58.671876756509072
 31
0.0
  0
ARC
  5
920
  8
0
 10
40.165833441014051
 20
43.002741934705547
 30
0.0
 40
15.876498808756519
 50
80.729551159906435
 51
89.79205220061516
  0
ARC
  5
921
  8
0
 10
40.280714223487372
 20
43.007114006680773
 30
0.0
 40
15.872125453856279
 50
90.206696662478393
 51
99.271699977002783
  0
ARC
  5
923
  8
0
 10
40.281076684731488
 20
66.755530421589256
 30
0.0
 40
15.876498808759729
 50
260.72955115990561
 51
269.79205220061272
  0
ARC
  5
924
  8
0
 10
40.16619590225784
 20
66.751158349604637
 30
0.0
 40
15.872125453850201
 50
270.20669666247682
 51
279.2716999770052
  0
ARC
  5
926
  8
0
 10
45.281076684731318
 20
66.755530421588531
 30
0.0
 40
15.87649880875909
 50
260.72955115990561
 51
269.79205220061272
  0
ARC
  5
927
  8
0
 10
44.338646807502549
 20
61.57166482439014
 30
0.0
 40
1.286150562924369
 50
13.831259592060819
 51
49.325286666930211
  0
ARC
  5
928
  8
0
 10
41.111032932972194
 20
61.57222619448109
 30
0.0
 40
1.2858421308203369
 50
130.6634486145096
 51
166.19111670608939
  0
ARC
  5
929
  8
0
 10
43.085401040774173
 20
61.893113661955248
 30
0.0
 40
1.3818189222703761
 50
145.54093403329361
 51
180.57957318018211
  0
ARC
  5
92A
  8
0
 10
42.367593646504361
 20
61.892726568040587
 30
0.0
 40
1.3794081429990801
 50
359.4354931976543
 51
34.543181494823379
  0
POLYLINE
  5
92B
  8
0
 66
     1
 10
0.0
 20
0.0
 30
0.0
 70
   128
  0
VERTEX
  5
C6F
  8
0
 10
46.906376627853092
 20
61.879136165945702
 30
0.0
  0
VERTEX
  5
C70
  8
0
 10
47.08015370721693
 20
61.864870061131313
 30
0.0
  0
VERTEX
  5
C71
  8
0
 10
47.232185852981146
 20
61.828438938113287
 30
0.0
  0
VERTEX
  5
C72
  8
0
 10
47.365358020859162
 20
61.776064753302052
 30
0.0
  0
VERTEX
  5
C73
  8
0
 10
47.450999680018299
 20
61.731680447439402
 30
0.0
  0
VERTEX
  5
C74
  8
0
 10
47.519112035737521
 20
61.695212906946118
 30
0.0
  0
VERTEX
  5
C75
  8
0
 10
47.569844864087713
 20
61.697218659118988
 30
0.0
  0
VERTEX
  5
C76
  8
0
 10
47.573913868561583
 20
61.736939062604932
 30
0.0
  0
VERTEX
  5
C77
  8
0
 10
47.569098163357353
 20
61.748195289793301
 30
0.0
  0
SEQEND
  5
C78
  8
0
  0
LINE
  5
92C
  8
0
 10
46.864882909197974
 20
61.87913616594588
 30
0.0
 11
46.906376627853028
 21
61.87913616594588
 31
0.0
  0
POLYLINE
  5
92D
  8
0
 66
     1
 10
0.0
 20
0.0
 30
0.0
 70
   128
  0
VERTEX
  5
C79
  8
0
 10
45.642087258316558
 20
61.879136165945702
 30
0.0
  0
VERTEX
  5
C7A
  8
0
 10
45.858234963549762
 20
61.864870061131313
 30
0.0
  0
VERTEX
  5
C7B
  8
0
 10
46.060064282237242
 20
61.828438938113287
 30
0.0
  0
VERTEX
  5
C7C
  8
0
 10
46.252916719703421
 20
61.776064753302052
 30
0.0
  0
VERTEX
  5
C7D
  8
0
 10
46.391564319314391
 20
61.731680447439402
 30
0.0
  0
VERTEX
  5
C7E
  8
0
 10
46.520756745342958
 20
61.695212906946118
 30
0.0
  0
VERTEX
  5
C7F
  8
0
 10
46.666080433440918
 20
61.697218659118988
 30
0.0
  0
VERTEX
  5
C80
  8
0
 10
46.74676792948673
 20
61.736939062604932
 30
0.0
  0
VERTEX
  5
C81
  8
0
 10
46.805686054298228
 20
61.785178974925628
 30
0.0
  0
VERTEX
  5
C82
  8
0
 10
46.854186579666809
 20
61.842708932700099
 30
0.0
  0
VERTEX
  5
C83
  8
0
 10
46.868212291329087
 20
61.876058948326751
 30
0.0
  0
VERTEX
  5
C84
  8
0
 10
46.867568263325552
 20
61.876654198208342
 30
0.0
  0
SEQEND
  5
C85
  8
0
  0
LINE
  5
92E
  8
0
 10
45.567278841588802
 20
61.87913616594588
 30
0.0
 11
45.642087258316451
 21
61.87913616594588
 31
0.0
  0
ARC
  5
92F
  8
0
 10
44.683502914691331
 20
64.851911264272189
 30
0.0
 40
3.1013628736723549
 50
253.44331954212601
 51
286.55668045787388
  0
LINE
  5
930
  8
0
 10
43.706420597394967
 20
61.87913616594588
 30
0.0
 11
43.799726987793854
 21
61.87913616594588
 31
0.0
  0
ARC
  5
931
  8
0
 10
42.725309230158381
 20
66.164727549448259
 30
0.0
 40
4.3964614204238366
 50
257.10533651801148
 51
282.89466348198749
  0
LINE
  5
932
  8
0
 10
41.650873973807727
 20
61.87913616594588
 30
0.0
 11
41.744197862921418
 21
61.87913616594588
 31
0.0
  0
ARC
  5
933
  8
0
 10
40.766748305060609
 20
65.62571016748241
 30
0.0
 40
3.8494798281235911
 50
256.72211681876269
 51
283.27788318123481
  0
LINE
  5
934
  8
0
 10
39.807765189253651
 20
61.87913616594588
 30
0.0
 11
39.882622636313471
 21
61.87913616594588
 31
0.0
  0
POLYLINE
  5
935
  8
0
 66
     1
 10
0.0
 20
0.0
 30
0.0
 70
   128
  0
VERTEX
  5
C86
  8
0
 10
38.583352288180208
 20
61.873988257558693
 30
0.0
  0
VERTEX
  5
C87
  8
0
 10
38.582720265960582
 20
61.864870061131313
 30
0.0
  0
VERTEX
  5
C88
  8
0
 10
38.604791000853652
 20
61.828438938113287
 30
0.0
  0
VERTEX
  5
C89
  8
0
 10
38.653063940359857
 20
61.776064753302052
 30
0.0
  0
VERTEX
  5
C8A
  8
0
 10
38.710463220719141
 20
61.731680447439402
 30
0.0
  0
VERTEX
  5
C8B
  8
0
 10
38.790212854298602
 20
61.695212906946118
 30
0.0
  0
VERTEX
  5
C8C
  8
0
 10
38.93808146124627
 20
61.697218659118988
 30
0.0
  0
VERTEX
  5
C8D
  8
0
 10
39.074332335118363
 20
61.736939062604932
 30
0.0
  0
VERTEX
  5
C8E
  8
0
 10
39.226872927417268
 20
61.785178974925628
 30
0.0
  0
VERTEX
  5
C8F
  8
0
 10
39.456239062417687
 20
61.842708932700099
 30
0.0
  0
VERTEX
  5
C90
  8
0
 10
39.709055274948128
 20
61.876058948326751
 30
0.0
  0
VERTEX
  5
C91
  8
0
 10
39.807765189253928
 20
61.879136165945702
 30
0.0
  0
SEQEND
  5
C92
  8
0
  0
LINE
  5
936
  8
0
 10
38.542144542759281
 20
61.87913616594588
 30
0.0
 11
38.583709112307901
 21
61.87913616594588
 31
0.0
  0
POLYLINE
  5
937
  8
0
 66
     1
 10
0.0
 20
0.0
 30
0.0
 70
   128
  0
VERTEX
  5
C93
  8
0
 10
37.87881189702955
 20
61.748639233888497
 30
0.0
  0
VERTEX
  5
C94
  8
0
 10
37.872823275978483
 20
61.731680447439402
 30
0.0
  0
VERTEX
  5
C95
  8
0
 10
37.879281477962081
 20
61.695212906946118
 30
0.0
  0
VERTEX
  5
C96
  8
0
 10
37.933187768211504
 20
61.697218659118988
 30
0.0
  0
VERTEX
  5
C97
  8
0
 10
38.006543171548287
 20
61.736939062604932
 30
0.0
  0
VERTEX
  5
C98
  8
0
 10
38.102650196434638
 20
61.785178974925628
 30
0.0
  0
VERTEX
  5
C99
  8
0
 10
38.26500279100253
 20
61.842708932700099
 30
0.0
  0
VERTEX
  5
C9A
  8
0
 10
38.461503623136991
 20
61.876058948326751
 30
0.0
  0
VERTEX
  5
C9B
  8
0
 10
38.542144542759502
 20
61.879136165945702
 30
0.0
  0
SEQEND
  5
C9C
  8
0
  0
LINE
  5
938
  8
0
 10
37.723455062872318
 20
60.47913616594586
 30
0.0
 11
47.723454640989473
 21
60.47913616594586
 31
0.0
  0
LINE
  5
995
  8
0
 10
45.723455062872119
 20
58.879136178145842
 30
0.0
 11
45.723455062872119
 21
59.392925921103071
 31
0.0
  0
LINE
  5
996
  8
0
 10
39.723455062872539
 20
59.392925921103071
 30
0.0
 11
39.723455062872539
 21
58.879136178145842
 31
0.0
  0
ARC
  5
997
  8
0
 10
45.977455062872217
 20
59.392925921102879
 30
0.0
 40
0.2540000000000107
 50
135.00000000000401
 51
180.0
  0
ARC
  5
998
  8
0
 10
39.469455062872413
 20
59.392925921102879
 30
0.0
 40
0.2540000000000107
 50
0.0
 51
45.000000000000853
  0
LINE
  5
999
  8
0
 10
45.797849940450867
 20
59.572531043524421
 30
0.0
 11
46.704455062872341
 21
60.47913616594586
 31
0.0
  0
LINE
  5
99A
  8
0
 10
38.742455062872331
 20
60.47913616594586
 30
0.0
 11
39.649060185293763
 21
59.572531043524421
 31
0.0
  0
ARC
  5
99B
  8
0
 10
44.202820183193403
 20
61.291636165945853
 30
0.0
 40
1.587499999999975
 50
89.954392494829179
 51
114.6486553958958
  0
ARC
  5
99C
  8
0
 10
41.24156391357689
 20
61.291636165945853
 30
0.0
 40
1.5874999999999639
 50
89.954403774697965
 51
111.9534256888043
  0
ARC
  5
99D
  8
0
 10
45.39058073853365
 20
61.291636165945853
 30
0.0
 40
1.5874999999999599
 50
89.968387133787004
 51
111.96856313019011
  0
ARC
  5
99E
  8
0
 10
40.054581320922722
 20
61.291636165945853
 30
0.0
 40
1.5874999999999591
 50
89.968436881783248
 51
101.9678968016058
  0
POLYLINE
  5
99F
  8
0
 66
     1
 10
0.0
 20
0.0
 30
0.0
 70
   128
  0
VERTEX
  5
C9D
  8
0
 10
46.050377841804099
 20
62.879136138814573
 30
0.0
  0
VERTEX
  5
C9E
  8
0
 10
45.901229701292657
 20
62.872141953801673
 30
0.0
  0
VERTEX
  5
C9F
  8
0
 10
45.720332541096347
 20
62.844510919010837
 30
0.0
  0
SEQEND
  5
CA0
  8
0
  0
ARC
  5
9A0
  8
0
 10
39.396201904450258
 20
61.291636165945853
 30
0.0
 40
1.587499999999969
 50
89.989724078845654
 51
160.60266418505961
  0
ARC
  5
9A1
  8
0
 10
42.72345506287251
 20
60.497886165945857
 30
0.0
 40
2.3812499999999481
 50
69.926792604316176
 51
110.1092353642003
  0
ARC
  5
9A2
  8
0
 10
46.0507082212944
 20
61.291636165945853
 30
0.0
 40
1.5874999999999659
 50
16.738089659258709
 51
102.0001450911803
  0
ARC
  5
9A3
  8
0
 10
39.396825782085394
 20
61.291636165945853
 30
0.0
 40
1.5874999999999619
 50
78.043611547609203
 51
163.24241571230689
  0
ARC
  5
9A4
  8
0
 10
45.392328804821943
 20
61.291636165945853
 30
0.0
 40
1.587499999999973
 50
21.625149208632841
 51
112.002582540354
  0
ARC
  5
9A5
  8
0
 10
40.056329387211008
 20
61.291636165945853
 30
0.0
 40
1.587499999999977
 50
68.080581955625703
 51
158.44048844924879
  0
ARC
  5
9A6
  8
0
 10
44.205346212167761
 20
61.291636165945853
 30
0.0
 40
1.587499999999981
 50
52.264971496556669
 51
117.851327738181
  0
ARC
  5
9A7
  8
0
 10
41.24408994255122
 20
61.291636165945853
 30
0.0
 40
1.5874999999999759
 50
62.257398106858773
 51
127.7059927905389
  0
ARC
  5
9A8
  8
0
 10
42.72485690319337
 20
61.291636165945853
 30
0.0
 40
1.587499999999969
 50
60.614736648946817
 51
119.3792136533495
  0
ARC
  5
9A9
  8
0
 10
47.342455062872318
 20
61.498136165945681
 30
0.0
 40
0.3810000000000048
 50
0.0
 51
57.477311972966127
  0
ARC
  5
9AA
  8
0
 10
38.104455062872319
 20
61.498136165945681
 30
0.0
 40
0.3809999999999822
 50
122.6664245583287
 51
180.0
  0
LINE
  5
9AB
  8
0
 10
47.723455062872318
 20
60.47913616594586
 30
0.0
 11
47.723455062872318
 21
61.498136165945859
 31
0.0
  0
LINE
  5
9AC
  8
0
 10
37.723455062872318
 20
61.498136165945859
 30
0.0
 11
37.723455062872318
 21
60.47913616594586
 31
0.0
  0
LINE
  5
9AF
  8
0
 10
13.866288945548501
 20
59.392925921103071
 30
0.0
 11
7.866289198678146
 21
59.392925921103071
 31
0.0
  0
LINE
  5
9B0
  8
0
 10
7.791894321099746
 20
59.572531043524421
 30
0.0
 11
13.9406838168499
 21
59.572531043524421
 31
0.0
  0
LINE
  5
9B1
  8
0
 10
5.8662891986783023
 20
61.49813616594551
 30
0.0
 11
15.86628919867794
 21
61.49813616594551
 31
0.0
  0
LINE
  5
9B2
  8
0
 10
5.8662891986783023
 20
58.879136178145487
 30
0.0
 11
15.86628919867794
 21
58.879136178145487
 31
0.0
  0
LINE
  5
9B4
  8
0
 10
5.8662891986783023
 20
50.8791361781457
 30
0.0
 11
15.86628919867794
 21
50.8791361781457
 31
0.0
  0
LINE
  5
9E7
  8
0
 10
16.639791890574141
 20
51.086395599782847
 30
0.0
 11
16.639791890574141
 21
58.671876756508709
 31
0.0
  0
ARC
  5
9E8
  8
0
 10
15.15733542565289
 20
53.477436433300483
 30
0.0
 40
5.4018411159306812
 50
74.071629062301355
 51
89.585477631714454
  0
ARC
  5
9E9
  8
0
 10
15.23525117695891
 20
53.479148436429789
 30
0.0
 40
5.4001273841226229
 50
90.412045548234147
 51
105.93084775775171
  0
ARC
  5
9EA
  8
0
 10
15.1575812582417
 20
56.27912391986176
 30
0.0
 40
5.400127384122599
 50
270.41204554823292
 51
285.93084775775088
  0
ARC
  5
9ED
  8
0
 10
15.235497009547741
 20
56.280835922991052
 30
0.0
 40
5.4018411159309059
 50
254.07162906230261
 51
269.58547763171481
  0
ARC
  5
9EE
  8
0
 10
6.4970813878084916
 20
53.477436433299403
 30
0.0
 40
5.401841115931993
 50
74.071629062303131
 51
89.585477631712024
  0
ARC
  5
9EF
  8
0
 10
6.5749971391145294
 20
53.479148436429789
 30
0.0
 40
5.4001273841225537
 50
90.412045548233749
 51
105.93084775775171
  0
LINE
  5
9F0
  8
0
 10
5.0927865067821037
 20
51.086395599782847
 30
0.0
 11
5.0927865067821037
 21
58.671876756508709
 31
0.0
  0
ARC
  5
9F1
  8
0
 10
6.5752429717037151
 20
56.280835922992139
 30
0.0
 40
5.4018411159316742
 50
254.0716290623044
 51
269.58547763171441
  0
ARC
  5
9F2
  8
0
 10
6.4973272203973229
 20
56.27912391986176
 30
0.0
 40
5.4001273841225563
 50
270.41204554823332
 51
285.93084775775128
  0
LINE
  5
9F3
  8
0
 10
13.753040544626129
 20
51.086395599782847
 30
0.0
 11
13.753040544626129
 21
58.671876756508709
 31
0.0
  0
ARC
  5
9F4
  8
0
 10
10.80120671415925
 20
37.76539468540004
 30
0.0
 40
21.113841799925599
 50
81.963401286910823
 51
89.823388011351085
  0
ARC
  5
9F5
  8
0
 10
10.981615104811009
 20
37.065594098176241
 30
0.0
 40
21.813846935816152
 50
90.302913946866667
 51
97.910296754873144
  0
LINE
  5
9F6
  8
0
 10
7.9795378527301182
 20
51.086395599782847
 30
0.0
 11
7.9795378527301182
 21
58.671876756508709
 31
0.0
  0
ARC
  5
9F7
  8
0
 10
10.98173968172439
 20
72.694413390684431
 30
0.0
 40
21.815582703057441
 50
262.09000633298541
 51
269.69678296527792
  0
ARC
  5
9F8
  8
0
 10
10.801616106980619
 20
71.98717556448068
 30
0.0
 40
21.108138462305419
 50
270.17554845049511
 51
278.03766225124269
  0
ARC
  5
9F9
  8
0
 10
13.11519151114933
 20
61.403405040924412
 30
0.0
 40
1.4236656448692371
 50
19.521423941558009
 51
39.509363470692271
  0
ARC
  5
9FA
  8
0
 10
8.6195948383405323
 20
61.403853720194483
 30
0.0
 40
1.4233801219095541
 50
140.4262383395625
 51
160.49366289304169
  0
ARC
  5
9FB
  8
0
 10
11.702091533818971
 20
61.762279548112872
 30
0.0
 40
1.16383108097986
 50
5.7625994330269812
 51
48.714987477121241
  0
ARC
  5
9FC
  8
0
 10
10.03393512273777
 20
61.762831226236571
 30
0.0
 40
1.1638252825135651
 50
131.31025592526879
 51
174.26466848088589
  0
ARC
  5
9FD
  8
0
 10
-355.69571905219732
 20
62.046476714507627
 30
0.0
 40
366.5639324980221
 50
359.9738438328024
 51
0.0999208987295482
  0
POLYLINE
  5
9FE
  8
0
 66
     1
 10
0.0
 20
0.0
 30
0.0
 70
   128
  0
VERTEX
  5
CA1
  8
0
 10
6.3012020429104041
 20
61.832256717669878
 30
0.0
  0
VERTEX
  5
CA2
  8
0
 10
6.2985119904113844
 20
61.828438938112839
 30
0.0
  0
VERTEX
  5
CA3
  8
0
 10
6.2991055842029482
 20
61.776064753301831
 30
0.0
  0
VERTEX
  5
CA4
  8
0
 10
6.3205050856703329
 20
61.731680447438947
 30
0.0
  0
VERTEX
  5
CA5
  8
0
 10
6.3647175010122501
 20
61.695212906946118
 30
0.0
  0
VERTEX
  5
CA6
  8
0
 10
6.4681994583323776
 20
61.697218659118533
 30
0.0
  0
VERTEX
  5
CA7
  8
0
 10
6.5756978049229238
 20
61.736939062604932
 30
0.0
  0
VERTEX
  5
CA8
  8
0
 10
6.703218831902972
 20
61.785178974925401
 30
0.0
  0
VERTEX
  5
CA9
  8
0
 10
6.9041150851916191
 20
61.842708932700099
 30
0.0
  0
VERTEX
  5
CAA
  8
0
 10
7.1345511200260026
 20
61.876058948326509
 30
0.0
  0
VERTEX
  5
CAB
  8
0
 10
7.2265327074268271
 20
61.879136165945482
 30
0.0
  0
SEQEND
  5
CAC
  8
0
  0
ARC
  5
9FF
  8
0
 10
6.3143558520629881
 20
61.365099428508671
 30
0.0
 40
0.5124567215742852
 50
89.467611510656241
 51
139.7598215948577
  0
POLYLINE
  5
A00
  8
0
 66
     1
 10
0.0
 20
0.0
 30
0.0
 70
   128
  0
VERTEX
  5
CAD
  8
0
 10
15.410132788072019
 20
61.876070435981291
 30
0.0
  0
VERTEX
  5
CAE
  8
0
 10
15.51915548811337
 20
61.864870061130858
 30
0.0
  0
VERTEX
  5
CAF
  8
0
 10
15.63411541734683
 20
61.828438938112839
 30
0.0
  0
VERTEX
  5
CB0
  8
0
 10
15.726577476756001
 20
61.776064753301831
 30
0.0
  0
VERTEX
  5
CB1
  8
0
 10
15.77853772719015
 20
61.731680447438947
 30
0.0
  0
VERTEX
  5
CB2
  8
0
 10
15.810157579778091
 20
61.695212906946118
 30
0.0
  0
VERTEX
  5
CB3
  8
0
 10
15.80940294291474
 20
61.696142910267291
 30
0.0
  0
SEQEND
  5
CB4
  8
0
  0
POLYLINE
  5
A01
  8
0
 66
     1
 10
0.0
 20
0.0
 30
0.0
 70
   128
  0
VERTEX
  5
CB5
  8
0
 10
14.50838092242873
 20
61.879136165945482
 30
0.0
  0
VERTEX
  5
CB6
  8
0
 10
14.708357135914749
 20
61.864870061130858
 30
0.0
  0
VERTEX
  5
CB7
  8
0
 10
14.889837971590049
 20
61.828438938112839
 30
0.0
  0
VERTEX
  5
CB8
  8
0
 10
15.05704243936213
 20
61.776064753301831
 30
0.0
  0
VERTEX
  5
CB9
  8
0
 10
15.172071076847599
 20
61.731680447438947
 30
0.0
  0
VERTEX
  5
CBA
  8
0
 10
15.273260497769
 20
61.695212906946118
 30
0.0
  0
VERTEX
  5
CBB
  8
0
 10
15.37380973530651
 20
61.697218659118533
 30
0.0
  0
VERTEX
  5
CBC
  8
0
 10
15.41727782123451
 20
61.736939062604932
 30
0.0
  0
VERTEX
  5
CBD
  8
0
 10
15.43690996111525
 20
61.785178974925401
 30
0.0
  0
VERTEX
  5
CBE
  8
0
 10
15.430890158697251
 20
61.831170269992043
 30
0.0
  0
SEQEND
  5
CBF
  8
0
  0
LINE
  5
A02
  8
0
 10
14.44873439168188
 20
61.879136165945511
 30
0.0
 11
14.50838092242841
 21
61.879136165945511
 31
0.0
  0
POLYLINE
  5
A03
  8
0
 66
     1
 10
0.0
 20
0.0
 30
0.0
 70
   128
  0
VERTEX
  5
CC0
  8
0
 10
12.915109460385681
 20
61.879136165945482
 30
0.0
  0
VERTEX
  5
CC1
  8
0
 10
13.136590108875559
 20
61.864870061130858
 30
0.0
  0
VERTEX
  5
CC2
  8
0
 10
13.34864734577093
 20
61.828438938112839
 30
0.0
  0
VERTEX
  5
CC3
  8
0
 10
13.55747732643419
 20
61.776064753301831
 30
0.0
  0
VERTEX
  5
CC4
  8
0
 10
13.71279151858459
 20
61.731680447438947
 30
0.0
  0
VERTEX
  5
CC5
  8
0
 10
13.86350870201875
 20
61.695212906946118
 30
0.0
  0
VERTEX
  5
CC6
  8
0
 10
14.04631970413663
 20
61.697218659118533
 30
0.0
  0
VERTEX
  5
CC7
  8
0
 10
14.160180602326699
 20
61.736939062604932
 30
0.0
  0
VERTEX
  5
CC8
  8
0
 10
14.25543031127097
 20
61.785178974925401
 30
0.0
  0
VERTEX
  5
CC9
  8
0
 10
14.357529441579
 20
61.842708932700099
 30
0.0
  0
VERTEX
  5
CCA
  8
0
 10
14.42961950128017
 20
61.876058948326509
 30
0.0
  0
VERTEX
  5
CCB
  8
0
 10
14.44873439168202
 20
61.879136165945482
 30
0.0
  0
SEQEND
  5
CCC
  8
0
  0
LINE
  5
A04
  8
0
 10
12.828890364068281
 20
61.879136165945511
 30
0.0
 11
12.915109460385629
 21
61.879136165945511
 31
0.0
  0
ARC
  5
A05
  8
0
 10
11.87246719121779
 20
65.706476415385524
 30
0.0
 40
3.9450321507622248
 50
255.96956001014459
 51
284.03043998985618
  0
LINE
  5
A06
  8
0
 10
10.820329105925341
 20
61.879136165945511
 30
0.0
 11
10.9160440183673
 21
61.879136165945511
 31
0.0
  0
ARC
  5
A07
  8
0
 10
9.8637265650208974
 20
66.135902409310503
 30
0.0
 40
4.3629287493512852
 50
257.33460493228642
 51
282.66539506771443
  0
LINE
  5
A08
  8
0
 10
8.8208708078155951
 20
61.879136165945511
 30
0.0
 11
8.907124024115717
 21
61.879136165945511
 31
0.0
  0
POLYLINE
  5
A09
  8
0
 66
     1
 10
0.0
 20
0.0
 30
0.0
 70
   128
  0
VERTEX
  5
CCD
  8
0
 10
7.2862407202745771
 20
61.879136165945482
 30
0.0
  0
VERTEX
  5
CCE
  8
0
 10
7.3345607471250096
 20
61.864870061130858
 30
0.0
  0
VERTEX
  5
CCF
  8
0
 10
7.4032652970207664
 20
61.828438938112839
 30
0.0
  0
VERTEX
  5
CD0
  8
0
 10
7.4967969754837886
 20
61.776064753301831
 30
0.0
  0
VERTEX
  5
CD1
  8
0
 10
7.5873177951392563
 20
61.731680447438947
 30
0.0
  0
VERTEX
  5
CD2
  8
0
 10
7.6986056673230223
 20
61.695212906946118
 30
0.0
  0
VERTEX
  5
CD3
  8
0
 10
7.8834461745008184
 20
61.697218659118533
 30
0.0
  0
VERTEX
  5
CD4
  8
0
 10
8.0416173879042372
 20
61.736939062604932
 30
0.0
  0
VERTEX
  5
CD5
  8
0
 10
8.2115285232702036
 20
61.785178974925401
 30
0.0
  0
VERTEX
  5
CD6
  8
0
 10
8.4578631642237951
 20
61.842708932700099
 30
0.0
  0
VERTEX
  5
CD7
  8
0
 10
8.7203822938853364
 20
61.876058948326509
 30
0.0
  0
VERTEX
  5
CD8
  8
0
 10
8.8208708078158224
 20
61.879136165945482
 30
0.0
  0
SEQEND
  5
CD9
  8
0
  0
LINE
  5
A0A
  8
0
 10
7.2265327074266281
 20
61.879136165945511
 30
0.0
 11
7.2862407202746624
 21
61.879136165945511
 31
0.0
  0
LINE
  5
A0B
  8
0
 10
5.8662891986783023
 20
60.479136165945498
 30
0.0
 11
15.86628919867794
 21
60.479136165945498
 31
0.0
  0
LINE
  5
A22
  8
0
 10
5.8662891986783023
 20
58.879136178145487
 30
0.0
 11
5.0927865067821037
 21
58.671876756508709
 31
0.0
  0
LINE
  5
A23
  8
0
 10
16.639791890574141
 20
58.671876756508709
 30
0.0
 11
15.86628919867794
 21
58.879136178145487
 31
0.0
  0
LINE
  5
A24
  8
0
 10
5.0927865067821037
 20
51.086395599782847
 30
0.0
 11
5.8662891986783023
 21
50.8791361781457
 31
0.0
  0
LINE
  5
A25
  8
0
 10
15.86628919867794
 20
50.8791361781457
 30
0.0
 11
16.639791890574141
 21
51.086395599782847
 31
0.0
  0
LINE
  5
A6C
  8
0
 10
13.866289198678089
 20
58.879136178145487
 30
0.0
 11
13.866289198678089
 21
59.392925921103071
 31
0.0
  0
LINE
  5
A6D
  8
0
 10
7.866289198678146
 20
59.392925921103071
 30
0.0
 11
7.866289198678146
 21
58.879136178145487
 31
0.0
  0
ARC
  5
A6E
  8
0
 10
14.12028919867821
 20
59.392925921103071
 30
0.0
 40
0.2539999999999995
 50
135.00000000000281
 51
180.0000000000008
  0
ARC
  5
A6F
  8
0
 10
7.612289198678396
 20
59.392925921103071
 30
0.0
 40
0.2539999999999995
 50
0.0
 51
44.999999999998252
  0
LINE
  5
A70
  8
0
 10
13.940684076256501
 20
59.572531043524421
 30
0.0
 11
14.84728919867794
 21
60.479136165945498
 31
0.0
  0
LINE
  5
A71
  8
0
 10
6.8852891986779383
 20
60.479136165945498
 30
0.0
 11
7.791894321099746
 21
59.572531043524421
 31
0.0
  0
POLYLINE
  5
A72
  8
0
 66
     1
 10
0.0
 20
0.0
 30
0.0
 70
   128
  0
VERTEX
  5
CDA
  8
0
 10
11.625641720783159
 20
62.879135577732967
 30
0.0
  0
VERTEX
  5
CDB
  8
0
 10
11.462802993306351
 20
62.870902767746401
 30
0.0
  0
VERTEX
  5
CDC
  8
0
 10
11.283935169939349
 20
62.842224751813291
 30
0.0
  0
SEQEND
  5
CDD
  8
0
  0
ARC
  5
A73
  8
0
 10
10.10556988236652
 20
61.291636165945661
 30
0.0
 40
1.5874999999999391
 50
89.950660056295462
 51
115.5232492613698
  0
ARC
  5
A74
  8
0
 10
12.99285196510003
 20
61.291636165945661
 30
0.0
 40
1.5874999999999631
 50
89.960472678655236
 51
115.5340759871177
  0
ARC
  5
A75
  8
0
 10
8.7375344264636112
 20
61.291636165945661
 30
0.0
 40
1.5874999999999571
 50
89.960466059935442
 51
107.3424232424936
  0
ARC
  5
A76
  8
0
 10
13.940236965254529
 20
61.291636165945661
 30
0.0
 40
1.5874999999999411
 50
89.978134300564975
 51
107.3608669834228
  0
POLYLINE
  5
A77
  8
0
 66
     1
 10
0.0
 20
0.0
 30
0.0
 70
   128
  0
VERTEX
  5
CDE
  8
0
 10
7.7917312448338398
 20
62.879136050172271
 30
0.0
  0
VERTEX
  5
CDF
  8
0
 10
7.6260071651730641
 20
62.87052576424319
 30
0.0
  0
VERTEX
  5
CE0
  8
0
 10
7.6224572236372969
 20
62.870150481524178
 30
0.0
  0
SEQEND
  5
CE1
  8
0
  0
ARC
  5
A78
  8
0
 10
14.27878891074324
 20
61.291636165945661
 30
0.0
 40
1.5874999999999571
 50
14.80354954116817
 51
96.121116742843185
  0
ARC
  5
A79
  8
0
 10
7.4537894866133447
 20
61.291636165945661
 30
0.0
 40
1.5874999999999651
 50
83.900961015764835
 51
165.19588409378079
  0
ARC
  5
A7A
  8
0
 10
10.86628919867848
 20
60.49788616594568
 30
0.0
 40
2.381249999999949
 50
79.898681345174481
 51
100.1381957779205
  0
ARC
  5
A7B
  8
0
 10
7.7923414321020621
 20
61.291636165945661
 30
0.0
 40
1.5874999999999599
 50
72.680573129371041
 51
160.06803523933709
  0
ARC
  5
A7C
  8
0
 10
13.941453436694839
 20
61.291636165945661
 30
0.0
 40
1.5874999999999511
 50
19.926051887724022
 51
107.3838685531026
  0
ARC
  5
A7D
  8
0
 10
12.995043970893329
 20
61.291636165945661
 30
0.0
 40
1.5874999999999571
 50
39.862834969938078
 51
115.5779225018
  0
ARC
  5
A7E
  8
0
 10
8.7397264322562052
 20
61.291636165945661
 30
0.0
 40
1.5874999999999619
 50
64.520577279355024
 51
140.06656297931971
  0
ARC
  5
A7F
  8
0
 10
11.627008514990059
 20
61.291636165945661
 30
0.0
 40
1.58749999999995
 50
57.926007200943708
 51
118.5765476811418
  0
ARC
  5
A80
  8
0
 10
10.108303268881301
 20
61.291636165945661
 30
0.0
 40
1.58749999999995
 50
61.423452318858843
 51
122.0597904897224
  0
ARC
  5
A81
  8
0
 10
15.48528919867829
 20
61.49813616594551
 30
0.0
 40
0.3810000000000048
 50
0.0
 51
31.409940057638099
  0
ARC
  5
A82
  8
0
 10
6.247289198678657
 20
61.49813616594551
 30
0.0
 40
0.3810000000000048
 50
148.58266730957979
 51
180.0000000000008
  0
LINE
  5
A83
  8
0
 10
15.86628919867794
 20
60.479136165945498
 30
0.0
 11
15.86628919867794
 21
61.49813616594551
 31
0.0
  0
LINE
  5
A84
  8
0
 10
5.8662891986783023
 20
61.49813616594551
 30
0.0
 11
5.8662891986783023
 21
60.479136165945498
 31
0.0
  0
LINE
  5
A85
  8
0
 10
16.63979189057417
 20
86.281189722554814
 30
0.0
 11
13.753040544626479
 21
81.281189722554643
 31
0.0
  0
LINE
  5
A88
  8
0
 10
7.9795378527306857
 20
81.281189722554657
 30
0.0
 11
5.0927865067821037
 21
86.281189722554458
 31
0.0
  0
LINE
  5
A8A
  8
0
 10
5.0927865067820903
 20
86.281189722554458
 30
0.0
 11
7.9795378527304726
 21
91.281189722554643
 31
0.0
  0
LINE
  5
A8B
  8
0
 10
7.9795378527304868
 20
91.281189722554643
 30
0.0
 11
13.753040544626479
 21
91.281189722554643
 31
0.0
  0
LINE
  5
A8E
  8
0
 10
13.75304054462627
 20
91.281189722554615
 30
0.0
 11
16.639791890574141
 21
86.281189722554814
 31
0.0
  0
LINE
  5
A90
  8
0
 10
13.753040544626479
 20
81.281189722554657
 30
0.0
 11
7.9795378527304726
 21
81.281189722554643
 31
0.0
  0
CIRCLE
  5
A91
  8
0
 10
10.86628919867848
 20
86.281189722554814
 30
0.0
 40
4.9999999999998916
  0
ARC
  5
A92
  8
0
 10
10.86628919867848
 20
86.281189722554814
 30
0.0
 40
4.6189999999998976
 50
192.2870275084687
 51
193.4743319263921
  0
ARC
  5
A93
  8
0
 10
10.86628919867848
 20
86.281189722554814
 30
0.0
 40
4.6189999999998994
 50
166.5727417941832
 51
167.76004621210581
  0
ARC
  5
A94
  8
0
 10
10.86628919867848
 20
86.281189722554814
 30
0.0
 40
4.6189999999998852
 50
140.85845607989711
 51
142.04576049780709
  0
ARC
  5
A95
  8
0
 10
10.86628919867848
 20
86.281189722554814
 30
0.0
 40
4.6189999999999003
 50
115.1441703656116
 51
116.3314747835971
  0
ARC
  5
A96
  8
0
 10
10.86628919867848
 20
86.281189722554814
 30
0.0
 40
4.6189999999999021
 50
89.429884651325096
 51
90.617189069193813
  0
ARC
  5
A97
  8
0
 10
10.86628919867848
 20
86.281189722554814
 30
0.0
 40
4.6189999999999163
 50
63.715598937039182
 51
64.902903354916802
  0
ARC
  5
A98
  8
0
 10
10.86628919867848
 20
86.281189722554814
 30
0.0
 40
4.6189999999998941
 50
38.001313222753929
 51
39.188617640739068
  0
ARC
  5
A99
  8
0
 10
10.86628919867848
 20
86.281189722554814
 30
0.0
 40
4.6189999999998994
 50
12.287027508467879
 51
13.47433192646071
  0
ARC
  5
A9A
  8
0
 10
10.86628919867848
 20
86.281189722554814
 30
0.0
 40
4.6189999999999127
 50
346.57274179418238
 51
347.76004621204999
  0
ARC
  5
A9B
  8
0
 10
10.86628919867848
 20
86.281189722554814
 30
0.0
 40
4.6189999999999003
 50
320.8584560798962
 51
322.04576049780889
  0
ARC
  5
A9C
  8
0
 10
10.86628919867848
 20
86.281189722554814
 30
0.0
 40
4.6189999999998941
 50
295.14417036561082
 51
296.33147478359501
  0
ARC
  5
A9D
  8
0
 10
10.86628919867848
 20
86.281189722554814
 30
0.0
 40
4.6189999999998941
 50
269.42988465132589
 51
270.61718906919259
  0
ARC
  5
A9E
  8
0
 10
10.86628919867848
 20
86.281189722554814
 30
0.0
 40
4.6189999999999021
 50
243.7155989370396
 51
244.9029033549175
  0
ARC
  5
A9F
  8
0
 10
10.86628919867848
 20
86.281189722554814
 30
0.0
 40
4.6189999999998959
 50
218.00131322275419
 51
219.1886176407393
  0
ARC
  5
AA0
  8
0
 10
7.7923414321020621
 20
84.799298573259179
 30
0.0
 40
1.474788120375224
 50
7.6049065915192751
 51
23.485997780279568
  0
ARC
  5
AA1
  8
0
 10
7.7923414321020621
 20
84.799298573259179
 30
0.0
 40
1.4747881203752251
 50
27.9896473691492
 51
43.870738557909434
  0
ARC
  5
AA2
  8
0
 10
7.7923414321020621
 20
84.799298573259179
 30
0.0
 40
1.474788120386489
 50
161.8906208772348
 51
164.035864750988
  0
ARC
  5
AA3
  8
0
 10
7.652620708548354
 20
84.731941897316844
 30
0.0
 40
1.3628932034554431
 50
159.6937398269101
 51
251.78190532223749
  0
ARC
  5
AA4
  8
0
 10
7.7923414321020621
 20
84.799298573259179
 30
0.0
 40
1.474788120375236
 50
247.4397803976675
 51
249.58502427219591
  0
ARC
  5
AA5
  8
0
 10
8.7397264322562052
 20
83.612315980605047
 30
0.0
 40
1.4747881203752291
 50
33.319192305805643
 51
49.2002834945649
  0
ARC
  5
AA6
  8
0
 10
8.7397264322562052
 20
83.612315980605047
 30
0.0
 40
1.474788120375214
 50
53.703933083434407
 51
69.585024272194474
  0
LINE
  5
AA7
  8
0
 10
9.2541576268865384
 20
84.994473911520032
 30
0.0
 11
7.277910237471743
 21
83.417140642344194
 31
0.0
  0
ARC
  5
AA8
  8
0
 10
8.7397264322562052
 20
83.612315980605047
 30
0.0
 40
1.4747881203840321
 50
187.60490659152089
 51
189.7501504654428
  0
ARC
  5
AA9
  8
0
 10
8.6430673765448631
 20
83.491007162563278
 30
0.0
 40
1.3628932034507619
 50
185.40802554116971
 51
277.49619103660962
  0
ARC
  5
AAA
  8
0
 10
8.7397264322562052
 20
83.612315980605047
 30
0.0
 40
1.4747881203752471
 50
273.15406611195158
 51
275.29930998648041
  0
ARC
  5
AAB
  8
0
 10
12.995043970893329
 20
83.614064046893304
 30
0.0
 40
1.4747881203752511
 50
110.4620494486626
 51
126.34314063742301
  0
ARC
  5
AAC
  8
0
 10
12.995043970893329
 20
83.614064046893304
 30
0.0
 40
1.47478812037524
 50
130.84679022629251
 51
146.72788141505231
  0
ARC
  5
AAD
  8
0
 10
12.995043970893329
 20
83.614064046893304
 30
0.0
 40
1.47478812038405
 50
264.74776373437749
 51
266.89300760829678
  0
ARC
  5
AAE
  8
0
 10
13.091802660243699
 20
83.492834684027201
 30
0.0
 40
1.3628932034507619
 50
262.55088268402397
 51
354.6390481794686
  0
ARC
  5
AAF
  8
0
 10
12.995043970893329
 20
83.614064046893304
 30
0.0
 40
1.474788120375224
 50
350.29692325480988
 51
352.44216712933797
  0
ARC
  5
AB0
  8
0
 10
7.4537894866133447
 20
86.279787882233592
 30
0.0
 40
1.474788120375236
 50
341.89062087723471
 51
357.77171206599428
  0
ARC
  5
AB1
  8
0
 10
7.4537894866133447
 20
86.279787882233592
 30
0.0
 40
1.4747881203752531
 50
2.2753616548629152
 51
18.156452843621832
  0
ARC
  5
AB2
  8
0
 10
7.4537894866133447
 20
86.279787882233592
 30
0.0
 40
1.474788120386487
 50
136.1763351629491
 51
138.32157903670151
  0
ARC
  5
AB3
  8
0
 10
7.2986804980786104
 20
86.279724164131693
 30
0.0
 40
1.3628932034554591
 50
133.9794541126235
 51
226.0676196079506
  0
ARC
  5
AB4
  8
0
 10
7.4537894866133447
 20
86.279787882233592
 30
0.0
 40
1.474788120375228
 50
221.72549468338221
 51
223.8707385579095
  0
LINE
  5
AB5
  8
0
 10
8.8555237742580744
 20
85.82137650929306
 30
0.0
 11
6.3906071444573476
 21
85.257709946199384
 31
0.0
  0
ARC
  5
AB6
  8
0
 10
7.7911249606613922
 20
87.760554842875734
 30
0.0
 40
1.4747881203752391
 50
316.1763351629499
 51
332.05742635170822
  0
ARC
  5
AB7
  8
0
 10
7.7911249606613922
 20
87.760554842875734
 30
0.0
 40
1.4747881203752351
 50
336.56107594057812
 51
352.44216712933797
  0
ARC
  5
AB8
  8
0
 10
7.7911249606613922
 20
87.760554842875734
 30
0.0
 40
1.474788120387017
 50
110.4620494486644
 51
112.60729332237921
  0
ARC
  5
AB9
  8
0
 10
7.6513489446129759
 20
87.827796702765767
 30
0.0
 40
1.3628932034564261
 50
108.2651683983415
 51
200.35333389364939
  0
ARC
  5
ABA
  8
0
 10
7.7911249606613922
 20
87.760554842875734
 30
0.0
 40
1.4747881203752311
 50
196.0112089690966
 51
198.1564528436235
  0
LINE
  5
ABB
  8
0
 10
6.3897677729195967
 20
87.300991971917711
 30
0.0
 11
8.8551466743555238
 21
86.739350753191616
 31
0.0
  0
ARC
  5
ABC
  8
0
 10
11.627008514990059
 20
82.954560441767697
 30
0.0
 40
1.4747881203752311
 50
84.747763734376662
 51
100.62885492313811
  0
ARC
  5
ABD
  8
0
 10
11.627008514990059
 20
82.954560441767697
 30
0.0
 40
1.4747881203752209
 50
105.1325045120069
 51
121.0135957007671
  0
ARC
  5
ABE
  8
0
 10
11.627008514990059
 20
82.954560441767697
 30
0.0
 40
1.4747881203886719
 50
239.03347802009219
 51
241.1787218936928
  0
ARC
  5
ABF
  8
0
 10
11.66158563253725
 20
82.803354538029893
 30
0.0
 40
1.362893203459647
 50
236.83659696978879
 51
328.92476246501479
  0
ARC
  5
AC0
  8
0
 10
11.627008514990059
 20
82.954560441767697
 30
0.0
 40
1.474788120375222
 50
324.5826375405241
 51
326.7278814150514
  0
LINE
  5
AC1
  8
0
 10
11.762011334886051
 20
84.42315645109781
 30
0.0
 11
12.86004115099699
 21
82.145468037563205
 31
0.0
  0
ARC
  5
AC2
  8
0
 10
10.108303268881301
 20
82.953936564132562
 30
0.0
 40
1.4747881203752451
 50
59.033478020091017
 51
74.914569208851361
  0
ARC
  5
AC3
  8
0
 10
10.108303268881301
 20
82.953936564132562
 30
0.0
 40
1.474788120375248
 50
79.418218797720726
 51
95.299309986481589
  0
LINE
  5
AC4
  8
0
 10
9.9720939088049647
 20
84.42242116065637
 30
0.0
 11
8.8759357923332658
 21
82.143831384081224
 31
0.0
  0
ARC
  5
AC5
  8
0
 10
10.108303268881301
 20
82.953936564132562
 30
0.0
 40
1.4747881203882971
 50
213.31919230580661
 51
215.46443617943399
  0
ARC
  5
AC6
  8
0
 10
10.073850392443189
 20
82.802702303172055
 30
0.0
 40
1.3628932034589201
 50
211.12231125549931
 51
303.2104767507422
  0
ARC
  5
AC7
  8
0
 10
10.108303268881301
 20
82.953936564132562
 30
0.0
 40
1.4747881203752351
 50
298.86835182623832
 51
301.01359570076568
  0
LINE
  5
AC8
  8
0
 10
10.8671365344679
 20
84.218520319776729
 30
0.0
 11
10.868175249403819
 21
81.689976686123529
 31
0.0
  0
ARC
  5
AC9
  8
0
 10
13.941453436694839
 20
84.801824602233552
 30
0.0
 40
1.474788120375232
 50
136.1763351629491
 51
152.05742635170981
  0
ARC
  5
ACA
  8
0
 10
13.941453436694839
 20
84.801824602233552
 30
0.0
 40
1.474788120375238
 50
156.56107594057889
 51
172.442167129338
  0
LINE
  5
ACB
  8
0
 10
12.47947738091689
 20
84.995798859113293
 30
0.0
 11
14.45702002667093
 21
83.420089790013535
 31
0.0
  0
ARC
  5
ACC
  8
0
 10
13.941453436694839
 20
84.801824602233552
 30
0.0
 40
1.4747881203869351
 50
290.46204944866258
 51
292.60729332238469
  0
ARC
  5
ACD
  8
0
 10
14.081229452743971
 20
84.734582742343505
 30
0.0
 40
1.362893203456349
 50
288.26516839834147
 51
20.353333893647601
  0
ARC
  5
ACE
  8
0
 10
13.941453436694839
 20
84.801824602233552
 30
0.0
 40
1.474788120375242
 50
16.01120896909568
 51
18.156452843623509
  0
LINE
  5
ACF
  8
0
 10
12.121055283444351
 20
84.80197977379116
 30
0.0
 11
12.03047564117143
 21
84.729684025782788
 31
0.0
  0
ARC
  5
AD0
  8
0
 10
10.86628919867848
 20
86.281189722554814
 30
0.0
 40
1.939716474127047
 50
310.30686697001357
 51
332.59734960798698
  0
LINE
  5
AD1
  8
0
 10
12.63859952106152
 20
85.492890210203399
 30
0.0
 11
12.5883580327761
 21
85.388452958088877
 31
0.0
  0
ARC
  5
AD2
  8
0
 10
10.86628919867848
 20
86.281189722554814
 30
0.0
 40
1.939716474127045
 50
336.0211526842989
 51
358.3116353222731
  0
ARC
  5
AD3
  8
0
 10
10.86628919867848
 20
86.281189722554814
 30
0.0
 40
1.939716474127045
 50
1.735438398585174
 51
24.025921036558501
  0
ARC
  5
AD4
  8
0
 10
10.86628919867848
 20
86.281189722554814
 30
0.0
 40
1.9397164741270509
 50
27.449724112870619
 51
49.740206750844251
  0
ARC
  5
AD5
  8
0
 10
10.86628919867848
 20
86.281189722554814
 30
0.0
 40
1.939716474127031
 50
53.164009827156491
 51
75.454492465129633
  0
ARC
  5
AD6
  8
0
 10
10.86628919867848
 20
86.281189722554814
 30
0.0
 40
1.9397164741270401
 50
78.878295541442284
 51
101.168778179417
  0
ARC
  5
AD7
  8
0
 10
10.86628919867848
 20
86.281189722554814
 30
0.0
 40
1.939716474127043
 50
104.59258125572801
 51
126.8830638937017
  0
ARC
  5
AD8
  8
0
 10
10.86628919867848
 20
86.281189722554814
 30
0.0
 40
1.9397164741270401
 50
130.30686697001431
 51
152.59734960798789
  0
LINE
  5
AD9
  8
0
 10
9.0939788762947131
 20
87.069489234905518
 30
0.0
 11
9.1442203645805051
 21
87.173926487020395
 31
0.0
  0
ARC
  5
ADA
  8
0
 10
10.86628919867848
 20
86.281189722554814
 30
0.0
 40
1.939716474127039
 50
156.02115268430069
 51
178.3116353222731
  0
LINE
  5
ADB
  8
0
 10
8.9274624339852124
 20
86.222446412213174
 30
0.0
 11
8.9274148253572037
 21
86.338340089813983
 31
0.0
  0
ARC
  5
ADC
  8
0
 10
10.86628919867848
 20
86.281189722554814
 30
0.0
 40
1.9397164741270341
 50
181.73543839858519
 51
204.0259210365586
  0
LINE
  5
ADD
  8
0
 10
9.1449544105729927
 20
85.387038422573454
 30
0.0
 11
9.0946271345035115
 21
85.491434361468649
 31
0.0
  0
ARC
  5
ADE
  8
0
 10
10.86628919867848
 20
86.281189722554814
 30
0.0
 40
1.939716474127045
 50
207.44972411287139
 51
229.74020675084509
  0
LINE
  5
ADF
  8
0
 10
9.7033778527307533
 20
84.728728063940565
 30
0.0
 11
9.6127388434694581
 21
84.800949368100447
 31
0.0
  0
ARC
  5
AE0
  8
0
 10
10.86628919867848
 20
86.281189722554814
 30
0.0
 40
1.939716474127041
 50
233.1640098271574
 51
255.4544924651305
  0
LINE
  5
AE1
  8
0
 10
10.49213014912503
 20
84.377901776489324
 30
0.0
 11
10.379131574070479
 21
84.403644130888154
 31
0.0
  0
ARC
  5
AE2
  8
0
 10
10.86628919867848
 20
86.281189722554814
 30
0.0
 40
1.9397164741270561
 50
258.8782955414427
 51
281.16877817941571
  0
LINE
  5
AE3
  8
0
 10
11.354989234043019
 20
84.404045009050947
 30
0.0
 11
11.242011846821161
 21
84.378209824691098
 31
0.0
  0
ARC
  5
AE4
  8
0
 10
10.86628919867848
 20
86.281189722554814
 30
0.0
 40
1.939716474127043
 50
284.59258125572762
 51
306.88306389370149
  0
ARC
  5
AE5
  8
0
 10
8.7375344264636112
 20
88.948315398215982
 30
0.0
 40
1.4747881203752149
 50
290.46204944866298
 51
306.34314063742391
  0
LINE
  5
AE6
  8
0
 10
9.6115231139122557
 20
87.760399671318112
 30
0.0
 11
9.7021027561851554
 21
87.832695419326484
 31
0.0
  0
ARC
  5
AE7
  8
0
 10
8.7375344264636112
 20
88.948315398215982
 30
0.0
 40
1.47478812037522
 50
310.84679022629342
 51
326.72788141505231
  0
ARC
  5
AE8
  8
0
 10
8.7375344264636112
 20
88.948315398215982
 30
0.0
 40
1.4747881203840449
 50
84.747763734377457
 51
86.893007608299214
  0
ARC
  5
AE9
  8
0
 10
8.6407757371129037
 20
89.069544761082071
 30
0.0
 40
1.3628932034506991
 50
82.550882684024032
 51
174.63904817947019
  0
ARC
  5
AEA
  8
0
 10
8.7375344264636112
 20
88.948315398215982
 30
0.0
 40
1.4747881203752351
 50
170.29692325480991
 51
172.4421671293388
  0
LINE
  5
AEB
  8
0
 10
9.253101016439345
 20
87.566580585995965
 30
0.0
 11
7.2755583706856717
 21
89.142289655095723
 31
0.0
  0
ARC
  5
AEC
  8
0
 10
10.10556988236652
 20
89.607819003341589
 30
0.0
 40
1.474788120375242
 50
264.74776373437749
 51
280.62885492313728
  0
LINE
  5
AED
  8
0
 10
10.37758916331358
 20
88.15833443605834
 30
0.0
 11
10.490566550535441
 21
88.184169620418174
 31
0.0
  0
ARC
  5
AEE
  8
0
 10
10.10556988236652
 20
89.607819003341589
 30
0.0
 40
1.4747881203752371
 50
285.13250451200548
 51
301.01359570076568
  0
ARC
  5
AEF
  8
0
 10
10.10556988236652
 20
89.607819003341589
 30
0.0
 40
1.474788120388681
 50
59.03347802009214
 51
61.178721893693172
  0
ARC
  5
AF0
  8
0
 10
10.07099276481935
 20
89.759024907079365
 30
0.0
 40
1.3628932034596211
 50
56.836596969788111
 51
148.92476246501769
  0
ARC
  5
AF1
  8
0
 10
10.10556988236652
 20
89.607819003341589
 30
0.0
 40
1.4747881203752511
 50
144.58263754052609
 51
146.72788141505319
  0
LINE
  5
AF2
  8
0
 10
9.9705670624705363
 20
88.139222994011476
 30
0.0
 11
8.8725372463592436
 21
90.416911407546081
 31
0.0
  0
ARC
  5
AF3
  8
0
 10
11.624275128474929
 20
89.60844288097671
 30
0.0
 40
1.474788120375236
 50
239.03347802009219
 51
254.91456920885241
  0
LINE
  5
AF4
  8
0
 10
11.24044824823156
 20
88.184477668619934
 30
0.0
 11
11.35344682328647
 21
88.158735314221104
 31
0.0
  0
ARC
  5
AF5
  8
0
 10
11.624275128474929
 20
89.60844288097671
 30
0.0
 40
1.474788120375232
 50
259.41821879772158
 51
275.29930998648041
  0
ARC
  5
AF6
  8
0
 10
11.624275128474929
 20
89.60844288097671
 30
0.0
 40
1.474788120388292
 50
33.319192305805643
 51
35.464436179434252
  0
ARC
  5
AF7
  8
0
 10
11.658728004913771
 20
89.759677141937573
 30
0.0
 40
1.362893203458877
 50
31.122311255497479
 51
123.2104767507448
  0
ARC
  5
AF8
  8
0
 10
11.624275128474929
 20
89.60844288097671
 30
0.0
 40
1.474788120375246
 50
118.86835182623931
 51
121.0135957007671
  0
LINE
  5
AF9
  8
0
 10
10.8654418628887
 20
88.343859125332557
 30
0.0
 11
10.864403147952769
 21
90.872402758986098
 31
0.0
  0
ARC
  5
AFA
  8
0
 10
14.27878891074324
 20
86.282591562875666
 30
0.0
 40
1.474788120375244
 50
161.89062087723551
 51
177.77171206599499
  0
LINE
  5
AFB
  8
0
 10
12.805115963371019
 20
86.339933032896127
 30
0.0
 11
12.80516357199976
 21
86.22403935529529
 31
0.0
  0
ARC
  5
AFC
  8
0
 10
14.27878891074324
 20
86.282591562875666
 30
0.0
 40
1.4747881203752391
 50
182.27536165486379
 51
198.15645284362429
  0
LINE
  5
AFD
  8
0
 10
12.877431723001081
 20
85.823028691917671
 30
0.0
 11
15.342810624437361
 21
85.261387473191576
 31
0.0
  0
ARC
  5
AFE
  8
0
 10
14.27878891074324
 20
86.282591562875666
 30
0.0
 40
1.474788120388683
 50
316.17633516294768
 51
318.32157903655047
  0
ARC
  5
AFF
  8
0
 10
14.43389789927366
 20
86.282655280975774
 30
0.0
 40
1.3628932034596619
 50
313.97945411264573
 51
46.067619607871769
  0
ARC
  5
B00
  8
0
 10
14.27878891074324
 20
86.282591562875666
 30
0.0
 40
1.4747881203752251
 50
41.725494683381868
 51
43.870738557909434
  0
ARC
  5
B01
  8
0
 10
13.940236965254529
 20
87.763080871850065
 30
0.0
 40
1.474788120375222
 50
187.60490659152089
 51
203.4859977802812
  0
LINE
  5
B02
  8
0
 10
12.58762398678361
 20
87.175341022535804
 30
0.0
 11
12.63795126285309
 21
87.070945083640623
 31
0.0
  0
ARC
  5
B03
  8
0
 10
13.940236965254529
 20
87.763080871850065
 30
0.0
 40
1.4747881203752331
 50
207.98964736915011
 51
223.8707385579103
  0
LINE
  5
B04
  8
0
 10
12.87705462309853
 20
86.741002935816226
 30
0.0
 11
15.34197125289924
 21
87.304669498909874
 31
0.0
  0
ARC
  5
B05
  8
0
 10
13.940236965254529
 20
87.763080871850065
 30
0.0
 40
1.474788120383753
 50
341.89062087723482
 51
344.03586475117601
  0
ARC
  5
B06
  8
0
 10
14.079957688811859
 20
87.830437547796762
 30
0.0
 40
1.362893203450213
 50
339.69373982687961
 51
71.781905322333856
  0
ARC
  5
B07
  8
0
 10
13.940236965254529
 20
87.763080871850065
 30
0.0
 40
1.474788120375224
 50
67.439780397666723
 51
69.585024272194474
  0
ARC
  5
B08
  8
0
 10
12.99285196510003
 20
88.95006346450424
 30
0.0
 40
1.474788120375226
 50
213.3191923058057
 51
229.2002834945657
  0
LINE
  5
B09
  8
0
 10
12.02920054462585
 20
87.833651381168721
 30
0.0
 11
12.1198395538875
 21
87.761430077008839
 31
0.0
  0
ARC
  5
B0A
  8
0
 10
12.99285196510003
 20
88.95006346450424
 30
0.0
 40
1.4747881203752189
 50
233.7039330834352
 51
249.58502427219551
  0
LINE
  5
B0B
  8
0
 10
12.4784207704697
 20
87.567905533589226
 30
0.0
 11
14.454668159884861
 21
89.145238802765078
 31
0.0
  0
ARC
  5
B0C
  8
0
 10
12.99285196510003
 20
88.95006346450424
 30
0.0
 40
1.474788120384021
 50
7.6049065915201011
 51
9.7501504654420152
  0
ARC
  5
B0D
  8
0
 10
13.089511020811729
 20
89.071372282545966
 30
0.0
 40
1.3628932034507391
 50
5.4080255411672908
 51
97.496191036610384
  0
ARC
  5
B0E
  8
0
 10
12.99285196510003
 20
88.95006346450424
 30
0.0
 40
1.4747881203752551
 50
93.154066111952801
 51
95.299309986481589
  0
LINE
  5
B0F
  8
0
 10
11.76048448855199
 20
88.139958284452916
 30
0.0
 11
12.856642605023691
 21
90.418548061028034
 31
0.0
  0
LINE
  5
B19
  8
1
 10
10.86628919867848
 20
94.281189722554643
 30
0.0
 11
10.86628919867848
 21
78.281189722554643
 31
0.0
  0
LINE
  5
B1A
  8
1
 10
19.63979189057417
 20
86.281189722554814
 30
0.0
 11
2.0927865067821041
 21
86.281189722554814
 31
0.0
  0
LINE
  5
B25
  8
1
 10
42.72345506287251
 20
65.879136165945638
 30
0.0
 11
42.72345506287251
 21
7.8791361781462106
 31
0.0
  0
LINE
  5
B26
  8
1
 10
10.86628919867848
 20
65.879136165945638
 30
0.0
 11
10.86628919867848
 21
7.8791361781462106
 31
0.0
  0
LINE
  5
B3E
  8
3
 10
13.32478919874956
 20
49.496336178146493
 30
0.0
 11
13.68320805948826
 21
50.117136178146488
 31
0.0
  0
LINE
  5
B3F
  8
3
 10
8.4077891987495263
 20
49.496336178146493
 30
0.0
 11
8.0493703380108172
 21
50.117136178146488
 31
0.0
  0
LINE
  5
B40
  8
0
 10
7.8662891987495414
 20
49.496336178146493
 30
0.0
 11
13.86628919874954
 21
49.496336178146493
 31
0.0
  0
LINE
  5
B41
  8
0
 10
7.8662891987495414
 20
11.87913617814621
 30
0.0
 11
13.86628919874954
 21
11.87913617814621
 31
0.0
  0
LINE
  5
B42
  8
0
 10
12.86628919874954
 20
10.87913617814621
 30
0.0
 11
13.86628919874954
 21
11.87913617814621
 31
0.0
  0
LINE
  5
B43
  8
0
 10
7.8662891987495414
 20
11.87913617814621
 30
0.0
 11
8.8662891987495414
 21
10.87913617814621
 31
0.0
  0
LINE
  5
B44
  8
0
 10
13.866289198749509
 20
50.117136178146062
 30
0.0
 11
13.86628919874954
 21
11.87913617814621
 31
0.0
  0
LINE
  5
B45
  8
3
 10
13.32478919874956
 20
49.496336178146493
 30
0.0
 11
13.32478919874956
 21
11.33763617814621
 31
0.0
  0
LINE
  5
B46
  8
3
 10
8.4077891987495263
 20
49.496336178146493
 30
0.0
 11
8.4077891987495263
 21
11.33763617814621
 31
0.0
  0
LINE
  5
B47
  8
0
 10
7.866289198749512
 20
50.117136178146062
 30
0.0
 11
7.8662891987495414
 21
11.87913617814621
 31
0.0
  0
LINE
  5
B48
  8
0
 10
8.8662891987495414
 20
10.87913617814621
 30
0.0
 11
12.86628919874954
 21
10.87913617814621
 31
0.0
  0
ARC
  5
B49
  8
0
 10
14.628289198749631
 20
50.117136178146062
 30
0.0
 40
0.7620000000000146
 50
89.999999999999574
 51
180.0
  0
ARC
  5
B4A
  8
0
 10
7.1042891987493979
 20
50.117136178146062
 30
0.0
 40
0.7620000000000146
 50
0.0
 51
89.999999999999574
  0
LINE
  5
B4B
  8
0
 10
13.86628919874963
 20
50.117136178146488
 30
0.0
 11
7.8662891987493992
 21
50.117136178146062
 31
0.0
  0
LINE
  5
B4C
  8
3
 10
45.181955062943558
 20
49.496336178146493
 30
0.0
 11
45.54037392368226
 21
50.117136178146488
 31
0.0
  0
LINE
  5
B4D
  8
3
 10
40.264955062943521
 20
49.496336178146493
 30
0.0
 11
39.906536202204819
 21
50.117136178146488
 31
0.0
  0
LINE
  5
B4E
  8
0
 10
39.72345506294355
 20
49.496336178146493
 30
0.0
 11
45.723455062943543
 21
49.496336178146493
 31
0.0
  0
LINE
  5
B4F
  8
0
 10
39.72345506294355
 20
11.87913617814621
 30
0.0
 11
45.723455062943543
 21
11.87913617814621
 31
0.0
  0
LINE
  5
B50
  8
0
 10
44.723455062943543
 20
10.87913617814621
 30
0.0
 11
45.723455062943543
 21
11.87913617814621
 31
0.0
  0
LINE
  5
B51
  8
0
 10
39.72345506294355
 20
11.87913617814621
 30
0.0
 11
40.723455062943543
 21
10.87913617814621
 31
0.0
  0
LINE
  5
B52
  8
0
 10
45.723455062943508
 20
50.117136178146062
 30
0.0
 11
45.723455062943543
 21
11.87913617814621
 31
0.0
  0
LINE
  5
B53
  8
3
 10
45.181955062943558
 20
49.496336178146493
 30
0.0
 11
45.181955062943558
 21
11.33763617814621
 31
0.0
  0
LINE
  5
B54
  8
3
 10
40.264955062943521
 20
49.496336178146493
 30
0.0
 11
40.264955062943521
 21
11.33763617814621
 31
0.0
  0
LINE
  5
B55
  8
0
 10
39.723455062943522
 20
50.117136178146062
 30
0.0
 11
39.72345506294355
 21
11.87913617814621
 31
0.0
  0
LINE
  5
B56
  8
0
 10
40.723455062943543
 20
10.87913617814621
 30
0.0
 11
44.723455062943543
 21
10.87913617814621
 31
0.0
  0
ARC
  5
B57
  8
0
 10
46.485455062943629
 20
50.117136178146062
 30
0.0
 40
0.7620000000000146
 50
89.999999999999574
 51
180.0
  0
ARC
  5
B58
  8
0
 10
38.961455062943401
 20
50.117136178146062
 30
0.0
 40
0.7620000000000146
 50
0.0
 51
89.999999999999574
  0
LINE
  5
B59
  8
0
 10
45.723455062943628
 20
50.117136178146488
 30
0.0
 11
39.723455062943401
 21
50.117136178146062
 31
0.0
  0
TEXT
  5
C18
  8
0
 62
     3
 10
0.0
 20
0.0
 30
0.0
 40
5.0
  1
MBUH-06040-35UR
  7
STANDARD1
  0
ENDSEC
  0
EOF
