  0
SECTION
  2
HEADER
  9
$ACADVER
  1
AC1009
  9
$INSBASE
 10
0.0
 20
0.0
 30
0.0
  9
$EXTMIN
 10
0.0
 20
-2.960436562073669
 30
0.0
  9
$EXTMAX
 10
294.92813508582861
 20
287.84190509881631
 30
0.0
  9
$LIMMIN
 10
0.0
 20
0.0
  9
$LIMMAX
 10
192.5
 20
135.0
  9
$ORTHOMODE
 70
     0
  9
$REGENMODE
 70
     1
  9
$FILLMODE
 70
     1
  9
$QTEXTMODE
 70
     0
  9
$MIRRTEXT
 70
     0
  9
$DRAGMODE
 70
     2
  9
$LTSCALE
 40
5.0
  9
$OSMODE
 70
  3071
  9
$ATTMODE
 70
     1
  9
$TEXTSIZE
 40
0.2
  9
$TRACEWID
 40
0.05
  9
$TEXTSTYLE
  7
STANDARD
  9
$CLAYER
  8
0
  9
$CELTYPE
  6
BYLAYER
  9
$CECOLOR
 62
   256
  9
$DIMSCALE
 40
0.5
  9
$DIMASZ
 40
3.0
  9
$DIMEXO
 40
1.0
  9
$DIMDLI
 40
6.0
  9
$DIMRND
 40
0.0
  9
$DIMDLE
 40
0.0
  9
$DIMEXE
 40
1.0
  9
$DIMTP
 40
495.0
  9
$DIMTM
 40
0.0
  9
$DIMTXT
 40
3.0
  9
$DIMCEN
 40
0.0
  9
$DIMTSZ
 40
0.0
  9
$DIMTOL
 70
     0
  9
$DIMLIM
 70
     0
  9
$DIMTIH
 70
     0
  9
$DIMTOH
 70
     0
  9
$DIMSE1
 70
     0
  9
$DIMSE2
 70
     0
  9
$DIMTAD
 70
     1
  9
$DIMZIN
 70
     0
  9
$DIMBLK
  1

  9
$DIMASO
 70
     0
  9
$DIMSHO
 70
     0
  9
$DIMPOST
  1

  9
$DIMAPOST
  1

  9
$DIMALT
 70
     0
  9
$DIMALTD
 70
     2
  9
$DIMALTF
 40
25.399999999999999
  9
$DIMLFAC
 40
1.0
  9
$DIMTOFL
 70
     1
  9
$DIMTVP
 40
0.0
  9
$DIMTIX
 70
     1
  9
$DIMSOXD
 70
     0
  9
$DIMSAH
 70
     0
  9
$DIMBLK1
  1

  9
$DIMBLK2
  1

  9
$DIMSTYLE
  2
STANDARD
  9
$DIMCLRD
 70
     0
  9
$DIMCLRE
 70
     0
  9
$DIMCLRT
 70
     4
  9
$DIMTFAC
 40
1.0
  9
$DIMGAP
 40
1.0
  9
$LUNITS
 70
     2
  9
$LUPREC
 70
     4
  9
$SKETCHINC
 40
0.1
  9
$FILLETRAD
 40
0.0
  9
$AUNITS
 70
     0
  9
$AUPREC
 70
     0
  9
$MENU
  1
E:\r13\win\SUPPORT\ACAD
  9
$ELEVATION
 40
0.0
  9
$PELEVATION
 40
0.0
  9
$THICKNESS
 40
0.0
  9
$LIMCHECK
 70
     0
  9
$BLIPMODE
 70
     0
  9
$CHAMFERA
 40
0.5
  9
$CHAMFERB
 40
0.5
  9
$SKPOLY
 70
     0
  9
$TDCREATE
 40
2450647.4165519681
  9
$TDUPDATE
 40
2456597.6353836688
  9
$TDINDWG
 40
0.0124676389
  9
$TDUSRTIMER
 40
0.0124676389
  9
$USRTIMER
 70
     1
  9
$ANGBASE
 50
0.0
  9
$ANGDIR
 70
     0
  9
$PDMODE
 70
     0
  9
$PDSIZE
 40
0.0
  9
$PLINEWID
 40
0.0
  9
$COORDS
 70
     1
  9
$SPLFRAME
 70
     0
  9
$SPLINETYPE
 70
     6
  9
$SPLINESEGS
 70
     8
  9
$ATTDIA
 70
     0
  9
$ATTREQ
 70
     1
  9
$HANDLING
 70
     1
  9
$HANDSEED
  5
3BB1
  9
$SURFTAB1
 70
     6
  9
$SURFTAB2
 70
     6
  9
$SURFTYPE
 70
     6
  9
$SURFU
 70
     6
  9
$SURFV
 70
     6
  9
$UCSNAME
  2

  9
$UCSORG
 10
0.0
 20
0.0
 30
0.0
  9
$UCSXDIR
 10
1.0
 20
0.0
 30
0.0
  9
$UCSYDIR
 10
0.0
 20
1.0
 30
0.0
  9
$PUCSNAME
  2

  9
$PUCSORG
 10
0.0
 20
0.0
 30
0.0
  9
$PUCSXDIR
 10
1.0
 20
0.0
 30
0.0
  9
$PUCSYDIR
 10
0.0
 20
1.0
 30
0.0
  9
$USERI1
 70
     3
  9
$USERI2
 70
     1
  9
$USERI3
 70
     0
  9
$USERI4
 70
     0
  9
$USERI5
 70
     0
  9
$USERR1
 40
0.5
  9
$USERR2
 40
3.0
  9
$USERR3
 40
3.0
  9
$USERR4
 40
3.0
  9
$USERR5
 40
10.0
  9
$WORLDVIEW
 70
     1
  9
$SHADEDGE
 70
     3
  9
$SHADEDIF
 70
    70
  9
$TILEMODE
 70
     1
  9
$MAXACTVP
 70
    16
  9
$PLIMCHECK
 70
     0
  9
$PEXTMIN
 10
1.0000000000000000E+020
 20
1.0000000000000000E+020
 30
1.0000000000000000E+020
  9
$PEXTMAX
 10
-1.0000000000000000E+020
 20
-1.0000000000000000E+020
 30
-1.0000000000000000E+020
  9
$PLIMMIN
 10
0.0
 20
0.0
  9
$PLIMMAX
 10
12.0
 20
9.0
  9
$UNITMODE
 70
     0
  9
$VISRETAIN
 70
     0
  9
$PLINEGEN
 70
     0
  9
$PSLTSCALE
 70
     0
  0
ENDSEC
  0
SECTION
  2
TABLES
  0
TABLE
  2
VPORT
 70
     1
  0
VPORT
  2
*ACTIVE
 70
     0
 10
0.0
 20
0.0
 11
1.0
 21
1.0
 12
147.46406822959739
 22
143.06819080621219
 13
0.0
 23
0.0
 14
2.5
 24
2.5
 15
10.0
 25
10.0
 16
0.0
 26
0.0
 36
1.0
 17
0.0
 27
0.0
 37
0.0
 40
295.42611565354838
 41
2.304913294797688
 42
50.0
 43
0.0
 44
0.0
 50
0.0
 51
0.0
 71
     0
 72
   100
 73
     1
 74
     0
 75
     0
 76
     0
 77
     0
 78
     0
  0
ENDTAB
  0
TABLE
  2
LTYPE
 70
     4
  0
LTYPE
  2
CONTINUOUS
 70
     0
  3
Solid Line
 72
    65
 73
     0
 40
0.0
  0
LTYPE
  2
CENTER
 70
     0
  3
____ _ ____ _ ____ _ ____ _ ____ _ ____ _ ____
 72
    65
 73
     4
 40
2.0
 49
1.25
 49
-0.25
 49
0.25
 49
-0.25
  0
LTYPE
  2
HIDDEN
 70
     0
  3
_ _ _ _ _ _ _ _ _ _ _ _ _ _ _ _ _ _ _ _ _ _ _
 72
    65
 73
     2
 40
0.375
 49
0.25
 49
-0.125
  0
LTYPE
  2
PHANTOM2
 70
     0
  3
___ _ _ ___ _ _ ___ _ _ ___ _ _
 72
    65
 73
     6
 40
1.25
 49
0.625
 49
-0.125
 49
0.125
 49
-0.125
 49
0.125
 49
-0.125
  0
ENDTAB
  0
TABLE
  2
LAYER
 70
     4
  0
LAYER
  2
0
 70
     0
 62
     7
  6
CONTINUOUS
  0
LAYER
  2
1
 70
     0
 62
     1
  6
CENTER
  0
LAYER
  2
2
 70
     0
 62
     2
  6
HIDDEN
  0
LAYER
  2
3
 70
     0
 62
     3
  6
CONTINUOUS
  0
ENDTAB
  0
TABLE
  2
STYLE
 70
     3
  0
STYLE
  2
STANDARD
 70
     0
 40
0.0
 41
1.0
 50
0.0
 71
     0
 42
0.2
  3
SIMPLEX
  4
BIGFONT
  0
STYLE
  2
07500
 70
     0
 40
0.0
 41
0.75
 50
0.0
 71
     0
 42
0.2
  3
simplex.shx
  4
BIGFONT.shx
  0
STYLE
  2
STANDARD1
 70
     0
 40
0.0
 41
1.0
 50
0.0
 71
     0
 42
3.0
  3
txt
  4

  0
ENDTAB
  0
TABLE
  2
VIEW
 70
     0
  0
ENDTAB
  0
TABLE
  2
UCS
 70
     0
  0
ENDTAB
  0
TABLE
  2
APPID
 70
     3
  0
APPID
  2
ACAD
 70
     0
  0
APPID
  2
ACAD_MLEADERVER
 70
     0
  0
APPID
  2
ACAD_NAV_VCDISPLAY
 70
     0
  0
ENDTAB
  0
TABLE
  2
DIMSTYLE
 70
     1
  0
DIMSTYLE
  2
STANDARD
 70
     0
  3

  4

  5

  6

  7

 40
1.0
 41
0.18
 42
0.0625
 43
0.38
 44
0.18
 45
0.0
 46
0.0
 47
0.0
 48
0.0
140
0.18
141
0.09
142
0.0
143
25.399999999999999
144
1.0
145
0.0
146
1.0
147
0.09
 71
     0
 72
     0
 73
     1
 74
     1
 75
     0
 76
     0
 77
     0
 78
     0
170
     0
171
     2
172
     0
173
     0
174
     0
175
     0
176
     0
177
     0
178
     0
  0
ENDTAB
  0
ENDSEC
  0
SECTION
  2
BLOCKS
  0
BLOCK
  8
0
  2
$MODEL_SPACE
 70
     0
 10
0.0
 20
0.0
 30
0.0
  3
$MODEL_SPACE
  1

  0
ENDBLK
  5
329
  8
0
  0
BLOCK
 67
     1
  8
0
  2
$PAPER_SPACE
 70
     0
 10
0.0
 20
0.0
 30
0.0
  3
$PAPER_SPACE
  1

  0
ENDBLK
  5
327
 67
     1
  8
0
  0
ENDSEC
  0
SECTION
  2
ENTITIES
  0
LINE
  5
370F
  8
0
 10
195.2690163516379
 20
250.3419050988162
 30
0.0
 11
197.57841742793011
 21
251.1419050988163
 31
0.0
  0
LINE
  5
3710
  8
0
 10
194.5473285152884
 20
254.2919050988157
 30
0.0
 11
197.5784174279238
 21
255.3419050988162
 31
0.0
  0
LINE
  5
3711
  8
0
 10
194.5473285152884
 20
254.2919050988157
 30
0.0
 11
197.5784174279238
 21
253.2419050988151
 31
0.0
  0
LINE
  5
3712
  8
0
 10
194.5473285152884
 20
252.1919050988146
 30
0.0
 11
197.5784174279238
 21
251.14190509881411
 31
0.0
  0
LINE
  5
3713
  8
0
 10
194.5473285152884
 20
252.1919050988146
 30
0.0
 11
197.5784174279238
 21
253.2419050988151
 31
0.0
  0
LINE
  5
3714
  8
0
 10
194.54732851529479
 20
256.3919050988145
 30
0.0
 11
197.57841742793011
 21
257.44190509881508
 31
0.0
  0
LINE
  5
3715
  8
0
 10
194.54732851529479
 20
256.3919050988145
 30
0.0
 11
197.57841742793011
 21
255.34190509881401
 31
0.0
  0
LINE
  5
3716
  8
0
 10
194.54732851529479
 20
258.49190509881561
 30
0.0
 11
197.57841742793011
 21
257.44190509881508
 31
0.0
  0
LINE
  5
3717
  8
0
 10
194.54732851529479
 20
258.49190509881561
 30
0.0
 11
197.57841742793011
 21
259.54190509881607
 31
0.0
  0
LINE
  5
3718
  8
0
 10
195.2690163516379
 20
260.3419050988162
 30
0.0
 11
197.57841742793011
 21
259.54190509881607
 31
0.0
  0
LINE
  5
3719
  8
0
 10
197.57841742792331
 20
255.3419050988164
 30
0.0
 11
134.5784174279236
 21
255.34190509881699
 31
0.0
  0
LINE
  5
371A
  8
0
 10
194.5473285152882
 20
256.39190509881678
 30
0.0
 11
137.60950634055891
 21
256.3919050988186
 31
0.0
  0
LINE
  5
371B
  8
0
 10
194.54732851528269
 20
252.19190509881659
 30
0.0
 11
137.60950634055891
 21
252.19190509881659
 31
0.0
  0
LINE
  5
371C
  8
0
 10
197.57841742792939
 20
259.54190509881619
 30
0.0
 11
134.5784174279236
 21
259.54190509881607
 31
0.0
  0
LINE
  5
371D
  8
0
 10
194.54732851529181
 20
258.49190509881657
 30
0.0
 11
137.60950634055891
 21
258.49190509882112
 31
0.0
  0
LINE
  5
371E
  8
0
 10
197.5784174279263
 20
257.44190509881628
 30
0.0
 11
134.5784174279236
 21
257.44190509881628
 31
0.0
  0
LINE
  5
371F
  8
0
 10
197.57841742791601
 20
251.14190509881669
 30
0.0
 11
134.5784174279236
 21
251.14190509881669
 31
0.0
  0
LINE
  5
3720
  8
0
 10
194.54732851528431
 20
254.2919050988169
 30
0.0
 11
137.60950634055891
 21
254.29190509881829
 31
0.0
  0
LINE
  5
3721
  8
0
 10
197.57841742791919
 20
253.24190509881669
 30
0.0
 11
134.5784174279236
 21
253.24190509881689
 31
0.0
  0
LINE
  5
3722
  8
0
 10
136.88781850420941
 20
260.34190509881631
 30
0.0
 11
134.57841742791729
 21
259.54190509881619
 31
0.0
  0
LINE
  5
3723
  8
0
 10
137.60950634055271
 20
258.49190509881572
 30
0.0
 11
134.57841742791729
 21
259.54190509881619
 31
0.0
  0
LINE
  5
3724
  8
0
 10
137.60950634055271
 20
258.49190509881572
 30
0.0
 11
134.57841742791729
 21
257.4419050988152
 31
0.0
  0
LINE
  5
3725
  8
0
 10
137.60950634055271
 20
256.39190509881468
 30
0.0
 11
134.57841742791729
 21
255.34190509881421
 31
0.0
  0
LINE
  5
3726
  8
0
 10
137.60950634055271
 20
256.39190509881468
 30
0.0
 11
134.57841742791729
 21
257.4419050988152
 31
0.0
  0
LINE
  5
3727
  8
0
 10
137.60950634055891
 20
252.19190509881469
 30
0.0
 11
134.5784174279236
 21
253.24190509881529
 31
0.0
  0
LINE
  5
3728
  8
0
 10
137.60950634055891
 20
252.19190509881469
 30
0.0
 11
134.5784174279236
 21
251.14190509881419
 31
0.0
  0
LINE
  5
3729
  8
0
 10
137.60950634055891
 20
254.29190509881579
 30
0.0
 11
134.5784174279236
 21
253.24190509881529
 31
0.0
  0
LINE
  5
372A
  8
0
 10
137.60950634055891
 20
254.29190509881579
 30
0.0
 11
134.5784174279236
 21
255.34190509881631
 31
0.0
  0
LINE
  5
372B
  8
0
 10
136.88781850420941
 20
250.34190509881631
 30
0.0
 11
134.57841742791729
 21
251.14190509881641
 31
0.0
  0
LINE
  5
372C
  8
0
 10
197.57841742791899
 20
63.542469783005913
 30
0.0
 11
134.57841742792331
 21
63.542469783006027
 31
0.0
  0
LINE
  5
372D
  8
0
 10
194.54732851528391
 20
64.592469783006095
 30
0.0
 11
137.60950634055871
 21
64.592469783007459
 31
0.0
  0
LINE
  5
372E
  8
0
 10
195.26901635163759
 20
70.642469783005367
 30
0.0
 11
197.57841742792971
 21
69.842469783005299
 31
0.0
  0
LINE
  5
372F
  8
0
 10
194.54732851529431
 20
68.792469783004776
 30
0.0
 11
197.57841742792971
 21
69.842469783005299
 31
0.0
  0
LINE
  5
3730
  8
0
 10
194.54732851529431
 20
68.792469783004776
 30
0.0
 11
197.57841742792971
 21
67.742469783004253
 31
0.0
  0
LINE
  5
3731
  8
0
 10
194.54732851529431
 20
66.69246978300373
 30
0.0
 11
197.57841742792971
 21
65.642469783003207
 31
0.0
  0
LINE
  5
3732
  8
0
 10
194.54732851529431
 20
66.69246978300373
 30
0.0
 11
197.57841742792971
 21
67.742469783004253
 31
0.0
  0
LINE
  5
3733
  8
0
 10
194.5473285152882
 20
62.492469783003799
 30
0.0
 11
197.57841742792351
 21
63.542469783004321
 31
0.0
  0
LINE
  5
3734
  8
0
 10
194.5473285152882
 20
62.492469783003799
 30
0.0
 11
197.57841742792351
 21
61.442469783003268
 31
0.0
  0
LINE
  5
3735
  8
0
 10
194.5473285152882
 20
64.592469783004844
 30
0.0
 11
197.57841742792351
 21
63.542469783004321
 31
0.0
  0
LINE
  5
3736
  8
0
 10
194.5473285152882
 20
64.592469783004844
 30
0.0
 11
197.57841742792351
 21
65.642469783005367
 31
0.0
  0
LINE
  5
3737
  8
0
 10
195.26901635163759
 20
60.642469783005367
 30
0.0
 11
197.57841742792971
 21
61.442469783005428
 31
0.0
  0
LINE
  5
3738
  8
0
 10
197.57841742791581
 20
61.44246978300589
 30
0.0
 11
134.57841742792331
 21
61.44246978300589
 31
0.0
  0
LINE
  5
3739
  8
0
 10
197.5784174279261
 20
67.742469783005504
 30
0.0
 11
134.57841742792331
 21
67.742469783005504
 31
0.0
  0
LINE
  5
373A
  8
0
 10
194.54732851529161
 20
68.792469783005799
 30
0.0
 11
137.60950634055871
 21
68.792469783010233
 31
0.0
  0
LINE
  5
373B
  8
0
 10
197.5784174279292
 20
69.842469783005413
 30
0.0
 11
134.57841742792331
 21
69.842469783005299
 31
0.0
  0
LINE
  5
373C
  8
0
 10
194.54732851528249
 20
62.492469783005731
 30
0.0
 11
137.60950634055871
 21
62.492469783005731
 31
0.0
  0
LINE
  5
373D
  8
0
 10
194.54732851528789
 20
66.692469783006004
 30
0.0
 11
137.60950634055871
 21
66.692469783007823
 31
0.0
  0
LINE
  5
373E
  8
0
 10
197.57841742792311
 20
65.642469783005595
 30
0.0
 11
134.57841742792331
 21
65.642469783006163
 31
0.0
  0
LINE
  5
373F
  8
0
 10
136.88781850420921
 20
60.642469783005481
 30
0.0
 11
134.57841742791709
 21
61.442469783005549
 31
0.0
  0
LINE
  5
3740
  8
0
 10
137.60950634055871
 20
64.592469783004944
 30
0.0
 11
134.57841742792331
 21
65.642469783005481
 31
0.0
  0
LINE
  5
3741
  8
0
 10
137.60950634055871
 20
64.592469783004944
 30
0.0
 11
134.57841742792331
 21
63.542469783004442
 31
0.0
  0
LINE
  5
3742
  8
0
 10
137.60950634055871
 20
62.492469783003912
 30
0.0
 11
134.57841742792331
 21
61.442469783003389
 31
0.0
  0
LINE
  5
3743
  8
0
 10
137.60950634055871
 20
62.492469783003912
 30
0.0
 11
134.57841742792331
 21
63.542469783004442
 31
0.0
  0
LINE
  5
3744
  8
0
 10
137.6095063405524
 20
66.692469783003844
 30
0.0
 11
134.57841742791709
 21
67.742469783004367
 31
0.0
  0
LINE
  5
3745
  8
0
 10
137.6095063405524
 20
66.692469783003844
 30
0.0
 11
134.57841742791709
 21
65.642469783003321
 31
0.0
  0
LINE
  5
3746
  8
0
 10
137.6095063405524
 20
68.79246978300489
 30
0.0
 11
134.57841742791709
 21
67.742469783004367
 31
0.0
  0
LINE
  5
3747
  8
0
 10
137.6095063405524
 20
68.79246978300489
 30
0.0
 11
134.57841742791709
 21
69.842469783005413
 31
0.0
  0
LINE
  5
3748
  8
0
 10
136.88781850420921
 20
70.642469783005481
 30
0.0
 11
134.57841742791709
 21
69.842469783005413
 31
0.0
  0
LINE
  5
3749
  8
0
 10
71.678699770017602
 20
193.8341654576094
 30
0.0
 11
71.678699770017033
 21
123.6861078118898
 31
0.0
  0
LINE
  5
374A
  8
0
 10
73.778699770017511
 20
193.83416545760599
 30
0.0
 11
73.77869977001717
 21
123.6861078118898
 31
0.0
  0
LINE
  5
374B
  8
0
 10
69.578699770017693
 20
193.8341654576123
 30
0.0
 11
69.578699770017693
 21
123.6861078118898
 31
0.0
  0
LINE
  5
374C
  8
0
 10
75.878699770017192
 20
193.83416545760269
 30
0.0
 11
75.878699770017306
 21
123.6861078118898
 31
0.0
  0
LINE
  5
374D
  8
2
 10
264.92813508582913
 20
154.49218744091081
 30
0.0
 11
267.42813508582913
 21
154.49218744091081
 31
0.0
  0
LINE
  5
374E
  8
2
 10
264.92813508582873
 20
166.4921874409109
 30
0.0
 11
267.42813508582861
 21
166.4921874409109
 31
0.0
  0
LINE
  5
374F
  8
2
 10
70.228699770018125
 20
154.49218744091081
 30
0.0
 11
67.728699770018125
 21
154.49218744091081
 31
0.0
  0
LINE
  5
3750
  8
2
 10
70.228699770018125
 20
166.4921874409109
 30
0.0
 11
67.728699770018125
 21
166.49218744091101
 31
0.0
  0
LINE
  5
375D
  8
0
 10
77.728699770018238
 20
122.9644199755402
 30
0.0
 11
76.92869977001817
 21
120.65501889924811
 31
0.0
  0
LINE
  5
375E
  8
0
 10
73.778699770018761
 20
123.6861078118898
 30
0.0
 11
72.728699770018238
 21
120.6550188992544
 31
0.0
  0
LINE
  5
375F
  8
0
 10
73.778699770018761
 20
123.6861078118898
 30
0.0
 11
74.828699770019284
 21
120.6550188992544
 31
0.0
  0
LINE
  5
3760
  8
0
 10
75.878699770019807
 20
123.6861078118898
 30
0.0
 11
76.92869977002033
 21
120.6550188992544
 31
0.0
  0
LINE
  5
3761
  8
0
 10
75.878699770019807
 20
123.6861078118898
 30
0.0
 11
74.828699770019284
 21
120.6550188992544
 31
0.0
  0
LINE
  5
3762
  8
0
 10
71.678699770019875
 20
123.6861078118835
 30
0.0
 11
70.628699770019352
 21
120.65501889924811
 31
0.0
  0
LINE
  5
3763
  8
0
 10
71.678699770019875
 20
123.6861078118835
 30
0.0
 11
72.728699770020398
 21
120.65501889924811
 31
0.0
  0
LINE
  5
3764
  8
0
 10
69.578699770018829
 20
123.6861078118835
 30
0.0
 11
70.628699770019352
 21
120.65501889924811
 31
0.0
  0
LINE
  5
3765
  8
0
 10
69.578699770018829
 20
123.6861078118835
 30
0.0
 11
68.528699770018306
 21
120.65501889924811
 31
0.0
  0
LINE
  5
3766
  8
0
 10
67.728699770018238
 20
122.9644199755402
 30
0.0
 11
68.528699770018306
 21
120.65501889924811
 31
0.0
  0
LINE
  5
3767
  8
0
 10
67.728699770018125
 20
141.15095345499671
 30
0.0
 11
68.52869977001842
 21
140.2849280512126
 31
0.0
  0
LINE
  5
3768
  8
0
 10
69.57869977001485
 20
141.42158639367489
 30
0.0
 11
68.52869977001842
 21
140.2849280512126
 31
0.0
  0
LINE
  5
3769
  8
0
 10
69.578699770014396
 20
141.42158639367489
 30
0.0
 11
70.628699770010826
 21
140.2849280512126
 31
0.0
  0
LINE
  5
376A
  8
0
 10
71.678699770006801
 20
141.42158639367489
 30
0.0
 11
72.728699770003232
 21
140.2849280512126
 31
0.0
  0
LINE
  5
376B
  8
0
 10
71.678699770007256
 20
141.42158639367489
 30
0.0
 11
70.628699770010826
 21
140.2849280512126
 31
0.0
  0
LINE
  5
376C
  8
0
 10
75.878699770006506
 20
141.4215863936592
 30
0.0
 11
74.828699770010076
 21
140.28492805119691
 31
0.0
  0
LINE
  5
376D
  8
0
 10
75.878699770006051
 20
141.4215863936592
 30
0.0
 11
76.928699770002481
 21
140.28492805119691
 31
0.0
  0
LINE
  5
376E
  8
0
 10
73.778699770013645
 20
141.4215863936592
 30
0.0
 11
74.828699770010076
 21
140.28492805119691
 31
0.0
  0
LINE
  5
376F
  8
0
 10
73.7786997700141
 20
141.4215863936592
 30
0.0
 11
72.72869977001767
 21
140.28492805119691
 31
0.0
  0
LINE
  5
3770
  8
0
 10
76.928699769988043
 20
140.28492805121249
 30
0.0
 11
77.728699770018011
 21
141.15095345499671
 31
0.0
  0
LINE
  5
3771
  8
0
 10
76.928699770017943
 20
196.86525437025111
 30
0.0
 11
76.928699770017829
 21
120.6550188992544
 31
0.0
  0
LINE
  5
3772
  8
0
 10
70.628699770018102
 20
196.86525437025119
 30
0.0
 11
70.628699770018216
 21
120.6550188992544
 31
0.0
  0
LINE
  5
3773
  8
0
 10
68.528699770018306
 20
196.86525437025119
 30
0.0
 11
68.52869977001842
 21
120.6550188992544
 31
0.0
  0
LINE
  5
3774
  8
0
 10
74.828699770018034
 20
196.86525437025111
 30
0.0
 11
74.828699770017693
 21
120.6550188992544
 31
0.0
  0
LINE
  5
3775
  8
0
 10
72.728699770018238
 20
196.86525437025111
 30
0.0
 11
72.728699770017556
 21
120.6550188992544
 31
0.0
  0
LINE
  5
3776
  8
0
 10
67.728699770018238
 20
194.5558532939591
 30
0.0
 11
68.528699770018306
 21
196.86525437025119
 31
0.0
  0
LINE
  5
3777
  8
0
 10
69.578699770018829
 20
193.8341654576158
 30
0.0
 11
68.528699770018306
 21
196.86525437025119
 31
0.0
  0
LINE
  5
3778
  8
0
 10
69.578699770018829
 20
193.8341654576158
 30
0.0
 11
70.628699770019352
 21
196.86525437025119
 31
0.0
  0
LINE
  5
3779
  8
0
 10
71.678699770019875
 20
193.8341654576158
 30
0.0
 11
72.728699770020398
 21
196.86525437025119
 31
0.0
  0
LINE
  5
377A
  8
0
 10
71.678699770019875
 20
193.8341654576158
 30
0.0
 11
70.628699770019352
 21
196.86525437025119
 31
0.0
  0
LINE
  5
377B
  8
0
 10
75.878699770019807
 20
193.8341654576096
 30
0.0
 11
74.828699770019284
 21
196.86525437024491
 31
0.0
  0
LINE
  5
377C
  8
0
 10
75.878699770019807
 20
193.8341654576096
 30
0.0
 11
76.92869977002033
 21
196.86525437024491
 31
0.0
  0
LINE
  5
377D
  8
0
 10
73.778699770018761
 20
193.8341654576096
 30
0.0
 11
74.828699770019284
 21
196.86525437024491
 31
0.0
  0
LINE
  5
377E
  8
0
 10
73.778699770018761
 20
193.8341654576096
 30
0.0
 11
72.728699770018238
 21
196.86525437024491
 31
0.0
  0
LINE
  5
377F
  8
0
 10
77.728699770018238
 20
194.5558532939591
 30
0.0
 11
76.92869977001817
 21
196.86525437025119
 31
0.0
  0
LINE
  5
3780
  8
0
 10
67.728699770018125
 20
177.5240203519281
 30
0.0
 11
68.528699770018306
 21
178.39004575571261
 31
0.0
  0
LINE
  5
3781
  8
0
 10
77.728699770018125
 20
177.5240203519281
 30
0.0
 11
76.928699770017943
 21
178.39004575571249
 31
0.0
  0
LINE
  5
3782
  8
0
 10
69.578699770017693
 20
177.25338741324629
 30
0.0
 11
68.528699770018306
 21
178.39004575571261
 31
0.0
  0
LINE
  5
3783
  8
0
 10
69.578699770017906
 20
177.25338741324629
 30
0.0
 11
70.628699770017306
 21
178.39004575571261
 31
0.0
  0
LINE
  5
3784
  8
0
 10
71.67869977001692
 20
177.2533874132464
 30
0.0
 11
72.728699770016306
 21
178.39004575571261
 31
0.0
  0
LINE
  5
3785
  8
0
 10
71.678699770016692
 20
177.2533874132464
 30
0.0
 11
70.628699770017306
 21
178.39004575571261
 31
0.0
  0
LINE
  5
3786
  8
0
 10
75.87869977001651
 20
177.2533874132464
 30
0.0
 11
74.828699770017124
 21
178.39004575571261
 31
0.0
  0
LINE
  5
3787
  8
0
 10
75.878699770016851
 20
177.2533874132464
 30
0.0
 11
76.928699770016237
 21
178.39004575571269
 31
0.0
  0
LINE
  5
3788
  8
0
 10
73.778699770017738
 20
177.25338741324629
 30
0.0
 11
74.828699770017124
 21
178.39004575571261
 31
0.0
  0
LINE
  5
3789
  8
0
 10
73.778699770017511
 20
177.25338741324629
 30
0.0
 11
72.728699770018125
 21
178.39004575571261
 31
0.0
  0
LINE
  5
378A
  8
0
 10
266.62813508579848
 20
137.3981767062229
 30
0.0
 11
267.42813508582861
 21
138.26420211000709
 31
0.0
  0
LINE
  5
378B
  8
0
 10
263.47813508582482
 20
138.53483504866961
 30
0.0
 11
262.42813508582822
 21
137.39817670620729
 31
0.0
  0
LINE
  5
378C
  8
0
 10
263.47813508582431
 20
138.53483504866961
 30
0.0
 11
264.52813508582062
 21
137.39817670620729
 31
0.0
  0
LINE
  5
378D
  8
0
 10
265.57813508581648
 20
138.53483504866961
 30
0.0
 11
266.62813508581303
 21
137.39817670620729
 31
0.0
  0
LINE
  5
378E
  8
0
 10
265.57813508581688
 20
138.53483504866961
 30
0.0
 11
264.52813508582062
 21
137.39817670620729
 31
0.0
  0
LINE
  5
378F
  8
0
 10
261.3781350858178
 20
138.5348350486853
 30
0.0
 11
260.32813508582149
 21
137.39817670622301
 31
0.0
  0
LINE
  5
3790
  8
0
 10
261.37813508581729
 20
138.5348350486853
 30
0.0
 11
262.42813508581372
 21
137.39817670622301
 31
0.0
  0
LINE
  5
3791
  8
0
 10
259.278135085825
 20
138.5348350486853
 30
0.0
 11
260.32813508582149
 21
137.39817670622301
 31
0.0
  0
LINE
  5
3792
  8
0
 10
259.2781350858254
 20
138.5348350486853
 30
0.0
 11
258.22813508582891
 21
137.39817670622301
 31
0.0
  0
LINE
  5
3793
  8
0
 10
257.42813508582873
 20
138.26420211000709
 30
0.0
 11
258.22813508582891
 21
137.39817670622301
 31
0.0
  0
LINE
  5
3794
  8
0
 10
263.478135085828
 20
177.83073768337869
 30
0.0
 11
262.42813508582873
 21
178.96739602584501
 31
0.0
  0
LINE
  5
3795
  8
0
 10
263.4781350858284
 20
177.83073768337869
 30
0.0
 11
264.52813508582773
 21
178.96739602584501
 31
0.0
  0
LINE
  5
3796
  8
0
 10
265.5781350858274
 20
177.8307376833788
 30
0.0
 11
266.62813508582673
 21
178.96739602584501
 31
0.0
  0
LINE
  5
3797
  8
0
 10
265.57813508582689
 20
177.8307376833788
 30
0.0
 11
264.52813508582773
 21
178.96739602584501
 31
0.0
  0
LINE
  5
3798
  8
0
 10
261.37813508582713
 20
177.8307376833788
 30
0.0
 11
260.3281350858278
 21
178.96739602584501
 31
0.0
  0
LINE
  5
3799
  8
0
 10
261.37813508582758
 20
177.8307376833788
 30
0.0
 11
262.4281350858268
 21
178.96739602584501
 31
0.0
  0
LINE
  5
379A
  8
0
 10
259.27813508582858
 20
177.83073768337869
 30
0.0
 11
260.3281350858278
 21
178.96739602584501
 31
0.0
  0
LINE
  5
379B
  8
0
 10
259.27813508582813
 20
177.83073768337869
 30
0.0
 11
258.22813508582891
 21
178.96739602584501
 31
0.0
  0
LINE
  5
379C
  8
0
 10
267.42813508582861
 20
178.1013706220605
 30
0.0
 11
266.62813508582849
 21
178.96739602584489
 31
0.0
  0
LINE
  5
379D
  8
0
 10
257.42813508582873
 20
178.1013706220605
 30
0.0
 11
258.22813508582891
 21
178.96739602584501
 31
0.0
  0
LINE
  5
379E
  8
0
 10
257.42813508582873
 20
122.9644199755402
 30
0.0
 11
258.22813508582891
 21
120.65501889924811
 31
0.0
  0
LINE
  5
379F
  8
0
 10
259.27813508582949
 20
123.6861078118835
 30
0.0
 11
258.22813508582891
 21
120.65501889924811
 31
0.0
  0
LINE
  5
37A0
  8
0
 10
259.27813508582949
 20
123.6861078118835
 30
0.0
 11
260.3281350858299
 21
120.65501889924811
 31
0.0
  0
LINE
  5
37A1
  8
0
 10
261.37813508583031
 20
123.6861078118835
 30
0.0
 11
262.42813508583089
 21
120.65501889924811
 31
0.0
  0
LINE
  5
37A2
  8
0
 10
261.37813508583031
 20
123.6861078118835
 30
0.0
 11
260.3281350858299
 21
120.65501889924811
 31
0.0
  0
LINE
  5
37A3
  8
0
 10
265.5781350858303
 20
123.6861078118898
 30
0.0
 11
264.52813508582989
 21
120.6550188992544
 31
0.0
  0
LINE
  5
37A4
  8
0
 10
265.5781350858303
 20
123.6861078118898
 30
0.0
 11
266.62813508583082
 21
120.6550188992544
 31
0.0
  0
LINE
  5
37A5
  8
0
 10
263.47813508582931
 20
123.6861078118898
 30
0.0
 11
264.52813508582989
 21
120.6550188992544
 31
0.0
  0
LINE
  5
37A6
  8
0
 10
263.47813508582931
 20
123.6861078118898
 30
0.0
 11
262.42813508582873
 21
120.6550188992544
 31
0.0
  0
LINE
  5
37A7
  8
0
 10
267.42813508582861
 20
122.9644199755402
 30
0.0
 11
266.62813508582872
 21
120.65501889924811
 31
0.0
  0
LINE
  5
37A8
  8
0
 10
267.42813508582861
 20
194.5558532939591
 30
0.0
 11
266.62813508582872
 21
196.86525437025119
 31
0.0
  0
LINE
  5
37A9
  8
0
 10
263.47813508582931
 20
193.8341654576096
 30
0.0
 11
262.42813508582873
 21
196.86525437024491
 31
0.0
  0
LINE
  5
37AA
  8
0
 10
263.47813508582931
 20
193.8341654576096
 30
0.0
 11
264.52813508582989
 21
196.86525437024491
 31
0.0
  0
LINE
  5
37AB
  8
0
 10
265.5781350858303
 20
193.8341654576096
 30
0.0
 11
266.62813508583082
 21
196.86525437024491
 31
0.0
  0
LINE
  5
37AC
  8
0
 10
265.5781350858303
 20
193.8341654576096
 30
0.0
 11
264.52813508582989
 21
196.86525437024491
 31
0.0
  0
LINE
  5
37AD
  8
0
 10
261.37813508583031
 20
193.8341654576158
 30
0.0
 11
260.3281350858299
 21
196.86525437025119
 31
0.0
  0
LINE
  5
37AE
  8
0
 10
261.37813508583031
 20
193.8341654576158
 30
0.0
 11
262.42813508583089
 21
196.86525437025119
 31
0.0
  0
LINE
  5
37AF
  8
0
 10
259.27813508582949
 20
193.8341654576158
 30
0.0
 11
260.3281350858299
 21
196.86525437025119
 31
0.0
  0
LINE
  5
37B0
  8
0
 10
259.27813508582949
 20
193.8341654576158
 30
0.0
 11
258.22813508582891
 21
196.86525437025119
 31
0.0
  0
LINE
  5
37B1
  8
0
 10
257.42813508582873
 20
194.5558532939591
 30
0.0
 11
258.22813508582891
 21
196.86525437025119
 31
0.0
  0
LINE
  5
37B2
  8
0
 10
262.42813508582873
 20
196.86525437025111
 30
0.0
 11
262.42813508582822
 21
120.6550188992544
 31
0.0
  0
LINE
  5
37B3
  8
0
 10
263.4781350858284
 20
193.83416545761591
 30
0.0
 11
263.47813508582681
 21
123.6861078118898
 31
0.0
  0
LINE
  5
37B4
  8
0
 10
261.37813508582872
 20
193.8341654576158
 30
0.0
 11
261.3781350858265
 21
123.6861078118897
 31
0.0
  0
LINE
  5
37B5
  8
0
 10
264.52813508582858
 20
196.86525437025111
 30
0.0
 11
264.52813508582813
 21
120.6550188992544
 31
0.0
  0
LINE
  5
37B6
  8
0
 10
265.57813508582831
 20
193.8341654576158
 30
0.0
 11
265.57813508582848
 21
123.6861078118897
 31
0.0
  0
LINE
  5
37B7
  8
0
 10
258.22813508582891
 20
196.86525437025119
 30
0.0
 11
258.22813508582891
 21
120.6550188992544
 31
0.0
  0
LINE
  5
37B8
  8
0
 10
259.27813508582949
 20
193.8341654576158
 30
0.0
 11
259.27813508582398
 21
123.6861078118897
 31
0.0
  0
LINE
  5
37B9
  8
0
 10
260.32813508582882
 20
196.86525437025119
 30
0.0
 11
260.32813508582882
 21
120.6550188992544
 31
0.0
  0
LINE
  5
37BA
  8
0
 10
266.62813508582849
 20
196.86525437025111
 30
0.0
 11
266.62813508582849
 21
120.6550188992544
 31
0.0
  0
LINE
  5
37BB
  8
0
 10
134.57841742792331
 20
178.39004575571249
 30
0.0
 11
136.07841742792331
 21
177.52402035192819
 31
0.0
  0
LINE
  5
37BC
  8
0
 10
134.57841742792331
 20
140.28492805124469
 30
0.0
 11
136.0784174279232
 21
141.15095345502931
 31
0.0
  0
LINE
  5
37BD
  8
0
 10
168.57841742714319
 20
122.3870697068235
 30
0.0
 11
168.57841742714379
 21
120.6550188992544
 31
0.0
  0
LINE
  5
37BE
  8
0
 10
196.07841742792351
 20
138.26420211000709
 30
0.0
 11
197.57841742792331
 21
137.39817670622301
 31
0.0
  0
LINE
  5
37BF
  8
0
 10
196.07841742792331
 20
178.1013706220605
 30
0.0
 11
197.57841742792331
 21
178.96739602584501
 31
0.0
  0
LINE
  5
37C0
  8
0
 10
166.5784174287306
 20
196.86525437025119
 30
0.0
 11
166.5784174287308
 21
195.1332035626823
 31
0.0
  0
LINE
  5
37C1
  8
0
 10
196.07841742792351
 20
138.26420211000709
 30
0.0
 11
168.57841742714319
 21
122.3870697068235
 31
0.0
  0
LINE
  5
37C2
  8
0
 10
168.57841742714319
 20
122.3870697068235
 30
0.0
 11
136.0784174279232
 21
141.15095345502931
 31
0.0
  0
LINE
  5
37C3
  8
0
 10
136.0784174279232
 20
141.15095345502931
 30
0.0
 11
136.0784174279234
 21
177.52402035192819
 31
0.0
  0
LINE
  5
37C4
  8
0
 10
136.0784174279234
 20
177.52402035192819
 30
0.0
 11
166.5784174287308
 21
195.1332035626823
 31
0.0
  0
LINE
  5
37C5
  8
0
 10
196.07841742792351
 20
138.26420211000709
 30
0.0
 11
196.07841742792331
 21
178.1013706220605
 31
0.0
  0
LINE
  5
37C6
  8
0
 10
166.5784174287308
 20
195.1332035626823
 30
0.0
 11
196.07841742792331
 21
178.1013706220605
 31
0.0
  0
LINE
  5
37C7
  8
0
 10
166.578417428732
 20
250.34190509881631
 30
0.0
 11
166.57841742873211
 21
260.34190509881631
 31
0.0
  0
TEXT
  5
37C8
  8
3
 10
156.43162198140121
 20
136.32822855748589
 30
0.0
 40
4.0
  1
23
 50
149.99999999999869
 41
0.75
  7
07500
 72
     1
 11
152.32841742935329
 21
134.07841265663399
 31
0.0
 73
     3
  0
TEXT
  5
37C9
  8
3
 10
183.49348091030751
 20
137.9264888540948
 30
0.0
 40
4.0
  1
24
 50
210.00000000000119
 41
0.75
  7
07500
 72
     1
 11
183.32841740084649
 21
133.21238723895709
 31
0.0
 73
     3
  0
LINE
  5
37CA
  8
1
 10
168.5784174279234
 20
149.53773629080749
 30
0.0
 11
168.5784174279234
 21
171.44663859101419
 31
0.0
  0
LINE
  5
37CB
  8
0
 10
168.57841742792499
 20
165.11098959066689
 30
0.0
 11
172.57841742792499
 21
162.80158851390931
 31
0.0
  0
LINE
  5
37CC
  8
0
 10
164.57841743118101
 20
162.80158851579051
 30
0.0
 11
168.57841743118101
 21
165.1109895925496
 31
0.0
  0
LINE
  5
37CD
  8
0
 10
164.57841743118101
 20
158.18278636603361
 30
0.0
 11
164.57841743118101
 21
162.80158851955039
 31
0.0
  0
LINE
  5
37CE
  8
0
 10
168.57841742792499
 20
155.87338529115499
 30
0.0
 11
164.57841742792499
 21
158.18278636791271
 31
0.0
  0
LINE
  5
37CF
  8
0
 10
172.57841742466539
 20
158.18278636603139
 30
0.0
 11
168.578417424669
 21
155.87338528927231
 31
0.0
  0
LINE
  5
37D0
  8
0
 10
172.578417424669
 20
162.801588515791
 30
0.0
 11
172.578417424669
 21
158.18278636227419
 31
0.0
  0
CIRCLE
  5
37D1
  8
0
 10
167.5784174279234
 20
160.49218744091081
 30
0.0
 40
8.5
  0
LINE
  5
37D2
  8
1
 10
167.5784174279234
 20
115.6424697830054
 30
0.0
 11
167.5784174279234
 21
205.34190509881631
 31
0.0
  0
LINE
  5
37D3
  8
1
 10
122.728699770018
 20
160.49218744091081
 30
0.0
 11
212.4281350858289
 21
160.49218744091081
 31
0.0
  0
TEXT
  5
37D4
  8
3
 10
190.07841742792331
 20
162.56361601233939
 30
0.0
 40
4.0
  1
19
 50
270.0
 41
0.75
  7
07500
 72
     1
 11
194.07841742792331
 21
160.49218744091081
 31
0.0
 73
     3
  0
TEXT
  5
37D5
  8
3
 10
177.2252128744552
 20
182.05807011581419
 30
0.0
 40
4.0
  1
20
 50
329.99999999999869
 41
0.75
  7
07500
 72
     1
 11
181.32841742650311
 21
184.30788601666609
 31
0.0
 73
     3
  0
TEXT
  5
37D6
  8
3
 10
153.78194351721919
 20
180.81695267491551
 30
0.0
 40
4.0
  1
21
 50
30.000000000001251
 41
0.75
  7
07500
 72
     1
 11
153.32841745254839
 21
185.1739114329103
 31
0.0
 73
     3
  0
TEXT
  5
37D7
  8
3
 10
142.07841742792331
 20
158.06361601233939
 30
0.0
 40
4.0
  1
22
 50
90.0
 41
0.75
  7
07500
 72
     1
 11
138.07841742792331
 21
160.49218744091081
 31
0.0
 73
     3
  0
LINE
  5
37D8
  8
0
 10
257.42813508582873
 20
194.5558532939589
 30
0.0
 11
257.42813508582873
 21
122.96441997554081
 31
0.0
  0
LINE
  5
37D9
  8
0
 10
267.42813508582861
 20
194.5558532939595
 30
0.0
 11
267.42813508582839
 21
122.9644199755403
 31
0.0
  0
LINE
  5
37DA
  8
1
 10
252.4281350858289
 20
160.49218744091081
 30
0.0
 11
294.92813508582861
 21
160.49218744091081
 31
0.0
  0
LINE
  5
37DB
  8
0
 10
287.92813508582873
 20
166.4921874409109
 30
0.0
 11
287.92813508582873
 21
154.4921874409109
 31
0.0
  0
LINE
  5
37DC
  8
0
 10
289.92813508582861
 20
156.4921874409109
 30
0.0
 11
287.92813508582873
 21
154.4921874409109
 31
0.0
  0
LINE
  5
37DD
  8
3
 10
267.42813508582861
 20
155.43918744091081
 30
0.0
 11
288.87513508582879
 21
155.4391874409109
 31
0.0
  0
LINE
  5
37DE
  8
0
 10
267.42813508582861
 20
154.4921874409109
 30
0.0
 11
287.92813508582873
 21
154.4921874409109
 31
0.0
  0
LINE
  5
37DF
  8
0
 10
289.92813508582861
 20
164.4921874409109
 30
0.0
 11
289.92813508582861
 21
156.4921874409109
 31
0.0
  0
LINE
  5
37E0
  8
0
 10
289.92813508582861
 20
164.4921874409109
 30
0.0
 11
287.92813508582873
 21
166.4921874409109
 31
0.0
  0
LINE
  5
37E1
  8
0
 10
267.42813508582861
 20
166.49218744091101
 30
0.0
 11
287.92813508582873
 21
166.4921874409109
 31
0.0
  0
LINE
  5
37E2
  8
3
 10
267.42813508582861
 20
165.54518744091081
 30
0.0
 11
288.87513508582879
 21
165.54518744091089
 31
0.0
  0
LINE
  5
37E3
  8
2
 10
260.23878174830361
 20
168.9921874409109
 30
0.0
 11
260.23878174830321
 21
151.99218744091081
 31
0.0
  0
ARC
  5
37E4
  8
2
 10
264.71204690979363
 20
157.37641429302249
 30
0.0
 40
7.0
 50
206.14241003249651
 51
230.27988599267209
  0
ARC
  5
37E5
  8
2
 10
264.71204690979363
 20
163.6079605887993
 30
0.0
 40
7.0
 50
129.72011400732791
 51
153.85758996750349
  0
LINE
  5
37E6
  8
2
 10
258.42813508582873
 20
154.29218794130369
 30
0.0
 11
258.42813508582873
 21
166.6921869405179
 31
0.0
  0
LINE
  5
37E7
  8
2
 10
257.42813508582873
 20
151.99218744091101
 30
0.0
 11
264.92813508582873
 21
151.9921874409109
 31
0.0
  0
LINE
  5
37E8
  8
2
 10
264.92813508582873
 20
151.99218744091081
 30
0.0
 11
264.92813508582873
 21
168.9921874409109
 31
0.0
  0
LINE
  5
37E9
  8
2
 10
257.42813508582873
 20
168.9921874409109
 30
0.0
 11
264.92813508582873
 21
168.99218744091101
 31
0.0
  0
LINE
  5
37EA
  8
2
 10
264.92813508582873
 20
152.74218744091121
 30
0.0
 11
267.42813508582861
 21
152.74218744091121
 31
0.0
  0
LINE
  5
37EB
  8
2
 10
267.42813508582861
 20
155.43918744091081
 30
0.0
 11
265.78788297106121
 21
154.49218744091081
 31
0.0
  0
LINE
  5
37EC
  8
2
 10
267.42813508582861
 20
165.54518744091089
 30
0.0
 11
265.78788297106121
 21
166.49218744091081
 31
0.0
  0
LINE
  5
37ED
  8
0
 10
267.42813508582861
 20
154.49218744091081
 30
0.0
 11
267.42813508582861
 21
166.4921874409109
 31
0.0
  0
LINE
  5
37EE
  8
2
 10
264.92813508582873
 20
168.2421874409111
 30
0.0
 11
267.42813508582861
 21
168.24218744091121
 31
0.0
  0
LINE
  5
37EF
  8
0
 10
195.26901635163739
 20
70.642469783005481
 30
0.0
 11
136.8878185042083
 21
70.642469783005254
 31
0.0
  0
LINE
  5
37F0
  8
0
 10
195.26901635163881
 20
60.642469783005588
 30
0.0
 11
136.88781850420929
 21
60.642469783005481
 31
0.0
  0
LINE
  5
37F1
  8
1
 10
167.5784174279234
 20
75.642469783005481
 30
0.0
 11
167.5784174279234
 21
55.642469783005481
 31
0.0
  0
LINE
  5
37F2
  8
1
 10
168.57841742792351
 20
75.642469783005481
 30
0.0
 11
168.57841742792371
 21
33.142469783005481
 31
0.0
  0
LINE
  5
37F3
  8
2
 10
159.07841692752919
 20
63.142469783005481
 30
0.0
 11
176.0784169275293
 21
63.142469783005481
 31
0.0
  0
LINE
  5
37F4
  8
2
 10
176.0784169275293
 20
70.642469783005481
 30
0.0
 11
176.0784169275293
 21
63.142469783005481
 31
0.0
  0
LINE
  5
37F5
  8
2
 10
159.0784169275293
 20
70.642469783005481
 30
0.0
 11
159.0784169275293
 21
63.142469783005481
 31
0.0
  0
LINE
  5
37F6
  8
2
 10
163.37841642713539
 20
69.642469783005481
 30
0.0
 11
173.77841642713631
 21
69.642469783005481
 31
0.0
  0
ARC
  5
37F7
  8
2
 10
170.69419007541771
 20
63.358557959040581
 30
0.0
 40
7.0
 50
39.720114007327922
 51
63.857589967500623
  0
ARC
  5
37F8
  8
2
 10
165.324596613501
 20
62.91845441403143
 30
0.0
 40
7.0
 50
106.14241003249781
 51
153.16514687457629
  0
LINE
  5
37F9
  8
2
 10
159.0784169275293
 20
66.078397345565904
 30
0.0
 11
176.0784169275293
 21
67.831823120530771
 31
0.0
  0
LINE
  5
37FA
  8
2
 10
175.32841692752959
 20
63.142469783005481
 30
0.0
 11
175.32841692752959
 21
60.642469783005481
 31
0.0
  0
LINE
  5
37FB
  8
2
 10
174.57841742792331
 20
60.642469783005481
 30
0.0
 11
174.57841742792331
 21
63.142469783005481
 31
0.0
  0
LINE
  5
37FC
  8
2
 10
173.6314174279234
 20
60.642469783005481
 30
0.0
 11
174.5784174279234
 21
62.282721897773172
 31
0.0
  0
LINE
  5
37FD
  8
2
 10
159.82841692752959
 20
63.142469783005481
 30
0.0
 11
159.82841692752959
 21
60.642469783005481
 31
0.0
  0
LINE
  5
37FE
  8
2
 10
162.57841742792331
 20
60.642469783005481
 30
0.0
 11
162.57841742792331
 21
63.142469783005481
 31
0.0
  0
LINE
  5
37FF
  8
2
 10
163.5254174279234
 20
60.642469783005481
 30
0.0
 11
162.5784174279234
 21
62.282721897773172
 31
0.0
  0
LINE
  5
3800
  8
0
 10
162.5784174279234
 20
60.642469783005481
 30
0.0
 11
174.57841742792351
 21
60.642469783005481
 31
0.0
  0
LINE
  5
3801
  8
0
 10
174.57841742792331
 20
40.142469783005481
 30
0.0
 11
162.57841742792331
 21
40.142469783005481
 31
0.0
  0
LINE
  5
3802
  8
0
 10
164.57841742792331
 20
38.142469783005481
 30
0.0
 11
162.57841742792331
 21
40.142469783005481
 31
0.0
  0
LINE
  5
3803
  8
0
 10
172.57841742792331
 20
38.142469783005261
 30
0.0
 11
174.57841742792331
 21
40.142469783005247
 31
0.0
  0
LINE
  5
3804
  8
0
 10
174.57841742792331
 20
60.642469783005481
 30
0.0
 11
174.57841742792331
 21
40.142469783005247
 31
0.0
  0
LINE
  5
3805
  8
3
 10
173.6314174279234
 20
60.642469783005481
 30
0.0
 11
173.6314174279234
 21
39.195469783005358
 31
0.0
  0
LINE
  5
3806
  8
3
 10
163.5254174279234
 20
60.642469783005481
 30
0.0
 11
163.5254174279234
 21
39.195469783005592
 31
0.0
  0
LINE
  5
3807
  8
0
 10
162.57841742792331
 20
60.642469783005481
 30
0.0
 11
162.57841742792331
 21
40.142469783005481
 31
0.0
  0
LINE
  5
3808
  8
0
 10
172.57841742792331
 20
38.142469783005261
 30
0.0
 11
164.57841742792331
 21
38.142469783005481
 31
0.0
  0
LINE
  5
3809
  8
0
 10
168.57841742766161
 20
70.642469783005481
 30
0.0
 11
168.57841742792351
 21
60.642469783005481
 31
0.0
  0
LINE
  5
380A
  8
2
 10
70.228699770018125
 20
168.2421874409111
 30
0.0
 11
67.728699770018125
 21
168.24218744091121
 31
0.0
  0
LINE
  5
380B
  8
0
 10
67.728699770018125
 20
154.49218744091081
 30
0.0
 11
67.728699770018125
 21
166.4921874409109
 31
0.0
  0
LINE
  5
380C
  8
2
 10
67.728699770018125
 20
165.54518744091089
 30
0.0
 11
69.368951884785815
 21
166.49218744091081
 31
0.0
  0
LINE
  5
380D
  8
2
 10
67.728699770018125
 20
155.43918744091081
 30
0.0
 11
69.368951884785815
 21
154.49218744091081
 31
0.0
  0
LINE
  5
380E
  8
2
 10
70.228699770018125
 20
152.74218744091121
 30
0.0
 11
67.728699770018125
 21
152.74218744091121
 31
0.0
  0
LINE
  5
380F
  8
2
 10
77.728699770018125
 20
168.9921874409109
 30
0.0
 11
70.228699770018125
 21
168.99218744091101
 31
0.0
  0
LINE
  5
3810
  8
2
 10
70.228699770018125
 20
151.99218744091081
 30
0.0
 11
70.228699770018125
 21
168.9921874409109
 31
0.0
  0
LINE
  5
3811
  8
2
 10
77.728699770018125
 20
151.99218744091101
 30
0.0
 11
70.228699770018125
 21
151.9921874409109
 31
0.0
  0
LINE
  5
3812
  8
2
 10
76.728699770018125
 20
154.29218794130369
 30
0.0
 11
76.728699770018125
 21
166.6921869405179
 31
0.0
  0
ARC
  5
3813
  8
2
 10
70.444787946053339
 20
163.6079605887993
 30
0.0
 40
7.0
 50
26.142410032496461
 51
50.279885992672071
  0
ARC
  5
3814
  8
2
 10
70.444787946053452
 20
157.37641429302249
 30
0.0
 40
7.0
 50
309.72011400732788
 51
333.85758996750349
  0
LINE
  5
3815
  8
3
 10
67.728699770018125
 20
165.54518744091081
 30
0.0
 11
46.281699770018122
 21
165.54518744091089
 31
0.0
  0
LINE
  5
3816
  8
0
 10
67.728699770018125
 20
166.49218744091101
 30
0.0
 11
47.228699770018117
 21
166.4921874409109
 31
0.0
  0
LINE
  5
3817
  8
0
 10
45.228699770018117
 20
164.4921874409109
 30
0.0
 11
47.228699770018117
 21
166.4921874409109
 31
0.0
  0
LINE
  5
3818
  8
0
 10
45.228699770018117
 20
164.4921874409109
 30
0.0
 11
45.228699770018117
 21
156.4921874409109
 31
0.0
  0
LINE
  5
3819
  8
0
 10
67.728699770018125
 20
154.4921874409109
 30
0.0
 11
47.228699770018117
 21
154.4921874409109
 31
0.0
  0
LINE
  5
381A
  8
3
 10
67.728699770018125
 20
155.43918744091081
 30
0.0
 11
46.281699770018243
 21
155.4391874409109
 31
0.0
  0
LINE
  5
381B
  8
0
 10
45.228699770018117
 20
156.4921874409109
 30
0.0
 11
47.228699770018117
 21
154.4921874409109
 31
0.0
  0
LINE
  5
381C
  8
0
 10
47.228699770018117
 20
166.4921874409109
 30
0.0
 11
47.228699770018117
 21
154.4921874409109
 31
0.0
  0
LINE
  5
381D
  8
1
 10
82.728699770018025
 20
160.49218744091081
 30
0.0
 11
40.228699770018117
 21
160.49218744091081
 31
0.0
  0
LINE
  5
381E
  8
0
 10
67.728699770018125
 20
194.55585329395899
 30
0.0
 11
67.72869977001767
 21
122.9644199755413
 31
0.0
  0
LINE
  5
381F
  8
0
 10
77.728699770018011
 20
194.55585329395981
 30
0.0
 11
77.728699770018238
 21
122.9644199755401
 31
0.0
  0
ARC
  5
3820
  8
2
 10
114.808035641979
 20
160.49218744091101
 30
0.0
 40
41.643408309400733
 50
168.22236534138739
 51
191.77763465861261
  0
LINE
  5
3821
  8
0
 10
172.57841742792331
 20
282.84190509881631
 30
0.0
 11
164.57841742792331
 21
282.8419050988162
 31
0.0
  0
LINE
  5
3822
  8
0
 10
162.57841742792331
 20
260.34190509881631
 30
0.0
 11
162.57841742792331
 21
280.8419050988162
 31
0.0
  0
LINE
  5
3823
  8
3
 10
163.5254174279234
 20
260.34190509881631
 30
0.0
 11
163.5254174279234
 21
281.7889050988162
 31
0.0
  0
LINE
  5
3824
  8
3
 10
173.6314174279234
 20
260.34190509881631
 30
0.0
 11
173.6314174279234
 21
281.78890509881631
 31
0.0
  0
LINE
  5
3825
  8
0
 10
174.57841742792331
 20
260.34190509881631
 30
0.0
 11
174.57841742792331
 21
280.84190509881631
 31
0.0
  0
LINE
  5
3826
  8
0
 10
172.57841742792331
 20
282.84190509881631
 30
0.0
 11
174.57841742792331
 21
280.84190509881631
 31
0.0
  0
LINE
  5
3827
  8
0
 10
164.57841742792331
 20
282.8419050988162
 30
0.0
 11
162.57841742792331
 21
280.8419050988162
 31
0.0
  0
LINE
  5
3828
  8
0
 10
174.57841742792331
 20
280.84190509881631
 30
0.0
 11
162.57841742792331
 21
280.8419050988162
 31
0.0
  0
LINE
  5
3829
  8
0
 10
162.5784174279234
 20
260.34190509881631
 30
0.0
 11
174.57841742792351
 21
260.34190509881631
 31
0.0
  0
LINE
  5
382A
  8
2
 10
163.5254174279234
 20
260.34190509881631
 30
0.0
 11
162.5784174279234
 21
258.70165298404862
 31
0.0
  0
LINE
  5
382B
  8
2
 10
162.57841742792331
 20
260.34190509881631
 30
0.0
 11
162.57841742792331
 21
257.84190509881631
 31
0.0
  0
LINE
  5
382C
  8
2
 10
159.82841692752959
 20
257.84190509881631
 30
0.0
 11
159.82841692752959
 21
260.34190509881631
 31
0.0
  0
LINE
  5
382D
  8
2
 10
173.6314174279234
 20
260.34190509881631
 30
0.0
 11
174.5784174279234
 21
258.70165298404862
 31
0.0
  0
LINE
  5
382E
  8
2
 10
174.57841742792331
 20
260.34190509881631
 30
0.0
 11
174.57841742792331
 21
257.8419050988162
 31
0.0
  0
LINE
  5
382F
  8
2
 10
175.32841692752959
 20
257.8419050988162
 30
0.0
 11
175.32841692752959
 21
260.34190509881631
 31
0.0
  0
LINE
  5
3830
  8
2
 10
159.0784169275293
 20
254.9059775362557
 30
0.0
 11
176.0784169275293
 21
253.15255176129091
 31
0.0
  0
ARC
  5
3831
  8
2
 10
165.324596613501
 20
258.06592046779008
 30
0.0
 40
7.0
 50
206.83485312542371
 51
253.8575899674986
  0
ARC
  5
3832
  8
2
 10
170.69419007541771
 20
257.62581692278098
 30
0.0
 40
7.0
 50
296.14241003249941
 51
320.27988599267201
  0
LINE
  5
3833
  8
2
 10
163.37841642713539
 20
251.3419050988162
 30
0.0
 11
173.77841642713631
 21
251.3419050988162
 31
0.0
  0
LINE
  5
3834
  8
2
 10
159.0784169275293
 20
250.34190509881631
 30
0.0
 11
159.0784169275293
 21
257.84190509881631
 31
0.0
  0
LINE
  5
3835
  8
2
 10
176.0784169275293
 20
250.34190509881631
 30
0.0
 11
176.0784169275293
 21
257.84190509881631
 31
0.0
  0
LINE
  5
3836
  8
2
 10
159.07841692752919
 20
257.84190509881631
 30
0.0
 11
176.0784169275293
 21
257.8419050988162
 31
0.0
  0
LINE
  5
3837
  8
1
 10
168.57841742792351
 20
245.34190509881631
 30
0.0
 11
168.57841742792371
 21
287.84190509881631
 31
0.0
  0
LINE
  5
3838
  8
1
 10
167.5784174279234
 20
245.34190509881631
 30
0.0
 11
167.5784174279234
 21
265.34190509881631
 31
0.0
  0
LINE
  5
3839
  8
0
 10
195.2690163516379
 20
260.3419050988162
 30
0.0
 11
136.88781850420989
 21
260.34190509881643
 31
0.0
  0
LINE
  5
383A
  8
0
 10
195.2690163516383
 20
250.34190509881631
 30
0.0
 11
136.88781850420949
 21
250.34190509881631
 31
0.0
  0
LINE
  5
383B
  8
0
 10
134.5784174279236
 20
178.39004575571261
 30
0.0
 11
166.5784174287306
 21
196.86525437025119
 31
0.0
  0
LINE
  5
383C
  8
0
 10
166.5784174287306
 20
196.86525437025119
 30
0.0
 11
197.57841742792331
 21
178.96739602584501
 31
0.0
  0
LINE
  5
383D
  8
0
 10
197.57841742792331
 20
137.39817670622301
 30
0.0
 11
168.57841742714379
 21
120.6550188992544
 31
0.0
  0
LINE
  5
383E
  8
0
 10
168.57841742714379
 20
120.6550188992544
 30
0.0
 11
134.57841742792331
 21
140.28492805124469
 31
0.0
  0
LINE
  5
383F
  8
0
 10
197.57841742792331
 20
137.39817670622301
 30
0.0
 11
197.57841742792331
 21
178.96739602584509
 31
0.0
  0
LINE
  5
3840
  8
0
 10
134.57841742792331
 20
140.28492805124469
 30
0.0
 11
134.57841742792331
 21
178.39004575571261
 31
0.0
  0
TEXT
  5
3B23
  8
0
 62
     3
 10
0.0
 20
0.0
 30
0.0
 40
10.0
  1
MBSPC3035S
  7
STANDARD1
  0
ENDSEC
  0
EOF
