  0
SECTION
  2
HEADER
  9
$ACADVER
  1
AC1009
  9
$INSBASE
 10
0.0
 20
0.0
 30
0.0
  9
$EXTMIN
 10
0.0
 20
-2.960436562073669
 30
0.0
  9
$EXTMAX
 10
228.4530323480075
 20
222.7475618860523
 30
0.0
  9
$LIMMIN
 10
0.0
 20
0.0
  9
$LIMMAX
 10
192.5
 20
135.0
  9
$ORTHOMODE
 70
     0
  9
$REGENMODE
 70
     1
  9
$FILLMODE
 70
     1
  9
$QTEXTMODE
 70
     0
  9
$MIRRTEXT
 70
     0
  9
$DRAGMODE
 70
     2
  9
$LTSCALE
 40
5.0
  9
$OSMODE
 70
  3071
  9
$ATTMODE
 70
     1
  9
$TEXTSIZE
 40
0.2
  9
$TRACEWID
 40
0.05
  9
$TEXTSTYLE
  7
STANDARD
  9
$CLAYER
  8
0
  9
$CELTYPE
  6
BYLAYER
  9
$CECOLOR
 62
   256
  9
$DIMSCALE
 40
0.5
  9
$DIMASZ
 40
3.0
  9
$DIMEXO
 40
1.0
  9
$DIMDLI
 40
6.0
  9
$DIMRND
 40
0.0
  9
$DIMDLE
 40
0.0
  9
$DIMEXE
 40
1.0
  9
$DIMTP
 40
495.0
  9
$DIMTM
 40
0.0
  9
$DIMTXT
 40
3.0
  9
$DIMCEN
 40
0.0
  9
$DIMTSZ
 40
0.0
  9
$DIMTOL
 70
     0
  9
$DIMLIM
 70
     0
  9
$DIMTIH
 70
     0
  9
$DIMTOH
 70
     0
  9
$DIMSE1
 70
     0
  9
$DIMSE2
 70
     0
  9
$DIMTAD
 70
     1
  9
$DIMZIN
 70
     0
  9
$DIMBLK
  1

  9
$DIMASO
 70
     0
  9
$DIMSHO
 70
     0
  9
$DIMPOST
  1

  9
$DIMAPOST
  1

  9
$DIMALT
 70
     0
  9
$DIMALTD
 70
     2
  9
$DIMALTF
 40
25.399999999999999
  9
$DIMLFAC
 40
1.0
  9
$DIMTOFL
 70
     1
  9
$DIMTVP
 40
0.0
  9
$DIMTIX
 70
     1
  9
$DIMSOXD
 70
     0
  9
$DIMSAH
 70
     0
  9
$DIMBLK1
  1

  9
$DIMBLK2
  1

  9
$DIMSTYLE
  2
STANDARD
  9
$DIMCLRD
 70
     0
  9
$DIMCLRE
 70
     0
  9
$DIMCLRT
 70
     4
  9
$DIMTFAC
 40
1.0
  9
$DIMGAP
 40
1.0
  9
$LUNITS
 70
     2
  9
$LUPREC
 70
     4
  9
$SKETCHINC
 40
0.1
  9
$FILLETRAD
 40
0.0
  9
$AUNITS
 70
     0
  9
$AUPREC
 70
     0
  9
$MENU
  1
E:\r13\win\SUPPORT\ACAD
  9
$ELEVATION
 40
0.0
  9
$PELEVATION
 40
0.0
  9
$THICKNESS
 40
0.0
  9
$LIMCHECK
 70
     0
  9
$BLIPMODE
 70
     0
  9
$CHAMFERA
 40
0.5
  9
$CHAMFERB
 40
0.5
  9
$SKPOLY
 70
     0
  9
$TDCREATE
 40
2450647.4165519681
  9
$TDUPDATE
 40
2456597.635344849
  9
$TDINDWG
 40
0.0098753819
  9
$TDUSRTIMER
 40
0.0098753819
  9
$USRTIMER
 70
     1
  9
$ANGBASE
 50
0.0
  9
$ANGDIR
 70
     0
  9
$PDMODE
 70
     0
  9
$PDSIZE
 40
0.0
  9
$PLINEWID
 40
0.0
  9
$COORDS
 70
     1
  9
$SPLFRAME
 70
     0
  9
$SPLINETYPE
 70
     6
  9
$SPLINESEGS
 70
     8
  9
$ATTDIA
 70
     0
  9
$ATTREQ
 70
     1
  9
$HANDLING
 70
     1
  9
$HANDSEED
  5
19CC
  9
$SURFTAB1
 70
     6
  9
$SURFTAB2
 70
     6
  9
$SURFTYPE
 70
     6
  9
$SURFU
 70
     6
  9
$SURFV
 70
     6
  9
$UCSNAME
  2

  9
$UCSORG
 10
0.0
 20
0.0
 30
0.0
  9
$UCSXDIR
 10
1.0
 20
0.0
 30
0.0
  9
$UCSYDIR
 10
0.0
 20
1.0
 30
0.0
  9
$PUCSNAME
  2

  9
$PUCSORG
 10
0.0
 20
0.0
 30
0.0
  9
$PUCSXDIR
 10
1.0
 20
0.0
 30
0.0
  9
$PUCSYDIR
 10
0.0
 20
1.0
 30
0.0
  9
$USERI1
 70
     3
  9
$USERI2
 70
     1
  9
$USERI3
 70
     0
  9
$USERI4
 70
     0
  9
$USERI5
 70
     0
  9
$USERR1
 40
0.5
  9
$USERR2
 40
3.0
  9
$USERR3
 40
3.0
  9
$USERR4
 40
3.0
  9
$USERR5
 40
10.0
  9
$WORLDVIEW
 70
     1
  9
$SHADEDGE
 70
     3
  9
$SHADEDIF
 70
    70
  9
$TILEMODE
 70
     1
  9
$MAXACTVP
 70
    16
  9
$PLIMCHECK
 70
     0
  9
$PEXTMIN
 10
1.0000000000000000E+020
 20
1.0000000000000000E+020
 30
1.0000000000000000E+020
  9
$PEXTMAX
 10
-1.0000000000000000E+020
 20
-1.0000000000000000E+020
 30
-1.0000000000000000E+020
  9
$PLIMMIN
 10
0.0
 20
0.0
  9
$PLIMMAX
 10
12.0
 20
9.0
  9
$UNITMODE
 70
     0
  9
$VISRETAIN
 70
     0
  9
$PLINEGEN
 70
     0
  9
$PSLTSCALE
 70
     0
  0
ENDSEC
  0
SECTION
  2
TABLES
  0
TABLE
  2
VPORT
 70
     1
  0
VPORT
  2
*ACTIVE
 70
     0
 10
0.0
 20
0.0
 11
1.0
 21
1.0
 12
114.2265167059125
 22
110.38391412109389
 13
0.0
 23
0.0
 14
2.5
 24
2.5
 15
10.0
 25
10.0
 16
0.0
 26
0.0
 36
1.0
 17
0.0
 27
0.0
 37
0.0
 40
229.28989732350669
 41
2.304913294797688
 42
50.0
 43
0.0
 44
0.0
 50
0.0
 51
0.0
 71
     0
 72
   100
 73
     1
 74
     0
 75
     0
 76
     0
 77
     0
 78
     0
  0
ENDTAB
  0
TABLE
  2
LTYPE
 70
     4
  0
LTYPE
  2
CONTINUOUS
 70
     0
  3
Solid Line
 72
    65
 73
     0
 40
0.0
  0
LTYPE
  2
CENTER
 70
     0
  3
____ _ ____ _ ____ _ ____ _ ____ _ ____ _ ____
 72
    65
 73
     4
 40
2.0
 49
1.25
 49
-0.25
 49
0.25
 49
-0.25
  0
LTYPE
  2
HIDDEN
 70
     0
  3
_ _ _ _ _ _ _ _ _ _ _ _ _ _ _ _ _ _ _ _ _ _ _
 72
    65
 73
     2
 40
0.375
 49
0.25
 49
-0.125
  0
LTYPE
  2
PHANTOM2
 70
     0
  3
___ _ _ ___ _ _ ___ _ _ ___ _ _
 72
    65
 73
     6
 40
1.25
 49
0.625
 49
-0.125
 49
0.125
 49
-0.125
 49
0.125
 49
-0.125
  0
ENDTAB
  0
TABLE
  2
LAYER
 70
     4
  0
LAYER
  2
0
 70
     0
 62
     7
  6
CONTINUOUS
  0
LAYER
  2
1
 70
     0
 62
     1
  6
CENTER
  0
LAYER
  2
2
 70
     0
 62
     2
  6
HIDDEN
  0
LAYER
  2
3
 70
     0
 62
     3
  6
CONTINUOUS
  0
ENDTAB
  0
TABLE
  2
STYLE
 70
     3
  0
STYLE
  2
STANDARD
 70
     0
 40
0.0
 41
1.0
 50
0.0
 71
     0
 42
0.2
  3
SIMPLEX
  4
BIGFONT
  0
STYLE
  2
07500
 70
     0
 40
0.0
 41
0.75
 50
0.0
 71
     0
 42
0.2
  3
simplex.shx
  4
BIGFONT.shx
  0
STYLE
  2
STANDARD1
 70
     0
 40
0.0
 41
1.0
 50
0.0
 71
     0
 42
3.0
  3
txt
  4

  0
ENDTAB
  0
TABLE
  2
VIEW
 70
     0
  0
ENDTAB
  0
TABLE
  2
UCS
 70
     0
  0
ENDTAB
  0
TABLE
  2
APPID
 70
     3
  0
APPID
  2
ACAD
 70
     0
  0
APPID
  2
ACAD_MLEADERVER
 70
     0
  0
APPID
  2
ACAD_NAV_VCDISPLAY
 70
     0
  0
ENDTAB
  0
TABLE
  2
DIMSTYLE
 70
     1
  0
DIMSTYLE
  2
STANDARD
 70
     0
  3

  4

  5

  6

  7

 40
1.0
 41
0.18
 42
0.0625
 43
0.38
 44
0.18
 45
0.0
 46
0.0
 47
0.0
 48
0.0
140
0.18
141
0.09
142
0.0
143
25.399999999999999
144
1.0
145
0.0
146
1.0
147
0.09
 71
     0
 72
     0
 73
     1
 74
     1
 75
     0
 76
     0
 77
     0
 78
     0
170
     0
171
     2
172
     0
173
     0
174
     0
175
     0
176
     0
177
     0
178
     0
  0
ENDTAB
  0
ENDSEC
  0
SECTION
  2
BLOCKS
  0
BLOCK
  8
0
  2
$MODEL_SPACE
 70
     0
 10
0.0
 20
0.0
 30
0.0
  3
$MODEL_SPACE
  1

  0
ENDBLK
  5
329
  8
0
  0
BLOCK
 67
     1
  8
0
  2
$PAPER_SPACE
 70
     0
 10
0.0
 20
0.0
 30
0.0
  3
$PAPER_SPACE
  1

  0
ENDBLK
  5
327
 67
     1
  8
0
  0
ENDSEC
  0
SECTION
  2
ENTITIES
  0
LINE
  5
1777
  8
2
 10
71.453032390334442
 20
123.2929524629821
 30
0.0
 11
68.953032390334442
 21
123.2929524629821
 31
0.0
  0
LINE
  5
1778
  8
2
 10
71.453032390334442
 20
135.2475619072157
 30
0.0
 11
68.953032390334442
 21
135.2475619072157
 31
0.0
  0
LINE
  5
1779
  8
2
 10
198.45303234800741
 20
123.2475619072156
 30
0.0
 11
200.95303234800741
 21
123.2475619072156
 31
0.0
  0
LINE
  5
177A
  8
2
 10
198.45303234800741
 20
135.2475619072157
 30
0.0
 11
200.95303234800741
 21
135.2475619072157
 31
0.0
  0
LINE
  5
177B
  8
0
 10
133.95303236998049
 20
185.24756188605221
 30
0.0
 11
133.95303236998049
 21
195.2475618860523
 31
0.0
  0
LINE
  5
177C
  8
0
 10
152.95303236917121
 20
185.24756188605221
 30
0.0
 11
152.9530323691713
 21
195.2475618860523
 31
0.0
  0
LINE
  5
177D
  8
0
 10
113.9530323691708
 20
185.24756188605221
 30
0.0
 11
113.9530323691709
 21
195.2475618860523
 31
0.0
  0
LINE
  5
177E
  8
0
 10
152.95303236917121
 20
185.24756188605221
 30
0.0
 11
113.9530323691709
 21
185.24756188605221
 31
0.0
  0
LINE
  5
177F
  8
0
 10
152.95303236917121
 20
195.2475618860523
 30
0.0
 11
113.9530323691709
 21
195.2475618860523
 31
0.0
  0
LINE
  5
1780
  8
1
 10
134.9530323691709
 20
180.24756188605221
 30
0.0
 11
134.9530323691709
 21
200.2475618860523
 31
0.0
  0
LINE
  5
1781
  8
1
 10
135.95303236917101
 20
180.24756188605221
 30
0.0
 11
135.95303236917121
 21
222.7475618860523
 31
0.0
  0
LINE
  5
1782
  8
2
 10
126.4530318687767
 20
192.7475618860523
 30
0.0
 11
143.4530318687768
 21
192.74756188605221
 31
0.0
  0
LINE
  5
1783
  8
2
 10
143.4530318687768
 20
185.24756188605221
 30
0.0
 11
143.4530318687768
 21
192.74756188605221
 31
0.0
  0
LINE
  5
1784
  8
2
 10
126.4530318687768
 20
185.2475618860523
 30
0.0
 11
126.4530318687768
 21
192.74756188605221
 31
0.0
  0
LINE
  5
1785
  8
2
 10
130.75303136838289
 20
186.24756188605221
 30
0.0
 11
141.15303136838381
 21
186.24756188605221
 31
0.0
  0
ARC
  5
1786
  8
2
 10
138.06880501666521
 20
192.531473710017
 30
0.0
 40
7.0
 50
296.14241003249953
 51
320.27988599267201
  0
ARC
  5
1787
  8
2
 10
132.6992115547485
 20
192.9715772550262
 30
0.0
 40
7.0
 50
206.83485312542561
 51
253.85758996749871
  0
LINE
  5
1788
  8
2
 10
126.4530318687768
 20
189.8116343234918
 30
0.0
 11
143.4530318687768
 21
188.05820854852689
 31
0.0
  0
LINE
  5
1789
  8
2
 10
142.70303186877709
 20
192.74756188605221
 30
0.0
 11
142.70303186877709
 21
195.2475618860523
 31
0.0
  0
LINE
  5
178A
  8
2
 10
141.95303236917081
 20
195.2475618860523
 30
0.0
 11
141.95303236917081
 21
192.74756188605221
 31
0.0
  0
LINE
  5
178B
  8
2
 10
141.0060323691709
 20
195.2475618860523
 30
0.0
 11
141.9530323691709
 21
193.6073097712846
 31
0.0
  0
LINE
  5
178C
  8
2
 10
127.2030318687771
 20
192.74756188605221
 30
0.0
 11
127.2030318687771
 21
195.2475618860523
 31
0.0
  0
LINE
  5
178D
  8
2
 10
129.95303236917081
 20
195.2475618860523
 30
0.0
 11
129.95303236917081
 21
192.74756188605221
 31
0.0
  0
LINE
  5
178E
  8
2
 10
130.9000323691709
 20
195.2475618860523
 30
0.0
 11
129.9530323691709
 21
193.6073097712846
 31
0.0
  0
LINE
  5
178F
  8
0
 10
129.9530323691709
 20
195.2475618860523
 30
0.0
 11
141.95303236917101
 21
195.2475618860523
 31
0.0
  0
LINE
  5
1790
  8
0
 10
141.95303236917081
 20
215.7475618860523
 30
0.0
 11
129.95303236917081
 21
215.74756188605221
 31
0.0
  0
LINE
  5
1791
  8
0
 10
131.95303236917081
 20
217.74756188605221
 30
0.0
 11
129.95303236917081
 21
215.74756188605221
 31
0.0
  0
LINE
  5
1792
  8
0
 10
139.95303236917081
 20
217.7475618860523
 30
0.0
 11
141.95303236917081
 21
215.7475618860523
 31
0.0
  0
LINE
  5
1793
  8
0
 10
141.95303236917081
 20
195.2475618860523
 30
0.0
 11
141.95303236917081
 21
215.7475618860523
 31
0.0
  0
LINE
  5
1794
  8
3
 10
141.0060323691709
 20
195.2475618860523
 30
0.0
 11
141.0060323691709
 21
216.6945618860523
 31
0.0
  0
LINE
  5
1795
  8
3
 10
130.9000323691709
 20
195.2475618860523
 30
0.0
 11
130.9000323691709
 21
216.69456188605221
 31
0.0
  0
LINE
  5
1796
  8
0
 10
129.95303236917081
 20
195.2475618860523
 30
0.0
 11
129.95303236917081
 21
215.74756188605221
 31
0.0
  0
LINE
  5
1797
  8
0
 10
139.95303236917081
 20
217.7475618860523
 30
0.0
 11
131.95303236917081
 21
217.74756188605221
 31
0.0
  0
ARC
  5
1798
  8
2
 10
116.03236826229529
 20
129.24756190721581
 30
0.0
 40
41.643408309400733
 50
168.22236534138659
 51
191.7776346586129
  0
LINE
  5
1799
  8
0
 10
78.953032390334386
 20
115.9685057365414
 30
0.0
 11
68.953032390334442
 21
115.9685057365414
 31
0.0
  0
LINE
  5
179A
  8
0
 10
78.953032390334442
 20
140.21721700302089
 30
0.0
 11
68.953032390334442
 21
140.21721700302089
 31
0.0
  0
LINE
  5
179B
  8
0
 10
78.953032390334556
 20
151.76422238728361
 30
0.0
 11
68.953032390334442
 21
151.76422238728361
 31
0.0
  0
LINE
  5
179C
  8
0
 10
78.953032390334442
 20
103.2667998148311
 30
0.0
 11
68.953032390334442
 21
103.2667998148311
 31
0.0
  0
LINE
  5
179D
  8
0
 10
78.953032390334442
 20
151.76422238728361
 30
0.0
 11
78.953032390334442
 21
103.2667998148311
 31
0.0
  0
LINE
  5
179E
  8
0
 10
68.953032390334442
 20
151.76422238728361
 30
0.0
 11
68.953032390334442
 21
103.2667998148311
 31
0.0
  0
LINE
  5
179F
  8
1
 10
83.953032390334329
 20
129.2475619072157
 30
0.0
 11
41.453032390334442
 21
129.2475619072157
 31
0.0
  0
LINE
  5
17A0
  8
0
 10
48.453032390334442
 20
135.2475619072157
 30
0.0
 11
48.453032390334442
 21
123.2475619072157
 31
0.0
  0
LINE
  5
17A1
  8
0
 10
46.453032390334442
 20
125.2475619072157
 30
0.0
 11
48.453032390334442
 21
123.2475619072157
 31
0.0
  0
LINE
  5
17A2
  8
3
 10
68.953032390334442
 20
124.1945619072156
 30
0.0
 11
47.506032390334553
 21
124.1945619072157
 31
0.0
  0
LINE
  5
17A3
  8
0
 10
68.953032390334442
 20
123.2475619072157
 30
0.0
 11
48.453032390334442
 21
123.2475619072157
 31
0.0
  0
LINE
  5
17A4
  8
0
 10
46.453032390334442
 20
133.2475619072157
 30
0.0
 11
46.453032390334442
 21
125.2475619072157
 31
0.0
  0
LINE
  5
17A5
  8
0
 10
46.453032390334442
 20
133.2475619072157
 30
0.0
 11
48.453032390334442
 21
135.2475619072157
 31
0.0
  0
LINE
  5
17A6
  8
0
 10
68.953032390334442
 20
135.2475619072157
 30
0.0
 11
48.453032390334442
 21
135.2475619072157
 31
0.0
  0
LINE
  5
17A7
  8
3
 10
68.953032390334442
 20
134.30056190721561
 30
0.0
 11
47.50603239033444
 21
134.30056190721569
 31
0.0
  0
ARC
  5
17A8
  8
2
 10
71.66912056636977
 20
126.13178875932731
 30
0.0
 40
7.0
 50
309.72011400732811
 51
333.8575899675007
  0
ARC
  5
17A9
  8
2
 10
71.669120566369656
 20
132.3633350551041
 30
0.0
 40
7.0
 50
26.14241003249937
 51
50.279885992671822
  0
LINE
  5
17AA
  8
2
 10
77.953032390334442
 20
123.0475624076085
 30
0.0
 11
77.953032390334442
 21
135.4475614068227
 31
0.0
  0
LINE
  5
17AB
  8
2
 10
78.953032390334442
 20
120.7475619072158
 30
0.0
 11
71.453032390334442
 21
120.7475619072157
 31
0.0
  0
LINE
  5
17AC
  8
2
 10
71.453032390334442
 20
120.7475619072157
 30
0.0
 11
71.453032390334442
 21
137.7475619072157
 31
0.0
  0
LINE
  5
17AD
  8
2
 10
78.953032390334442
 20
137.7475619072157
 30
0.0
 11
71.453032390334442
 21
137.74756190721581
 31
0.0
  0
LINE
  5
17AE
  8
2
 10
71.453032390334442
 20
121.497561907216
 30
0.0
 11
68.953032390334442
 21
121.497561907216
 31
0.0
  0
LINE
  5
17AF
  8
2
 10
68.953032390334442
 20
124.1945619072156
 30
0.0
 11
70.593284505102133
 21
123.2475619072156
 31
0.0
  0
LINE
  5
17B0
  8
2
 10
68.953032390334442
 20
134.30056190721569
 30
0.0
 11
70.593284505102133
 21
135.24756190721561
 31
0.0
  0
LINE
  5
17B1
  8
0
 10
68.953032390334442
 20
123.2475619072156
 30
0.0
 11
68.953032390334442
 21
135.2475619072157
 31
0.0
  0
LINE
  5
17B2
  8
2
 10
71.453032390334442
 20
136.99756190721601
 30
0.0
 11
68.953032390334442
 21
136.99756190721601
 31
0.0
  0
LINE
  5
17B3
  8
0
 10
135.95303236890911
 20
73.247561928379127
 30
0.0
 11
135.95303236917101
 21
63.247561928379127
 31
0.0
  0
LINE
  5
17B4
  8
0
 10
139.95303236917081
 20
40.747561928379007
 30
0.0
 11
131.95303236917081
 21
40.74756192837912
 31
0.0
  0
LINE
  5
17B5
  8
0
 10
129.95303236917081
 20
63.247561928379127
 30
0.0
 11
129.95303236917081
 21
42.74756192837912
 31
0.0
  0
LINE
  5
17B6
  8
3
 10
130.9000323691709
 20
63.247561928379127
 30
0.0
 11
130.9000323691709
 21
41.800561928379231
 31
0.0
  0
LINE
  5
17B7
  8
3
 10
141.0060323691709
 20
63.247561928379127
 30
0.0
 11
141.0060323691709
 21
41.800561928379118
 31
0.0
  0
LINE
  5
17B8
  8
0
 10
141.95303236917081
 20
63.247561928379127
 30
0.0
 11
141.95303236917081
 21
42.747561928379007
 31
0.0
  0
LINE
  5
17B9
  8
0
 10
139.95303236917081
 20
40.747561928379007
 30
0.0
 11
141.95303236917081
 21
42.747561928379007
 31
0.0
  0
LINE
  5
17BA
  8
0
 10
131.95303236917081
 20
40.74756192837912
 30
0.0
 11
129.95303236917081
 21
42.74756192837912
 31
0.0
  0
LINE
  5
17BB
  8
0
 10
141.95303236917081
 20
42.74756192837912
 30
0.0
 11
129.95303236917081
 21
42.74756192837912
 31
0.0
  0
LINE
  5
17BC
  8
0
 10
129.9530323691709
 20
63.247561928379127
 30
0.0
 11
141.95303236917101
 21
63.247561928379127
 31
0.0
  0
LINE
  5
17BD
  8
2
 10
130.9000323691709
 20
63.247561928379127
 30
0.0
 11
129.9530323691709
 21
64.887814043146818
 31
0.0
  0
LINE
  5
17BE
  8
2
 10
129.95303236917081
 20
63.247561928379127
 30
0.0
 11
129.95303236917081
 21
65.747561928379127
 31
0.0
  0
LINE
  5
17BF
  8
2
 10
127.2030318687771
 20
65.747561928379127
 30
0.0
 11
127.2030318687771
 21
63.247561928379127
 31
0.0
  0
LINE
  5
17C0
  8
2
 10
141.0060323691709
 20
63.247561928379127
 30
0.0
 11
141.9530323691709
 21
64.887814043146818
 31
0.0
  0
LINE
  5
17C1
  8
2
 10
141.95303236917081
 20
63.247561928379127
 30
0.0
 11
141.95303236917081
 21
65.747561928379127
 31
0.0
  0
LINE
  5
17C2
  8
2
 10
142.70303186877709
 20
65.747561928379127
 30
0.0
 11
142.70303186877709
 21
63.247561928379127
 31
0.0
  0
LINE
  5
17C3
  8
2
 10
126.4530318687768
 20
68.683489490939564
 30
0.0
 11
143.4530318687768
 21
70.436915265904474
 31
0.0
  0
ARC
  5
17C4
  8
2
 10
132.6992115547485
 20
65.52354655940519
 30
0.0
 40
7.0
 50
106.14241003249791
 51
153.16514687457439
  0
ARC
  5
17C5
  8
2
 10
138.06880501666521
 20
65.963650104414342
 30
0.0
 40
7.0
 50
39.720114007327922
 51
63.857589967500452
  0
LINE
  5
17C6
  8
2
 10
130.75303136838289
 20
72.247561928379113
 30
0.0
 11
141.15303136838381
 21
72.247561928379113
 31
0.0
  0
LINE
  5
17C7
  8
2
 10
126.4530318687768
 20
73.247561928379071
 30
0.0
 11
126.4530318687768
 21
65.747561928379127
 31
0.0
  0
LINE
  5
17C8
  8
2
 10
143.4530318687768
 20
73.247561928379127
 30
0.0
 11
143.4530318687768
 21
65.747561928379127
 31
0.0
  0
LINE
  5
17C9
  8
2
 10
126.4530318687767
 20
65.747561928379071
 30
0.0
 11
143.4530318687768
 21
65.747561928379184
 31
0.0
  0
LINE
  5
17CA
  8
1
 10
135.95303236917101
 20
78.247561928379127
 30
0.0
 11
135.95303236917121
 21
35.747561928379127
 31
0.0
  0
LINE
  5
17CB
  8
1
 10
134.9530323691709
 20
78.247561928379127
 30
0.0
 11
134.9530323691709
 21
58.247561928379127
 31
0.0
  0
LINE
  5
17CC
  8
0
 10
152.95303236917121
 20
63.247561928379127
 30
0.0
 11
113.9530323691709
 21
63.247561928379127
 31
0.0
  0
LINE
  5
17CD
  8
0
 10
152.95303236917121
 20
73.247561928379127
 30
0.0
 11
113.9530323691709
 21
73.247561928379127
 31
0.0
  0
LINE
  5
17CE
  8
0
 10
113.9530323691708
 20
73.247561928379127
 30
0.0
 11
113.9530323691709
 21
63.247561928379127
 31
0.0
  0
LINE
  5
17CF
  8
0
 10
152.95303236917121
 20
73.247561928379127
 30
0.0
 11
152.9530323691713
 21
63.247561928379127
 31
0.0
  0
LINE
  5
17D0
  8
2
 10
198.45303234800741
 20
136.99756190721601
 30
0.0
 11
200.95303234800741
 21
136.99756190721601
 31
0.0
  0
LINE
  5
17D1
  8
0
 10
200.95303234800741
 20
123.2475619072156
 30
0.0
 11
200.95303234800741
 21
135.2475619072157
 31
0.0
  0
LINE
  5
17D2
  8
2
 10
200.95303234800741
 20
134.30056190721569
 30
0.0
 11
199.31278023323969
 21
135.24756190721561
 31
0.0
  0
LINE
  5
17D3
  8
2
 10
200.95303234800741
 20
124.1945619072156
 30
0.0
 11
199.31278023323969
 21
123.2475619072156
 31
0.0
  0
LINE
  5
17D4
  8
2
 10
198.45303234800741
 20
121.497561907216
 30
0.0
 11
200.95303234800741
 21
121.497561907216
 31
0.0
  0
LINE
  5
17D5
  8
2
 10
190.95303234800741
 20
137.7475619072157
 30
0.0
 11
198.45303234800741
 21
137.74756190721581
 31
0.0
  0
LINE
  5
17D6
  8
2
 10
198.45303234800741
 20
120.7475619072157
 30
0.0
 11
198.45303234800741
 21
137.7475619072157
 31
0.0
  0
LINE
  5
17D7
  8
2
 10
190.95303234800741
 20
120.7475619072158
 30
0.0
 11
198.45303234800741
 21
120.7475619072157
 31
0.0
  0
LINE
  5
17D8
  8
2
 10
191.95303234800741
 20
123.0475624076085
 30
0.0
 11
191.95303234800741
 21
135.4475614068227
 31
0.0
  0
ARC
  5
17D9
  8
2
 10
198.2369441719722
 20
132.3633350551041
 30
0.0
 40
7.0
 50
129.72011400732811
 51
153.85758996750059
  0
ARC
  5
17DA
  8
2
 10
198.23694417197211
 20
126.13178875932731
 30
0.0
 40
7.0
 50
206.14241003249941
 51
230.27988599267181
  0
LINE
  5
17DB
  8
2
 10
193.76367901048221
 20
137.7475619072157
 30
0.0
 11
193.76367901048189
 21
120.7475619072157
 31
0.0
  0
LINE
  5
17DC
  8
3
 10
200.95303234800741
 20
134.30056190721561
 30
0.0
 11
222.4000323480075
 21
134.30056190721569
 31
0.0
  0
LINE
  5
17DD
  8
0
 10
200.95303234800741
 20
135.2475619072157
 30
0.0
 11
221.4530323480075
 21
135.2475619072157
 31
0.0
  0
LINE
  5
17DE
  8
0
 10
223.4530323480075
 20
133.2475619072157
 30
0.0
 11
221.4530323480075
 21
135.2475619072157
 31
0.0
  0
LINE
  5
17DF
  8
0
 10
223.4530323480075
 20
133.2475619072157
 30
0.0
 11
223.4530323480075
 21
125.2475619072157
 31
0.0
  0
LINE
  5
17E0
  8
0
 10
200.95303234800741
 20
123.2475619072157
 30
0.0
 11
221.4530323480075
 21
123.2475619072157
 31
0.0
  0
LINE
  5
17E1
  8
3
 10
200.95303234800741
 20
124.1945619072156
 30
0.0
 11
222.40003234800739
 21
124.1945619072157
 31
0.0
  0
LINE
  5
17E2
  8
0
 10
223.4530323480075
 20
125.2475619072157
 30
0.0
 11
221.4530323480075
 21
123.2475619072157
 31
0.0
  0
LINE
  5
17E3
  8
0
 10
221.4530323480075
 20
135.2475619072157
 30
0.0
 11
221.4530323480075
 21
123.2475619072157
 31
0.0
  0
LINE
  5
17E4
  8
1
 10
185.95303234800761
 20
129.2475619072157
 30
0.0
 11
228.4530323480075
 21
129.2475619072157
 31
0.0
  0
LINE
  5
17E5
  8
0
 10
200.95303234800741
 20
151.76422238728361
 30
0.0
 11
200.95303234800741
 21
103.2667998148311
 31
0.0
  0
LINE
  5
17E6
  8
0
 10
190.95303234800741
 20
151.76422238728361
 30
0.0
 11
190.95303234800741
 21
103.2667998148311
 31
0.0
  0
LINE
  5
17E7
  8
0
 10
190.95303234800741
 20
103.2667998148311
 30
0.0
 11
200.95303234800741
 21
103.2667998148311
 31
0.0
  0
LINE
  5
17E8
  8
0
 10
190.95303234800741
 20
113.08175439152311
 30
0.0
 11
200.95303234800741
 21
113.08175439152311
 31
0.0
  0
LINE
  5
17E9
  8
0
 10
190.95303234800741
 20
140.79456727315201
 30
0.0
 11
200.95303234800761
 21
140.79456727315201
 31
0.0
  0
LINE
  5
17EA
  8
0
 10
190.9530323480073
 20
151.76422238728361
 30
0.0
 11
200.95303234800741
 21
151.76422238728361
 31
0.0
  0
LINE
  5
17EB
  8
0
 10
133.95303236998049
 20
151.76422238728361
 30
0.0
 11
152.9530323691707
 21
140.79456727315201
 31
0.0
  0
LINE
  5
17EC
  8
0
 10
113.9530323691709
 20
140.21721700302089
 30
0.0
 11
133.95303236998049
 21
151.76422238728361
 31
0.0
  0
LINE
  5
17ED
  8
0
 10
135.9530323683791
 20
103.2667998148311
 30
0.0
 11
113.953032369171
 21
115.9685057365414
 31
0.0
  0
LINE
  5
17EE
  8
0
 10
152.9530323691711
 20
113.08175439152311
 30
0.0
 11
135.95303236837921
 21
103.2667998148311
 31
0.0
  0
TEXT
  5
17EF
  8
3
 10
118.9530323691709
 20
127.3725619072157
 30
0.0
 40
3.5
  1
10
 50
90.0
 41
0.75
  7
07500
 72
     1
 11
115.4530323691709
 21
129.2475619072157
 31
0.0
 73
     3
  0
TEXT
  5
17F0
  8
3
 10
126.7493867442702
 20
141.83169295423551
 30
0.0
 40
3.5
  1
9
 50
30.000000000001251
 41
0.75
  7
07500
 72
     1
 11
125.7030323848449
 21
145.269031867481
 31
0.0
 73
     3
  0
TEXT
  5
17F1
  8
3
 10
141.1952601402395
 20
141.80941754269779
 30
0.0
 40
3.5
  1
8
 50
329.99999999999869
 41
0.75
  7
07500
 72
     1
 11
143.70303236855099
 21
144.40300645594331
 31
0.0
 73
     3
  0
TEXT
  5
17F2
  8
3
 10
147.9530323691709
 20
130.1225619072157
 30
0.0
 40
3.5
  1
7
 50
270.0
 41
0.75
  7
07500
 72
     1
 11
151.4530323691709
 21
129.2475619072157
 31
0.0
 73
     3
  0
LINE
  5
17F3
  8
1
 10
103.9530323903343
 20
129.2475619072157
 30
0.0
 11
165.9530323480075
 21
129.2475619072157
 31
0.0
  0
LINE
  5
17F4
  8
1
 10
134.9530323691709
 20
98.247561928379127
 30
0.0
 11
134.9530323691709
 21
160.24756188605221
 31
0.0
  0
LINE
  5
17F5
  8
0
 10
152.9530323691711
 20
113.08175439152311
 30
0.0
 11
152.95303236917081
 21
140.79456727315201
 31
0.0
  0
LINE
  5
17F6
  8
0
 10
113.9530323691708
 20
115.9685057365414
 30
0.0
 11
113.9530323691709
 21
140.21721700302089
 31
0.0
  0
CIRCLE
  5
17F7
  8
0
 10
134.9530323691709
 20
129.2475619072157
 30
0.0
 40
8.5
  0
LINE
  5
17F8
  8
0
 10
139.9530323659165
 20
131.5569629820958
 30
0.0
 11
139.9530323659165
 21
126.9381608285791
 31
0.0
  0
LINE
  5
17F9
  8
0
 10
139.95303236591289
 20
126.93816083233619
 30
0.0
 11
135.9530323659165
 21
124.62875975557709
 31
0.0
  0
LINE
  5
17FA
  8
0
 10
135.95303236917249
 20
124.6287597574598
 30
0.0
 11
131.95303236917249
 21
126.9381608342175
 31
0.0
  0
LINE
  5
17FB
  8
0
 10
131.95303237242851
 20
126.9381608323385
 30
0.0
 11
131.95303237242851
 21
131.55696298585519
 31
0.0
  0
LINE
  5
17FC
  8
0
 10
131.95303237242851
 20
131.5569629820954
 30
0.0
 11
135.95303237242851
 21
133.8663640588544
 31
0.0
  0
LINE
  5
17FD
  8
0
 10
135.95303236917249
 20
133.8663640569718
 30
0.0
 11
139.95303236917249
 21
131.55696298021411
 31
0.0
  0
LINE
  5
17FE
  8
1
 10
135.9530323691709
 20
118.2931107571123
 30
0.0
 11
135.9530323691709
 21
140.20201305731899
 31
0.0
  0
TEXT
  5
17FF
  8
3
 10
145.5768299831511
 20
114.5966046502494
 30
0.0
 40
3.5
  1
12
 50
210.00000000000119
 41
0.75
  7
07500
 72
     1
 11
145.70303235105541
 21
110.62801573700391
 31
0.0
 73
     3
  0
TEXT
  5
1800
  8
3
 10
127.5896907122398
 20
113.86888006322179
 30
0.0
 40
3.5
  1
11
 50
149.99999999999869
 41
0.75
  7
07500
 72
     1
 11
124.7030323697727
 21
111.4940411499764
 31
0.0
 73
     3
  0
TEXT
  5
193E
  8
0
 62
     3
 10
0.0
 20
0.0
 30
0.0
 40
10.0
  1
MBSPC1823F
  7
STANDARD1
  0
ENDSEC
  0
EOF
