  0
SECTION
  2
HEADER
  9
$ACADVER
  1
AC1009
  9
$INSBASE
 10
0.0
 20
0.0
 30
0.0
  9
$EXTMIN
 10
0.0
 20
-2.960436562073669
 30
0.0
  9
$EXTMAX
 10
133.60331891719991
 20
227.1033189172
 30
0.0
  9
$LIMMIN
 10
0.0
 20
0.0
  9
$LIMMAX
 10
192.5
 20
135.0
  9
$ORTHOMODE
 70
     1
  9
$REGENMODE
 70
     1
  9
$FILLMODE
 70
     1
  9
$QTEXTMODE
 70
     0
  9
$MIRRTEXT
 70
     0
  9
$DRAGMODE
 70
     2
  9
$LTSCALE
 40
10.0
  9
$OSMODE
 70
    37
  9
$ATTMODE
 70
     1
  9
$TEXTSIZE
 40
0.2
  9
$TRACEWID
 40
0.05
  9
$TEXTSTYLE
  7
STANDARD
  9
$CLAYER
  8
0
  9
$CELTYPE
  6
BYLAYER
  9
$CECOLOR
 62
   256
  9
$DIMSCALE
 40
1.0
  9
$DIMASZ
 40
3.0
  9
$DIMEXO
 40
2.0
  9
$DIMDLI
 40
6.0
  9
$DIMRND
 40
0.0
  9
$DIMDLE
 40
0.0
  9
$DIMEXE
 40
2.0
  9
$DIMTP
 40
495.0
  9
$DIMTM
 40
0.0
  9
$DIMTXT
 40
3.0
  9
$DIMCEN
 40
0.0
  9
$DIMTSZ
 40
0.0
  9
$DIMTOL
 70
     0
  9
$DIMLIM
 70
     0
  9
$DIMTIH
 70
     0
  9
$DIMTOH
 70
     0
  9
$DIMSE1
 70
     0
  9
$DIMSE2
 70
     0
  9
$DIMTAD
 70
     1
  9
$DIMZIN
 70
     8
  9
$DIMBLK
  1

  9
$DIMASO
 70
     0
  9
$DIMSHO
 70
     0
  9
$DIMPOST
  1

  9
$DIMAPOST
  1

  9
$DIMALT
 70
     0
  9
$DIMALTD
 70
     2
  9
$DIMALTF
 40
25.399999999999999
  9
$DIMLFAC
 40
1.0
  9
$DIMTOFL
 70
     1
  9
$DIMTVP
 40
0.0
  9
$DIMTIX
 70
     1
  9
$DIMSOXD
 70
     0
  9
$DIMSAH
 70
     0
  9
$DIMBLK1
  1

  9
$DIMBLK2
  1

  9
$DIMSTYLE
  2
STANDARD
  9
$DIMCLRD
 70
     0
  9
$DIMCLRE
 70
     0
  9
$DIMCLRT
 70
     0
  9
$DIMTFAC
 40
1.0
  9
$DIMGAP
 40
1.0
  9
$LUNITS
 70
     2
  9
$LUPREC
 70
     1
  9
$SKETCHINC
 40
0.1
  9
$FILLETRAD
 40
0.0
  9
$AUNITS
 70
     0
  9
$AUPREC
 70
     0
  9
$MENU
  1
E:\r13\win\SUPPORT\ACAD
  9
$ELEVATION
 40
0.0
  9
$PELEVATION
 40
0.0
  9
$THICKNESS
 40
0.0
  9
$LIMCHECK
 70
     0
  9
$BLIPMODE
 70
     0
  9
$CHAMFERA
 40
0.5
  9
$CHAMFERB
 40
0.5
  9
$SKPOLY
 70
     0
  9
$TDCREATE
 40
2450647.4165519681
  9
$TDUPDATE
 40
2458428.551261574
  9
$TDINDWG
 40
0.0752337384
  9
$TDUSRTIMER
 40
0.0752337384
  9
$USRTIMER
 70
     1
  9
$ANGBASE
 50
0.0
  9
$ANGDIR
 70
     0
  9
$PDMODE
 70
     0
  9
$PDSIZE
 40
0.0
  9
$PLINEWID
 40
0.0
  9
$COORDS
 70
     1
  9
$SPLFRAME
 70
     0
  9
$SPLINETYPE
 70
     6
  9
$SPLINESEGS
 70
     8
  9
$ATTDIA
 70
     0
  9
$ATTREQ
 70
     1
  9
$HANDLING
 70
     1
  9
$HANDSEED
  5
293F
  9
$SURFTAB1
 70
     6
  9
$SURFTAB2
 70
     6
  9
$SURFTYPE
 70
     6
  9
$SURFU
 70
     6
  9
$SURFV
 70
     6
  9
$UCSNAME
  2

  9
$UCSORG
 10
0.0
 20
0.0
 30
0.0
  9
$UCSXDIR
 10
1.0
 20
0.0
 30
0.0
  9
$UCSYDIR
 10
0.0
 20
1.0
 30
0.0
  9
$PUCSNAME
  2

  9
$PUCSORG
 10
0.0
 20
0.0
 30
0.0
  9
$PUCSXDIR
 10
1.0
 20
0.0
 30
0.0
  9
$PUCSYDIR
 10
0.0
 20
1.0
 30
0.0
  9
$USERI1
 70
     3
  9
$USERI2
 70
     1
  9
$USERI3
 70
     0
  9
$USERI4
 70
     0
  9
$USERI5
 70
     0
  9
$USERR1
 40
0.5
  9
$USERR2
 40
3.0
  9
$USERR3
 40
3.0
  9
$USERR4
 40
3.0
  9
$USERR5
 40
10.0
  9
$WORLDVIEW
 70
     1
  9
$SHADEDGE
 70
     3
  9
$SHADEDIF
 70
    70
  9
$TILEMODE
 70
     1
  9
$MAXACTVP
 70
    16
  9
$PLIMCHECK
 70
     0
  9
$PEXTMIN
 10
1.0000000000000000E+020
 20
1.0000000000000000E+020
 30
1.0000000000000000E+020
  9
$PEXTMAX
 10
-1.0000000000000000E+020
 20
-1.0000000000000000E+020
 30
-1.0000000000000000E+020
  9
$PLIMMIN
 10
0.0
 20
0.0
  9
$PLIMMAX
 10
12.0
 20
9.0
  9
$UNITMODE
 70
     0
  9
$VISRETAIN
 70
     0
  9
$PLINEGEN
 70
     0
  9
$PSLTSCALE
 70
     0
  0
ENDSEC
  0
SECTION
  2
TABLES
  0
TABLE
  2
VPORT
 70
     1
  0
VPORT
  2
*ACTIVE
 70
     0
 10
0.0
 20
0.0
 11
1.0
 21
1.0
 12
413.92733564013838
 22
150.0
 13
0.0
 23
0.0
 14
2.5
 24
2.5
 15
10.0
 25
10.0
 16
0.0
 26
0.0
 36
1.0
 17
0.0
 27
0.0
 37
0.0
 40
300.0
 41
2.7595155709342558
 42
50.0
 43
0.0
 44
0.0
 50
0.0
 51
0.0
 71
     0
 72
   100
 73
     1
 74
     0
 75
     0
 76
     0
 77
     0
 78
     0
  0
ENDTAB
  0
TABLE
  2
LTYPE
 70
     4
  0
LTYPE
  2
CONTINUOUS
 70
     0
  3
Solid Line
 72
    65
 73
     0
 40
0.0
  0
LTYPE
  2
CENTER
 70
     0
  3
____ _ ____ _ ____ _ ____ _ ____ _ ____ _ ____
 72
    65
 73
     4
 40
2.0
 49
1.25
 49
-0.25
 49
0.25
 49
-0.25
  0
LTYPE
  2
HIDDEN
 70
     0
  3
_ _ _ _ _ _ _ _ _ _ _ _ _ _ _ _ _ _ _ _ _ _ _
 72
    65
 73
     2
 40
0.375
 49
0.25
 49
-0.125
  0
LTYPE
  2
PHANTOM2
 70
     0
  3
___ _ _ ___ _ _ ___ _ _ ___ _ _
 72
    65
 73
     6
 40
1.25
 49
0.625
 49
-0.125
 49
0.125
 49
-0.125
 49
0.125
 49
-0.125
  0
ENDTAB
  0
TABLE
  2
LAYER
 70
     4
  0
LAYER
  2
0
 70
     0
 62
     7
  6
CONTINUOUS
  0
LAYER
  2
1
 70
     0
 62
     1
  6
CENTER
  0
LAYER
  2
3
 70
     0
 62
     3
  6
CONTINUOUS
  0
LAYER
  2
2
 70
     0
 62
     2
  6
HIDDEN
  0
ENDTAB
  0
TABLE
  2
STYLE
 70
     2
  0
STYLE
  2
STANDARD
 70
     0
 40
0.0
 41
1.0
 50
0.0
 71
     0
 42
0.2
  3
SIMPLEX
  4
BIGFONT
  0
STYLE
  2
STANDARD1
 70
     0
 40
0.0
 41
1.0
 50
0.0
 71
     0
 42
3.0
  3
txt
  4

  0
ENDTAB
  0
TABLE
  2
VIEW
 70
     0
  0
ENDTAB
  0
TABLE
  2
UCS
 70
     0
  0
ENDTAB
  0
TABLE
  2
APPID
 70
     7
  0
APPID
  2
ACAD
 70
     0
  0
APPID
  2
ACAD_MLEADERVER
 70
     0
  0
APPID
  2
ACAD_NAV_VCDISPLAY
 70
     0
  0
APPID
  2
ACAD_EXEMPT_FROM_CAD_STANDARDS
 70
     0
  0
APPID
  2
ACAD_DSTYLE_DIMRADIAL_EXTENSION
 70
     0
  0
APPID
  2
ACAD_DSTYLE_DIMJAG
 70
     0
  0
APPID
  2
ACAD_DSTYLE_DIMTALN
 70
     0
  0
ENDTAB
  0
TABLE
  2
DIMSTYLE
 70
     1
  0
DIMSTYLE
  2
STANDARD
 70
     0
  3

  4

  5

  6

  7

 40
1.0
 41
0.18
 42
0.0625
 43
0.38
 44
0.18
 45
0.0
 46
0.0
 47
0.0
 48
0.0
140
0.18
141
0.09
142
0.0
143
25.399999999999999
144
1.0
145
0.0
146
1.0
147
0.09
 71
     0
 72
     0
 73
     1
 74
     1
 75
     0
 76
     0
 77
     0
 78
     0
170
     0
171
     2
172
     0
173
     0
174
     0
175
     0
176
     0
177
     0
178
     0
  0
ENDTAB
  0
ENDSEC
  0
SECTION
  2
BLOCKS
  0
BLOCK
  8
0
  2
$MODEL_SPACE
 70
     0
 10
0.0
 20
0.0
 30
0.0
  3
$MODEL_SPACE
  1

  0
ENDBLK
  5
329
  8
0
  0
BLOCK
 67
     1
  8
0
  2
$PAPER_SPACE
 70
     0
 10
0.0
 20
0.0
 30
0.0
  3
$PAPER_SPACE
  1

  0
ENDBLK
  5
327
 67
     1
  8
0
  0
ENDSEC
  0
SECTION
  2
ENTITIES
  0
TEXT
  5
1817
  8
0
 62
     3
 10
0.0
 20
0.0
 30
0.0
 40
10.0
  1
MBSLAL04
  7
STANDARD1
  0
CIRCLE
  5
186C
  8
0
 10
99.999999999999957
 20
193.5
 30
0.0
 40
1.6209999999999991
  0
CIRCLE
  5
186D
  8
3
 10
99.999999999999957
 20
193.5
 30
0.0
 40
2.0
  0
CIRCLE
  5
1941
  8
0
 10
99.999999999999957
 20
193.5
 30
0.0
 40
14.859999998000029
  0
CIRCLE
  5
1942
  8
0
 10
99.999999999999957
 20
193.5
 30
0.0
 40
28.603318917199999
  0
CIRCLE
  5
1946
  8
0
 10
99.999999999999957
 20
193.5
 30
0.0
 40
4.013200000000011
  0
LINE
  5
194C
  8
0
 10
128.60331891719991
 20
75.399999999999977
 30
0.0
 11
128.60331891719991
 21
113.5
 31
0.0
  0
LINE
  5
194D
  8
0
 10
71.396681082799944
 20
113.5
 30
0.0
 11
71.396681082799944
 21
75.399999999999977
 31
0.0
  0
CIRCLE
  5
196D
  8
0
 10
99.999997693099985
 20
96.05015486329998
 30
0.0
 40
0.7619548632976028
  0
LINE
  5
1987
  8
0
 10
71.396681082799944
 20
75.399999999999977
 30
0.0
 11
128.60331891719991
 21
75.399999999999977
 31
0.0
  0
LINE
  5
1988
  8
0
 10
71.396681082799944
 20
113.5
 30
0.0
 11
128.60331891719991
 21
113.5
 31
0.0
  0
CIRCLE
  5
1989
  8
3
 10
90.926218833399943
 20
198.73875000000001
 30
0.0
 40
1.5
  0
CIRCLE
  5
198A
  8
0
 10
90.926218833399943
 20
198.73875000000001
 30
0.0
 40
1.2295
  0
CIRCLE
  5
198B
  8
3
 10
109.0737811665999
 20
198.73875000000001
 30
0.0
 40
1.5
  0
CIRCLE
  5
198C
  8
0
 10
109.0737811665999
 20
198.73875000000001
 30
0.0
 40
1.2295
  0
CIRCLE
  5
198D
  8
3
 10
99.999999999999957
 20
183.02250000000001
 30
0.0
 40
1.5
  0
CIRCLE
  5
198E
  8
0
 10
99.999999999999957
 20
183.02250000000001
 30
0.0
 40
1.2295
  0
LINE
  5
1994
  8
1
 10
99.999999999999957
 20
227.1033189172
 30
0.0
 11
99.999999999999957
 21
159.8966810828
 31
0.0
  0
LINE
  5
1995
  8
1
 10
66.396681082799944
 20
193.5
 30
0.0
 11
133.60331891719991
 21
193.5
 31
0.0
  0
LINE
  5
1996
  8
1
 10
99.999999999999957
 20
118.5
 30
0.0
 11
99.999999999999957
 21
45.0
 31
0.0
  0
CIRCLE
  5
1997
  8
1
 10
99.999999999999957
 20
193.5
 30
0.0
 40
10.477499998656389
  0
LINE
  5
1998
  8
1
 10
106.04269225348391
 20
196.98874999977559
 30
0.0
 11
112.10487007971589
 21
200.4887500002244
 31
0.0
  0
LINE
  5
1999
  8
1
 10
93.957307746515923
 20
196.98874999977551
 30
0.0
 11
87.895129920283992
 21
200.4887500002244
 31
0.0
  0
LINE
  5
1B3D
  8
2
 10
85.140000001999937
 20
113.4999999999999
 30
0.0
 11
85.140000001999937
 21
112.4999999999999
 31
0.0
  0
LINE
  5
1B3E
  8
2
 10
114.85999999800001
 20
113.4999999999999
 30
0.0
 11
114.85999999800001
 21
112.4999999999999
 31
0.0
  0
LINE
  5
1B3F
  8
2
 10
85.140000001999937
 20
112.4999999999999
 30
0.0
 11
114.85999999800001
 21
112.4999999999999
 31
0.0
  0
LINE
  5
2614
  8
0
 10
112.7
 20
56.349999999999987
 30
0.0
 11
112.6999999999999
 21
75.400000000000006
 31
0.0
  0
LINE
  5
2615
  8
0
 10
87.299999999999955
 20
75.400000000000006
 30
0.0
 11
87.299999999999955
 21
56.349999999999987
 31
0.0
  0
LINE
  5
2616
  8
0
 10
112.7
 20
50.0
 30
0.0
 11
112.7
 21
55.588000000000008
 31
0.0
  0
LINE
  5
2617
  8
0
 10
87.299999999999955
 20
55.588000000000008
 30
0.0
 11
87.299999999999955
 21
50.0
 31
0.0
  0
LINE
  5
2618
  8
0
 10
112.5859999999999
 20
55.588000000000008
 30
0.0
 11
112.5859999999999
 21
56.349999999999987
 31
0.0
  0
LINE
  5
2619
  8
0
 10
87.413999999999945
 20
56.349999999999987
 30
0.0
 11
87.413999999999945
 21
55.588000000000008
 31
0.0
  0
LINE
  5
2625
  8
0
 10
87.299999999999955
 20
56.349999999999987
 30
0.0
 11
112.7
 21
56.349999999999987
 31
0.0
  0
LINE
  5
2627
  8
0
 10
87.299999999999955
 20
50.0
 30
0.0
 11
112.7
 21
50.0
 31
0.0
  0
LINE
  5
2629
  8
0
 10
87.299999999999955
 20
55.588000000000008
 30
0.0
 11
112.7
 21
55.588000000000008
 31
0.0
  0
ARC
  5
27E7
  8
0
 10
102.7939999998999
 20
80.47219483399995
 30
0.0
 40
0.7620000000000006
 50
180.0
 51
221.95998677120031
  0
LINE
  5
27E8
  8
0
 10
102.0320000016999
 20
80.47219483399995
 30
0.0
 11
102.0320000016999
 21
81.572200000099954
 31
0.0
  0
ARC
  5
27E9
  8
0
 10
102.7939999998999
 20
81.572199999999967
 30
0.0
 40
0.7619999981905039
 50
89.999999988998226
 51
179.9999999948997
  0
LINE
  5
27EA
  8
0
 10
102.794
 20
82.334199996399974
 30
0.0
 11
104.33358541449989
 21
82.334199996399974
 31
0.0
  0
ARC
  5
27EB
  8
0
 10
104.33358541449989
 20
83.096199999999968
 30
0.0
 40
0.7620000036824024
 50
270.0
 51
327.18884025350121
  0
ARC
  5
27EC
  8
0
 10
99.999999999899956
 20
85.890199999999965
 30
0.0
 40
5.9182000051217223
 50
327.1888402943992
 51
212.8111597236967
  0
ARC
  5
27ED
  8
0
 10
95.666414585299947
 20
83.096199999999968
 30
0.0
 40
0.7620000036824024
 50
212.81115988769761
 51
269.99999999489972
  0
LINE
  5
27EE
  8
0
 10
95.666414585199945
 20
82.334199996399974
 30
0.0
 11
97.205999999899987
 21
82.334199996399974
 31
0.0
  0
ARC
  5
27EF
  8
0
 10
97.205999999899987
 20
81.572199999999967
 30
0.0
 40
0.7619999981905182
 50
0.0000000058998526
 51
90.0
  0
LINE
  5
27F0
  8
0
 10
97.967999998099913
 20
81.572200000099954
 30
0.0
 11
97.967999998099913
 21
80.47219483399995
 31
0.0
  0
ARC
  5
27F1
  8
0
 10
97.205999999899987
 20
80.47219483399995
 30
0.0
 40
0.7620000000000256
 50
317.84678354579978
 51
0.0
  0
LINE
  5
27F2
  8
0
 10
101.7597636140999
 20
88.938200002399995
 30
0.0
 11
103.5195272456999
 21
85.890199999100005
 31
0.0
  0
LINE
  5
27F3
  8
0
 10
98.240236385699916
 20
88.938200002399995
 30
0.0
 11
101.7597636140999
 21
88.938200002399995
 31
0.0
  0
LINE
  5
27F4
  8
0
 10
96.480472754099935
 20
85.890199999100005
 30
0.0
 11
98.240236385699916
 21
88.938200002399995
 31
0.0
  0
LINE
  5
27F5
  8
0
 10
98.240236385699916
 20
82.842199997499975
 30
0.0
 11
96.480472754099935
 21
85.890199999100005
 31
0.0
  0
LINE
  5
27F6
  8
0
 10
101.7597636140999
 20
82.842199997499975
 30
0.0
 11
98.240236385699916
 21
82.842199997499975
 31
0.0
  0
LINE
  5
27F7
  8
0
 10
103.5195272456999
 20
85.890199999100005
 30
0.0
 11
101.7597636140999
 21
82.842199997499975
 31
0.0
  0
CIRCLE
  5
27F9
  8
0
 10
99.999999999899956
 20
85.890199999999965
 30
0.0
 40
6.3500000000000218
  0
ARC
  5
27FA
  8
0
 10
99.999999999899956
 20
85.890199999999965
 30
0.0
 40
6.0071000000000261
 50
249.89056974480081
 51
290.10943025519919
  0
ARC
  5
27FB
  8
0
 10
99.999999999899956
 20
85.890199999999965
 30
0.0
 40
6.0071000000000181
 50
298.03183827349852
 51
310.0600364396974
  0
ARC
  5
27FC
  8
0
 10
103.1749999998999
 20
81.191199999999924
 30
0.0
 40
0.6985000000000241
 50
318.45281051451269
 51
289.63906419869068
  0
ARC
  5
27FD
  8
0
 10
96.824999999899944
 20
81.191199999999924
 30
0.0
 40
0.6985000000000241
 50
250.3609358013093
 51
221.54718948548719
  0
LINE
  5
281C
  8
0
 10
100.430678534328
 20
91.792708559977257
 30
0.0
 11
100.4306785343083
 21
88.938199999999924
 31
0.0
  0
LINE
  5
281D
  8
0
 10
99.569321465491853
 20
88.938199999999924
 30
0.0
 11
99.569321465472044
 21
91.792708559977285
 31
0.0
  0
ARC
  5
2820
  8
0
 10
99.999999999899956
 20
85.890199999999965
 30
0.0
 40
6.0071000000000181
 50
229.93996356030581
 51
241.9681617265033
  0
ENDSEC
  0
EOF
