  0
SECTION
  2
HEADER
  9
$ACADVER
  1
AC1009
  9
$INSBASE
 10
0.0
 20
0.0
 30
0.0
  9
$EXTMIN
 10
0.0
 20
-2.960436562073669
 30
0.0
  9
$EXTMAX
 10
236.867939987797
 20
198.22033104795781
 30
0.0
  9
$LIMMIN
 10
0.0
 20
0.0
  9
$LIMMAX
 10
192.5
 20
135.0
  9
$ORTHOMODE
 70
     0
  9
$REGENMODE
 70
     1
  9
$FILLMODE
 70
     1
  9
$QTEXTMODE
 70
     0
  9
$MIRRTEXT
 70
     0
  9
$DRAGMODE
 70
     2
  9
$LTSCALE
 40
5.0
  9
$OSMODE
 70
  3071
  9
$ATTMODE
 70
     1
  9
$TEXTSIZE
 40
0.2
  9
$TRACEWID
 40
0.05
  9
$TEXTSTYLE
  7
STANDARD
  9
$CLAYER
  8
0
  9
$CELTYPE
  6
BYLAYER
  9
$CECOLOR
 62
   256
  9
$DIMSCALE
 40
0.5
  9
$DIMASZ
 40
3.0
  9
$DIMEXO
 40
1.0
  9
$DIMDLI
 40
6.0
  9
$DIMRND
 40
0.0
  9
$DIMDLE
 40
0.0
  9
$DIMEXE
 40
1.0
  9
$DIMTP
 40
495.0
  9
$DIMTM
 40
0.0
  9
$DIMTXT
 40
3.0
  9
$DIMCEN
 40
0.0
  9
$DIMTSZ
 40
0.0
  9
$DIMTOL
 70
     0
  9
$DIMLIM
 70
     0
  9
$DIMTIH
 70
     0
  9
$DIMTOH
 70
     0
  9
$DIMSE1
 70
     0
  9
$DIMSE2
 70
     0
  9
$DIMTAD
 70
     1
  9
$DIMZIN
 70
     0
  9
$DIMBLK
  1

  9
$DIMASO
 70
     0
  9
$DIMSHO
 70
     0
  9
$DIMPOST
  1

  9
$DIMAPOST
  1

  9
$DIMALT
 70
     0
  9
$DIMALTD
 70
     2
  9
$DIMALTF
 40
25.399999999999999
  9
$DIMLFAC
 40
1.0
  9
$DIMTOFL
 70
     1
  9
$DIMTVP
 40
0.0
  9
$DIMTIX
 70
     1
  9
$DIMSOXD
 70
     0
  9
$DIMSAH
 70
     0
  9
$DIMBLK1
  1

  9
$DIMBLK2
  1

  9
$DIMSTYLE
  2
STANDARD
  9
$DIMCLRD
 70
     0
  9
$DIMCLRE
 70
     0
  9
$DIMCLRT
 70
     4
  9
$DIMTFAC
 40
1.0
  9
$DIMGAP
 40
1.0
  9
$LUNITS
 70
     2
  9
$LUPREC
 70
     4
  9
$SKETCHINC
 40
0.1
  9
$FILLETRAD
 40
0.0
  9
$AUNITS
 70
     0
  9
$AUPREC
 70
     0
  9
$MENU
  1
E:\r13\win\SUPPORT\ACAD
  9
$ELEVATION
 40
0.0
  9
$PELEVATION
 40
0.0
  9
$THICKNESS
 40
0.0
  9
$LIMCHECK
 70
     0
  9
$BLIPMODE
 70
     0
  9
$CHAMFERA
 40
0.5
  9
$CHAMFERB
 40
0.5
  9
$SKPOLY
 70
     0
  9
$TDCREATE
 40
2450647.4165519681
  9
$TDUPDATE
 40
2456597.6353206709
  9
$TDINDWG
 40
0.0115253935
  9
$TDUSRTIMER
 40
0.0115253935
  9
$USRTIMER
 70
     1
  9
$ANGBASE
 50
0.0
  9
$ANGDIR
 70
     0
  9
$PDMODE
 70
     0
  9
$PDSIZE
 40
0.0
  9
$PLINEWID
 40
0.0
  9
$COORDS
 70
     1
  9
$SPLFRAME
 70
     0
  9
$SPLINETYPE
 70
     6
  9
$SPLINESEGS
 70
     8
  9
$ATTDIA
 70
     0
  9
$ATTREQ
 70
     1
  9
$HANDLING
 70
     1
  9
$HANDSEED
  5
1593
  9
$SURFTAB1
 70
     6
  9
$SURFTAB2
 70
     6
  9
$SURFTYPE
 70
     6
  9
$SURFU
 70
     6
  9
$SURFV
 70
     6
  9
$UCSNAME
  2

  9
$UCSORG
 10
0.0
 20
0.0
 30
0.0
  9
$UCSXDIR
 10
1.0
 20
0.0
 30
0.0
  9
$UCSYDIR
 10
0.0
 20
1.0
 30
0.0
  9
$PUCSNAME
  2

  9
$PUCSORG
 10
0.0
 20
0.0
 30
0.0
  9
$PUCSXDIR
 10
1.0
 20
0.0
 30
0.0
  9
$PUCSYDIR
 10
0.0
 20
1.0
 30
0.0
  9
$USERI1
 70
     3
  9
$USERI2
 70
     1
  9
$USERI3
 70
     0
  9
$USERI4
 70
     0
  9
$USERI5
 70
     0
  9
$USERR1
 40
0.5
  9
$USERR2
 40
3.0
  9
$USERR3
 40
3.0
  9
$USERR4
 40
3.0
  9
$USERR5
 40
10.0
  9
$WORLDVIEW
 70
     1
  9
$SHADEDGE
 70
     3
  9
$SHADEDIF
 70
    70
  9
$TILEMODE
 70
     1
  9
$MAXACTVP
 70
    16
  9
$PLIMCHECK
 70
     0
  9
$PEXTMIN
 10
1.0000000000000000E+020
 20
1.0000000000000000E+020
 30
1.0000000000000000E+020
  9
$PEXTMAX
 10
-1.0000000000000000E+020
 20
-1.0000000000000000E+020
 30
-1.0000000000000000E+020
  9
$PLIMMIN
 10
0.0
 20
0.0
  9
$PLIMMAX
 10
12.0
 20
9.0
  9
$UNITMODE
 70
     0
  9
$VISRETAIN
 70
     0
  9
$PLINEGEN
 70
     0
  9
$PSLTSCALE
 70
     0
  0
ENDSEC
  0
SECTION
  2
TABLES
  0
TABLE
  2
VPORT
 70
     1
  0
VPORT
  2
*ACTIVE
 70
     0
 10
0.0
 20
0.0
 11
1.0
 21
1.0
 12
118.4339705453996
 22
98.063662267574088
 13
0.0
 23
0.0
 14
2.5
 24
2.5
 15
10.0
 25
10.0
 16
0.0
 26
0.0
 36
1.0
 17
0.0
 27
0.0
 37
0.0
 40
204.38024628170439
 41
2.304913294797688
 42
50.0
 43
0.0
 44
0.0
 50
0.0
 51
0.0
 71
     0
 72
   100
 73
     1
 74
     0
 75
     0
 76
     0
 77
     0
 78
     0
  0
ENDTAB
  0
TABLE
  2
LTYPE
 70
     4
  0
LTYPE
  2
CONTINUOUS
 70
     0
  3
Solid Line
 72
    65
 73
     0
 40
0.0
  0
LTYPE
  2
CENTER
 70
     0
  3
____ _ ____ _ ____ _ ____ _ ____ _ ____ _ ____
 72
    65
 73
     4
 40
2.0
 49
1.25
 49
-0.25
 49
0.25
 49
-0.25
  0
LTYPE
  2
HIDDEN
 70
     0
  3
_ _ _ _ _ _ _ _ _ _ _ _ _ _ _ _ _ _ _ _ _ _ _
 72
    65
 73
     2
 40
0.375
 49
0.25
 49
-0.125
  0
LTYPE
  2
PHANTOM2
 70
     0
  3
___ _ _ ___ _ _ ___ _ _ ___ _ _
 72
    65
 73
     6
 40
1.25
 49
0.625
 49
-0.125
 49
0.125
 49
-0.125
 49
0.125
 49
-0.125
  0
ENDTAB
  0
TABLE
  2
LAYER
 70
     4
  0
LAYER
  2
0
 70
     0
 62
     7
  6
CONTINUOUS
  0
LAYER
  2
1
 70
     0
 62
     1
  6
CENTER
  0
LAYER
  2
2
 70
     0
 62
     2
  6
HIDDEN
  0
LAYER
  2
3
 70
     0
 62
     3
  6
CONTINUOUS
  0
ENDTAB
  0
TABLE
  2
STYLE
 70
     2
  0
STYLE
  2
STANDARD
 70
     0
 40
0.0
 41
1.0
 50
0.0
 71
     0
 42
0.2
  3
SIMPLEX
  4
BIGFONT
  0
STYLE
  2
STANDARD1
 70
     0
 40
0.0
 41
1.0
 50
0.0
 71
     0
 42
3.0
  3
txt
  4

  0
ENDTAB
  0
TABLE
  2
VIEW
 70
     0
  0
ENDTAB
  0
TABLE
  2
UCS
 70
     0
  0
ENDTAB
  0
TABLE
  2
APPID
 70
     3
  0
APPID
  2
ACAD
 70
     0
  0
APPID
  2
ACAD_MLEADERVER
 70
     0
  0
APPID
  2
ACAD_NAV_VCDISPLAY
 70
     0
  0
ENDTAB
  0
TABLE
  2
DIMSTYLE
 70
     1
  0
DIMSTYLE
  2
STANDARD
 70
     0
  3

  4

  5

  6

  7

 40
1.0
 41
0.18
 42
0.0625
 43
0.38
 44
0.18
 45
0.0
 46
0.0
 47
0.0
 48
0.0
140
0.18
141
0.09
142
0.0
143
25.399999999999999
144
1.0
145
0.0
146
1.0
147
0.09
 71
     0
 72
     0
 73
     1
 74
     1
 75
     0
 76
     0
 77
     0
 78
     0
170
     0
171
     2
172
     0
173
     0
174
     0
175
     0
176
     0
177
     0
178
     0
  0
ENDTAB
  0
ENDSEC
  0
SECTION
  2
BLOCKS
  0
BLOCK
  8
0
  2
$MODEL_SPACE
 70
     0
 10
0.0
 20
0.0
 30
0.0
  3
$MODEL_SPACE
  1

  0
ENDBLK
  5
329
  8
0
  0
BLOCK
 67
     1
  8
0
  2
$PAPER_SPACE
 70
     0
 10
0.0
 20
0.0
 30
0.0
  3
$PAPER_SPACE
  1

  0
ENDBLK
  5
327
 67
     1
  8
0
  0
ENDSEC
  0
SECTION
  2
ENTITIES
  0
LINE
  5
1328
  8
1
 10
228.11793998779709
 20
81.920860039711272
 30
0.0
 11
228.1179399877968
 21
67.220860039711283
 31
0.0
  0
LINE
  5
1329
  8
0
 10
234.36793998779709
 20
79.420860039711272
 30
0.0
 11
221.86793998779731
 21
79.420860039711329
 31
0.0
  0
LINE
  5
132A
  8
0
 10
234.36793998779709
 20
69.720860039711283
 30
0.0
 11
221.86793998779731
 21
69.720860039711283
 31
0.0
  0
LINE
  5
132B
  8
0
 10
234.36793998779731
 20
79.420860039711272
 30
0.0
 11
234.36793998779709
 21
69.720860039711283
 31
0.0
  0
LINE
  5
132C
  8
0
 10
221.86793998779731
 20
79.420860039711329
 30
0.0
 11
221.86793998779709
 21
69.720860039711283
 31
0.0
  0
LINE
  5
132D
  8
1
 10
228.11793998779709
 20
91.920860039711272
 30
0.0
 11
228.11793998779709
 21
109.4208600397112
 31
0.0
  0
LINE
  5
132E
  8
1
 10
219.36793998779709
 20
100.6708600397112
 30
0.0
 11
236.867939987797
 21
100.6708600397112
 31
0.0
  0
CIRCLE
  5
132F
  8
0
 10
228.11793998779709
 20
100.6708600397112
 30
0.0
 40
4.75
  0
CIRCLE
  5
1330
  8
0
 10
228.11793998779709
 20
100.6708600397112
 30
0.0
 40
6.25
  0
ARC
  5
1331
  8
0
 10
147.36506456104391
 20
83.320331047957879
 30
0.0
 40
3.3799999999999399
 50
314.76027010391738
 51
45.23972989608373
  0
ARC
  5
1332
  8
0
 10
146.61506456104411
 20
83.320331047957879
 30
0.0
 40
3.3799999999999399
 50
314.76027010391738
 51
45.23972989608373
  0
ARC
  5
1333
  8
0
 10
169.6250645610439
 20
83.320331047957879
 30
0.0
 40
3.3799999999999399
 50
134.76027010391621
 51
225.23972989608259
  0
ARC
  5
1334
  8
0
 10
170.3750645610437
 20
83.320331047957879
 30
0.0
 40
3.3799999999999399
 50
134.76027010391621
 51
225.23972989608259
  0
LINE
  5
1335
  8
0
 10
145.70958511825029
 20
103.2203310479579
 30
0.0
 11
145.70958511825029
 21
85.720331047957913
 31
0.0
  0
LINE
  5
1336
  8
0
 10
146.45958511825029
 20
103.220331047958
 30
0.0
 11
146.45958511825029
 21
85.720331047957913
 31
0.0
  0
LINE
  5
1337
  8
0
 10
170.5305440038376
 20
103.220331047958
 30
0.0
 11
170.53054400383729
 21
85.720331047957913
 31
0.0
  0
LINE
  5
1338
  8
0
 10
171.28054400383729
 20
103.2203310479579
 30
0.0
 11
171.28054400383729
 21
85.720331047957913
 31
0.0
  0
LINE
  5
1339
  8
0
 10
157.74506456104399
 20
103.2203310479579
 30
0.0
 11
157.74506456104399
 21
80.920331047957973
 31
0.0
  0
LINE
  5
133A
  8
0
 10
159.24506456104399
 20
103.2203310479579
 30
0.0
 11
159.24506456104399
 21
80.920331047957973
 31
0.0
  0
LINE
  5
133B
  8
2
 10
173.55576501559679
 20
61.920331047957909
 30
0.0
 11
173.55576501559679
 21
77.620331047957961
 31
0.0
  0
LINE
  5
133C
  8
2
 10
173.93476501559849
 20
61.920331047957909
 30
0.0
 11
173.93476501559849
 21
76.963883791886929
 31
0.0
  0
LINE
  5
133D
  8
2
 10
177.17676501559569
 20
61.920331047957909
 30
0.0
 11
177.17676501559569
 21
76.963883791886929
 31
0.0
  0
LINE
  5
133E
  8
2
 10
177.55576501559739
 20
61.920331047957909
 30
0.0
 11
177.55576501559739
 21
77.620331047957961
 31
0.0
  0
LINE
  5
133F
  8
2
 10
177.55576501559719
 20
77.620331047957961
 30
0.0
 11
173.55576501559719
 21
77.620331047957961
 31
0.0
  0
LINE
  5
1340
  8
2
 10
171.55576501559719
 20
79.620331047957961
 30
0.0
 11
173.55576501559719
 21
77.620331047957961
 31
0.0
  0
LINE
  5
1341
  8
2
 10
179.55576501559719
 20
79.620331047957961
 30
0.0
 11
177.55576501559719
 21
77.620331047957961
 31
0.0
  0
LINE
  5
1342
  8
2
 10
171.55576501559719
 20
79.920331047957916
 30
0.0
 11
179.55576501559719
 21
79.920331047957916
 31
0.0
  0
LINE
  5
1343
  8
2
 10
171.55576501559719
 20
79.620331047957961
 30
0.0
 11
171.55576501559719
 21
79.920331047957916
 31
0.0
  0
LINE
  5
1344
  8
2
 10
179.55576501559719
 20
79.620331047957961
 30
0.0
 11
171.55576501559719
 21
79.620331047957961
 31
0.0
  0
LINE
  5
1345
  8
2
 10
179.55576501559719
 20
79.920331047957916
 30
0.0
 11
179.55576501559719
 21
79.620331047957961
 31
0.0
  0
LINE
  5
1346
  8
0
 10
177.55576501559739
 20
61.920331047957909
 30
0.0
 11
177.55576501559719
 21
55.72033104795787
 31
0.0
  0
LINE
  5
1347
  8
0
 10
176.75576501559721
 20
54.920331047957909
 30
0.0
 11
174.35576501559709
 21
54.920331047957909
 31
0.0
  0
LINE
  5
1348
  8
0
 10
177.55576501559719
 20
55.72033104795787
 30
0.0
 11
176.75576501559721
 21
54.920331047957909
 31
0.0
  0
LINE
  5
1349
  8
0
 10
173.55576501559719
 20
55.72033104795787
 30
0.0
 11
177.55576501559719
 21
55.72033104795787
 31
0.0
  0
LINE
  5
134A
  8
2
 10
177.55576501559719
 20
76.963883791886929
 30
0.0
 11
173.55576501559719
 21
76.963883791886929
 31
0.0
  0
LINE
  5
134B
  8
3
 10
177.17676501559569
 20
61.920331047957909
 30
0.0
 11
177.17676501559589
 21
55.341331047956601
 31
0.0
  0
LINE
  5
134C
  8
2
 10
177.17676501559589
 20
76.963883791886929
 30
0.0
 11
177.55576501559719
 21
77.620331047957961
 31
0.0
  0
LINE
  5
134D
  8
2
 10
173.93476501559849
 20
76.963883791886929
 30
0.0
 11
173.55576501559719
 21
77.620331047957961
 31
0.0
  0
LINE
  5
134E
  8
3
 10
173.93476501559849
 20
61.920331047957909
 30
0.0
 11
173.93476501559849
 21
55.341331047956601
 31
0.0
  0
LINE
  5
134F
  8
0
 10
173.55576501559719
 20
55.72033104795787
 30
0.0
 11
174.35576501559709
 21
54.920331047957909
 31
0.0
  0
LINE
  5
1350
  8
0
 10
173.55576501559719
 20
61.920331047957909
 30
0.0
 11
173.55576501559719
 21
55.72033104795787
 31
0.0
  0
LINE
  5
1351
  8
1
 10
175.55576501559719
 20
52.420331047957909
 30
0.0
 11
175.55576501559719
 21
82.420331047957916
 31
0.0
  0
CIRCLE
  5
1352
  8
0
 10
78.495064561043819
 20
168.2203310479579
 30
0.0
 40
25.0
  0
LINE
  5
1353
  8
1
 10
78.495064561043819
 20
138.2203310479579
 30
0.0
 11
78.495064561043819
 21
198.22033104795781
 31
0.0
  0
LINE
  5
1354
  8
1
 10
48.495064561043819
 20
168.2203310479579
 30
0.0
 11
108.4950645610438
 21
168.2203310479579
 31
0.0
  0
ARC
  5
1355
  8
0
 10
78.495064561043819
 20
168.2203310479579
 30
0.0
 40
14.35
 50
122.9959179400054
 51
177.00408205999281
  0
CIRCLE
  5
1356
  8
1
 10
78.495064561043819
 20
168.2203310479579
 30
0.0
 40
19.699999999999999
  0
LINE
  5
1357
  8
1
 10
85.095064561043955
 20
156.78879571800331
 30
0.0
 11
91.595064561043955
 21
145.53046546880569
 31
0.0
  0
LINE
  5
1358
  8
1
 10
91.595064561043714
 20
190.91019662711011
 30
0.0
 11
85.095064561043728
 21
179.65186637791251
 31
0.0
  0
LINE
  5
1359
  8
0
 10
96.945064561044092
 20
167.49864321147089
 30
0.0
 11
98.195064561044092
 21
166.77695537498391
 31
0.0
  0
LINE
  5
135A
  8
0
 10
98.195064561044092
 20
166.77695537498391
 30
0.0
 11
99.445064561043864
 21
167.49864321147089
 31
0.0
  0
LINE
  5
135B
  8
0
 10
99.445064561043864
 20
167.49864321147089
 30
0.0
 11
99.445064561043864
 21
168.94201888444519
 31
0.0
  0
LINE
  5
135C
  8
0
 10
99.445064561043864
 20
168.94201888444519
 30
0.0
 11
98.195064561043864
 21
169.663706720932
 31
0.0
  0
LINE
  5
135D
  8
0
 10
98.195064561043864
 20
169.663706720932
 30
0.0
 11
96.945064561043637
 21
168.94201888444479
 31
0.0
  0
LINE
  5
135E
  8
0
 10
96.945064561043637
 20
168.94201888444479
 30
0.0
 11
96.945064561044092
 21
167.49864321147089
 31
0.0
  0
CIRCLE
  5
135F
  8
0
 10
98.195064561043864
 20
168.2203310479579
 30
0.0
 40
4.0
  0
LINE
  5
1360
  8
0
 10
64.164677266905514
 20
168.97033104795781
 30
0.0
 11
77.196026455367019
 21
168.97033104795781
 31
0.0
  0
LINE
  5
1361
  8
0
 10
64.164677266905514
 20
167.47033104795781
 30
0.0
 11
77.196026455367246
 21
167.4703310479579
 31
0.0
  0
LINE
  5
1362
  8
0
 10
86.30977726095125
 20
180.25581049075129
 30
0.0
 11
79.794102666720391
 21
168.97033104795781
 31
0.0
  0
LINE
  5
1363
  8
0
 10
85.010739155274678
 20
181.00581049075129
 30
0.0
 11
78.495064561043591
 21
169.7203310479577
 31
0.0
  0
LINE
  5
1364
  8
0
 10
71.97938996681296
 20
181.00581049075129
 30
0.0
 11
78.495064561043591
 21
169.7203310479577
 31
0.0
  0
LINE
  5
1365
  8
0
 10
70.680351861136387
 20
180.25581049075129
 30
0.0
 11
77.196026455367019
 21
168.97033104795781
 31
0.0
  0
ARC
  5
1366
  8
0
 10
78.495064561043819
 20
168.2203310479579
 30
0.0
 40
14.35
 50
62.995917940006713
 51
117.00408205999329
  0
ARC
  5
1367
  8
0
 10
78.495064561043819
 20
168.2203310479579
 30
0.0
 40
14.35
 50
302.99591794000543
 51
357.00408205999281
  0
ARC
  5
1368
  8
0
 10
78.495064561043819
 20
168.2203310479579
 30
0.0
 40
14.35
 50
242.99591794000671
 51
297.00408205999332
  0
ARC
  5
1369
  8
0
 10
78.495064561043819
 20
168.2203310479579
 30
0.0
 40
14.35
 50
182.99591794000719
 51
237.0040820599946
  0
ARC
  5
136A
  8
0
 10
78.495064561043819
 20
168.2203310479579
 30
0.0
 40
14.35
 50
2.9959179400071938
 51
57.00408205999458
  0
LINE
  5
136B
  8
0
 10
78.495064561043591
 20
166.72033104795781
 30
0.0
 11
71.97938996681296
 21
155.4348516051644
 31
0.0
  0
LINE
  5
136C
  8
0
 10
79.794102666720164
 20
167.47033104795781
 30
0.0
 11
86.30977726095125
 21
156.1848516051644
 31
0.0
  0
LINE
  5
136D
  8
0
 10
77.196026455367246
 20
167.47033104795781
 30
0.0
 11
70.680351861136387
 21
156.1848516051644
 31
0.0
  0
LINE
  5
136E
  8
0
 10
78.495064561043591
 20
166.72033104795781
 30
0.0
 11
85.010739155274678
 21
155.4348516051644
 31
0.0
  0
LINE
  5
136F
  8
0
 10
79.794102666720605
 20
168.97033104795781
 30
0.0
 11
92.825451855182109
 21
168.97033104795781
 31
0.0
  0
LINE
  5
1370
  8
0
 10
79.794102666719937
 20
167.4703310479579
 30
0.0
 11
92.825451855182109
 21
167.47033104795781
 31
0.0
  0
CIRCLE
  5
1371
  8
0
 10
88.345064561043728
 20
185.2810315025113
 30
0.0
 40
4.0
  0
LINE
  5
1372
  8
0
 10
87.0950645610435
 20
186.00271933899819
 30
0.0
 11
87.095064561043955
 21
184.5593436660244
 31
0.0
  0
LINE
  5
1373
  8
0
 10
88.345064561043728
 20
186.7244071754854
 30
0.0
 11
87.0950645610435
 21
186.00271933899819
 31
0.0
  0
LINE
  5
1374
  8
0
 10
89.595064561043728
 20
186.0027193389987
 30
0.0
 11
88.345064561043728
 21
186.7244071754854
 31
0.0
  0
LINE
  5
1375
  8
0
 10
89.595064561043728
 20
184.5593436660244
 30
0.0
 11
89.595064561043728
 21
186.0027193389987
 31
0.0
  0
LINE
  5
1376
  8
0
 10
88.345064561043955
 20
183.83765582953731
 30
0.0
 11
89.595064561043728
 21
184.5593436660244
 31
0.0
  0
LINE
  5
1377
  8
0
 10
87.095064561043955
 20
184.5593436660244
 30
0.0
 11
88.345064561043955
 21
183.83765582953731
 31
0.0
  0
LINE
  5
1378
  8
0
 10
87.095064561043955
 20
150.43794275691749
 30
0.0
 11
88.345064561043955
 21
149.7162549204304
 31
0.0
  0
LINE
  5
1379
  8
0
 10
88.345064561043955
 20
149.7162549204304
 30
0.0
 11
89.595064561043728
 21
150.43794275691749
 31
0.0
  0
LINE
  5
137A
  8
0
 10
89.595064561043728
 20
150.43794275691749
 30
0.0
 11
89.595064561043728
 21
151.88131842989179
 31
0.0
  0
LINE
  5
137B
  8
0
 10
89.595064561043728
 20
151.88131842989179
 30
0.0
 11
88.345064561043728
 21
152.60300626637849
 31
0.0
  0
LINE
  5
137C
  8
0
 10
88.345064561043728
 20
152.60300626637849
 30
0.0
 11
87.0950645610435
 21
151.88131842989131
 31
0.0
  0
LINE
  5
137D
  8
0
 10
87.0950645610435
 20
151.88131842989131
 30
0.0
 11
87.095064561043955
 21
150.43794275691749
 31
0.0
  0
CIRCLE
  5
137E
  8
0
 10
88.345064561043728
 20
151.15963059340439
 30
0.0
 40
4.0
  0
LINE
  5
137F
  8
0
 10
69.895064561043682
 20
184.5593436660244
 30
0.0
 11
68.645064561043682
 21
183.83765582953731
 31
0.0
  0
LINE
  5
1380
  8
0
 10
68.645064561043682
 20
183.83765582953731
 30
0.0
 11
67.39506456104391
 21
184.5593436660244
 31
0.0
  0
LINE
  5
1381
  8
0
 10
67.39506456104391
 20
184.5593436660244
 30
0.0
 11
67.39506456104391
 21
186.0027193389987
 31
0.0
  0
LINE
  5
1382
  8
0
 10
67.39506456104391
 20
186.0027193389987
 30
0.0
 11
68.64506456104391
 21
186.7244071754854
 31
0.0
  0
LINE
  5
1383
  8
0
 10
68.64506456104391
 20
186.7244071754854
 30
0.0
 11
69.895064561044137
 21
186.00271933899819
 31
0.0
  0
LINE
  5
1384
  8
0
 10
69.895064561044137
 20
186.00271933899819
 30
0.0
 11
69.895064561043682
 21
184.5593436660244
 31
0.0
  0
CIRCLE
  5
1385
  8
0
 10
68.64506456104391
 20
185.2810315025113
 30
0.0
 40
4.0
  0
LINE
  5
1386
  8
1
 10
65.395064561043895
 20
190.91019662711011
 30
0.0
 11
71.89506456104391
 21
179.65186637791251
 31
0.0
  0
CIRCLE
  5
1387
  8
0
 10
58.795064561043773
 20
168.2203310479579
 30
0.0
 40
4.0
  0
LINE
  5
1388
  8
0
 10
60.045064561044001
 20
168.94201888444479
 30
0.0
 11
60.045064561043553
 21
167.49864321147089
 31
0.0
  0
LINE
  5
1389
  8
0
 10
58.795064561043773
 20
169.663706720932
 30
0.0
 11
60.045064561044001
 21
168.94201888444479
 31
0.0
  0
LINE
  5
138A
  8
0
 10
57.545064561043773
 20
168.94201888444519
 30
0.0
 11
58.795064561043773
 21
169.663706720932
 31
0.0
  0
LINE
  5
138B
  8
0
 10
57.545064561043773
 20
167.49864321147089
 30
0.0
 11
57.545064561043773
 21
168.94201888444519
 31
0.0
  0
LINE
  5
138C
  8
0
 10
58.795064561043553
 20
166.77695537498391
 30
0.0
 11
57.545064561043773
 21
167.49864321147089
 31
0.0
  0
LINE
  5
138D
  8
0
 10
60.045064561043553
 20
167.49864321147089
 30
0.0
 11
58.795064561043553
 21
166.77695537498391
 31
0.0
  0
CIRCLE
  5
138E
  8
0
 10
68.64506456104391
 20
151.15963059340439
 30
0.0
 40
4.0
  0
LINE
  5
138F
  8
0
 10
69.895064561044137
 20
151.88131842989131
 30
0.0
 11
69.895064561043682
 21
150.43794275691749
 31
0.0
  0
LINE
  5
1390
  8
0
 10
68.64506456104391
 20
152.60300626637849
 30
0.0
 11
69.895064561044137
 21
151.88131842989131
 31
0.0
  0
LINE
  5
1391
  8
0
 10
67.39506456104391
 20
151.88131842989179
 30
0.0
 11
68.64506456104391
 21
152.60300626637849
 31
0.0
  0
LINE
  5
1392
  8
0
 10
67.39506456104391
 20
150.43794275691749
 30
0.0
 11
67.39506456104391
 21
151.88131842989179
 31
0.0
  0
LINE
  5
1393
  8
0
 10
68.645064561043682
 20
149.7162549204304
 30
0.0
 11
67.39506456104391
 21
150.43794275691749
 31
0.0
  0
LINE
  5
1394
  8
0
 10
69.895064561043682
 20
150.43794275691749
 30
0.0
 11
68.645064561043682
 21
149.7162549204304
 31
0.0
  0
LINE
  5
1395
  8
1
 10
71.895064561043682
 20
156.78879571800331
 30
0.0
 11
65.395064561043682
 21
145.53046546880569
 31
0.0
  0
ARC
  5
1396
  8
0
 10
78.495064561043819
 20
168.2203310479579
 30
0.0
 40
6.25
 50
126.8921025793458
 51
173.1078974206529
  0
ARC
  5
1397
  8
0
 10
78.495064561043819
 20
168.2203310479579
 30
0.0
 40
4.75
 50
129.08472028739359
 51
170.9152797126082
  0
ARC
  5
1398
  8
0
 10
78.495064561043819
 20
168.2203310479579
 30
0.0
 40
6.25
 50
66.89210257934711
 51
113.1078974206529
  0
ARC
  5
1399
  8
0
 10
78.495064561043819
 20
168.2203310479579
 30
0.0
 40
4.75
 50
69.084720287388976
 51
110.915279712611
  0
ARC
  5
139A
  8
0
 10
78.495064561043819
 20
168.2203310479579
 30
0.0
 40
4.75
 50
9.0847202873917592
 51
50.915279712612751
  0
ARC
  5
139B
  8
0
 10
78.495064561043819
 20
168.2203310479579
 30
0.0
 40
6.25
 50
6.8921025793470276
 51
53.10789742065419
  0
ARC
  5
139C
  8
0
 10
78.495064561043819
 20
168.2203310479579
 30
0.0
 40
4.75
 50
249.08472028738899
 51
290.91527971260399
  0
ARC
  5
139D
  8
0
 10
78.495064561043819
 20
168.2203310479579
 30
0.0
 40
6.25
 50
246.8921025793471
 51
293.10789742065288
  0
ARC
  5
139E
  8
0
 10
78.495064561043819
 20
168.2203310479579
 30
0.0
 40
4.75
 50
309.0847202873872
 51
350.91527971260831
  0
ARC
  5
139F
  8
0
 10
78.495064561043819
 20
168.2203310479579
 30
0.0
 40
6.25
 50
306.89210257934491
 51
353.10789742065299
  0
ARC
  5
13A0
  8
0
 10
78.495064561043819
 20
168.2203310479579
 30
0.0
 40
4.75
 50
189.08472028739169
 51
230.91527971260641
  0
ARC
  5
13A1
  8
0
 10
78.495064561043819
 20
168.2203310479579
 30
0.0
 40
6.25
 50
186.89210257934701
 51
233.1078974206541
  0
LINE
  5
13A2
  8
0
 10
103.4950645610438
 20
80.920331047957859
 30
0.0
 11
103.495064561044
 21
61.920331047957973
 31
0.0
  0
LINE
  5
13A3
  8
0
 10
53.495064561043819
 20
80.920331047957859
 30
0.0
 11
53.495064561044039
 21
61.920331047957973
 31
0.0
  0
LINE
  5
13A4
  8
1
 10
78.495064561043819
 20
108.2203310479578
 30
0.0
 11
78.495064561043819
 21
56.920331047957909
 31
0.0
  0
LINE
  5
13A5
  8
0
 10
53.495064561043819
 20
80.920331047957916
 30
0.0
 11
103.495064561044
 21
80.920331047957916
 31
0.0
  0
LINE
  5
13A6
  8
0
 10
53.495064561043819
 20
61.920331047957909
 30
0.0
 11
103.495064561044
 21
61.920331047957909
 31
0.0
  0
LINE
  5
13A7
  8
0
 10
92.845064561043714
 20
103.2203310479579
 30
0.0
 11
92.845064561043955
 21
85.720331047957913
 31
0.0
  0
LINE
  5
13A8
  8
0
 10
64.145064561043895
 20
103.2203310479579
 30
0.0
 11
64.145064561043895
 21
85.720331047957913
 31
0.0
  0
LINE
  5
13A9
  8
0
 10
64.145064561043895
 20
103.2203310479579
 30
0.0
 11
92.845064561043955
 21
103.2203310479579
 31
0.0
  0
LINE
  5
13AA
  8
0
 10
64.145064561043895
 20
85.720331047957913
 30
0.0
 11
92.845064561043955
 21
85.720331047957913
 31
0.0
  0
LINE
  5
13AB
  8
0
 10
86.30977726095125
 20
103.2203310479579
 30
0.0
 11
86.30977726095125
 21
85.720331047957913
 31
0.0
  0
LINE
  5
13AC
  8
0
 10
85.010739155274678
 20
103.2203310479579
 30
0.0
 11
85.010739155274678
 21
85.720331047957913
 31
0.0
  0
LINE
  5
13AD
  8
0
 10
71.979389966813187
 20
103.2203310479579
 30
0.0
 11
71.979389966813187
 21
85.720331047957913
 31
0.0
  0
LINE
  5
13AE
  8
0
 10
70.680351861136387
 20
103.2203310479579
 30
0.0
 11
70.680351861136387
 21
85.720331047957913
 31
0.0
  0
LINE
  5
13AF
  8
0
 10
75.495064561044273
 20
71.188280240389304
 30
0.0
 11
78.495064561044273
 21
69.456229432820351
 31
0.0
  0
LINE
  5
13B0
  8
0
 10
78.495064561044273
 20
69.456229432820351
 30
0.0
 11
81.495064561043804
 21
71.188280240389304
 31
0.0
  0
LINE
  5
13B1
  8
0
 10
81.495064561043804
 20
71.188280240389304
 30
0.0
 11
81.495064561043804
 21
74.652381855527551
 31
0.0
  0
LINE
  5
13B2
  8
0
 10
81.495064561043804
 20
74.652381855527551
 30
0.0
 11
78.495064561043819
 21
76.384432663095822
 31
0.0
  0
LINE
  5
13B3
  8
0
 10
78.495064561043819
 20
76.384432663095822
 30
0.0
 11
75.495064561043364
 21
74.652381855526528
 31
0.0
  0
LINE
  5
13B4
  8
0
 10
75.495064561043364
 20
74.652381855526528
 30
0.0
 11
75.495064561044273
 21
71.188280240389304
 31
0.0
  0
CIRCLE
  5
13B5
  8
0
 10
78.495064561043819
 20
72.920331047957916
 30
0.0
 40
6.0
  0
LINE
  5
13B6
  8
1
 10
98.195064561043864
 20
52.420331047957909
 30
0.0
 11
98.195064561043864
 21
82.420331047957916
 31
0.0
  0
LINE
  5
13B7
  8
0
 10
96.195064561043864
 20
61.920331047957909
 30
0.0
 11
96.195064561043864
 21
55.72033104795787
 31
0.0
  0
LINE
  5
13B8
  8
0
 10
96.195064561043864
 20
55.72033104795787
 30
0.0
 11
96.995064561043819
 21
54.920331047957909
 31
0.0
  0
LINE
  5
13B9
  8
3
 10
96.574064561045134
 20
61.920331047957909
 30
0.0
 11
96.574064561045134
 21
55.341331047956601
 31
0.0
  0
LINE
  5
13BA
  8
2
 10
96.574064561045134
 20
76.963883791886929
 30
0.0
 11
96.195064561043864
 21
77.620331047957961
 31
0.0
  0
LINE
  5
13BB
  8
2
 10
99.816064561042595
 20
76.963883791886929
 30
0.0
 11
100.19506456104379
 21
77.620331047957961
 31
0.0
  0
LINE
  5
13BC
  8
3
 10
99.816064561042381
 20
61.920331047957909
 30
0.0
 11
99.816064561042595
 21
55.341331047956601
 31
0.0
  0
LINE
  5
13BD
  8
2
 10
100.19506456104379
 20
76.963883791886929
 30
0.0
 11
96.195064561043864
 21
76.963883791886929
 31
0.0
  0
LINE
  5
13BE
  8
0
 10
96.195064561043864
 20
55.72033104795787
 30
0.0
 11
100.19506456104379
 21
55.72033104795787
 31
0.0
  0
LINE
  5
13BF
  8
0
 10
100.19506456104379
 20
55.72033104795787
 30
0.0
 11
99.39506456104391
 21
54.920331047957909
 31
0.0
  0
LINE
  5
13C0
  8
0
 10
99.39506456104391
 20
54.920331047957909
 30
0.0
 11
96.995064561043819
 21
54.920331047957909
 31
0.0
  0
LINE
  5
13C1
  8
0
 10
100.19506456104411
 20
61.920331047957909
 30
0.0
 11
100.19506456104379
 21
55.72033104795787
 31
0.0
  0
LINE
  5
13C2
  8
2
 10
102.19506456104379
 20
79.920331047957916
 30
0.0
 11
102.19506456104379
 21
79.620331047957961
 31
0.0
  0
LINE
  5
13C3
  8
2
 10
102.19506456104379
 20
79.620331047957961
 30
0.0
 11
94.195064561043864
 21
79.620331047957961
 31
0.0
  0
LINE
  5
13C4
  8
2
 10
94.195064561043864
 20
79.620331047957961
 30
0.0
 11
94.195064561043864
 21
79.920331047957916
 31
0.0
  0
LINE
  5
13C5
  8
2
 10
94.195064561043864
 20
79.920331047957916
 30
0.0
 11
102.19506456104379
 21
79.920331047957916
 31
0.0
  0
LINE
  5
13C6
  8
2
 10
102.19506456104379
 20
79.620331047957961
 30
0.0
 11
100.19506456104379
 21
77.620331047957961
 31
0.0
  0
LINE
  5
13C7
  8
2
 10
94.195064561043864
 20
79.620331047957961
 30
0.0
 11
96.195064561043864
 21
77.620331047957961
 31
0.0
  0
LINE
  5
13C8
  8
2
 10
100.19506456104379
 20
77.620331047957961
 30
0.0
 11
96.195064561043864
 21
77.620331047957961
 31
0.0
  0
LINE
  5
13C9
  8
2
 10
100.19506456104411
 20
61.920331047957909
 30
0.0
 11
100.19506456104411
 21
77.620331047957961
 31
0.0
  0
LINE
  5
13CA
  8
2
 10
99.816064561042381
 20
61.920331047957909
 30
0.0
 11
99.816064561042381
 21
76.963883791886929
 31
0.0
  0
LINE
  5
13CB
  8
2
 10
96.574064561045134
 20
61.920331047957909
 30
0.0
 11
96.574064561045134
 21
76.963883791886929
 31
0.0
  0
LINE
  5
13CC
  8
2
 10
96.195064561043409
 20
61.920331047957909
 30
0.0
 11
96.195064561043409
 21
77.620331047957961
 31
0.0
  0
LINE
  5
13CD
  8
2
 10
86.3450645610435
 20
61.920331047957859
 30
0.0
 11
86.3450645610435
 21
77.620331047957905
 31
0.0
  0
LINE
  5
13CE
  8
2
 10
86.724064561045225
 20
61.920331047957859
 30
0.0
 11
86.724064561045225
 21
76.963883791886872
 31
0.0
  0
LINE
  5
13CF
  8
2
 10
89.966064561042444
 20
61.920331047957859
 30
0.0
 11
89.966064561042444
 21
76.963883791886872
 31
0.0
  0
LINE
  5
13D0
  8
2
 10
90.345064561044182
 20
61.920331047957859
 30
0.0
 11
90.345064561044182
 21
77.620331047957905
 31
0.0
  0
LINE
  5
13D1
  8
2
 10
90.345064561043955
 20
77.620331047957905
 30
0.0
 11
86.345064561043955
 21
77.620331047957905
 31
0.0
  0
LINE
  5
13D2
  8
2
 10
84.345064561043955
 20
79.620331047957905
 30
0.0
 11
86.345064561043955
 21
77.620331047957905
 31
0.0
  0
LINE
  5
13D3
  8
2
 10
84.345064561043955
 20
79.620331047957905
 30
0.0
 11
84.345064561043955
 21
79.920331047957859
 31
0.0
  0
LINE
  5
13D4
  8
0
 10
90.345064561044182
 20
61.920331047957859
 30
0.0
 11
90.345064561043955
 21
55.720331047957821
 31
0.0
  0
LINE
  5
13D5
  8
0
 10
89.545064561044001
 20
54.920331047957859
 30
0.0
 11
87.14506456104391
 21
54.920331047957859
 31
0.0
  0
LINE
  5
13D6
  8
0
 10
90.345064561043955
 20
55.720331047957821
 30
0.0
 11
89.545064561044001
 21
54.920331047957859
 31
0.0
  0
LINE
  5
13D7
  8
0
 10
86.345064561043955
 20
55.720331047957821
 30
0.0
 11
90.345064561043955
 21
55.720331047957821
 31
0.0
  0
LINE
  5
13D8
  8
2
 10
90.345064561043955
 20
76.963883791886872
 30
0.0
 11
86.345064561043955
 21
76.963883791886872
 31
0.0
  0
LINE
  5
13D9
  8
3
 10
89.966064561042444
 20
61.920331047957859
 30
0.0
 11
89.966064561042685
 21
55.341331047956537
 31
0.0
  0
LINE
  5
13DA
  8
2
 10
89.966064561042685
 20
76.963883791886872
 30
0.0
 11
90.345064561043955
 21
77.620331047957905
 31
0.0
  0
LINE
  5
13DB
  8
2
 10
86.724064561045225
 20
76.963883791886872
 30
0.0
 11
86.345064561043955
 21
77.620331047957905
 31
0.0
  0
LINE
  5
13DC
  8
3
 10
86.724064561045225
 20
61.920331047957859
 30
0.0
 11
86.724064561045225
 21
55.341331047956537
 31
0.0
  0
LINE
  5
13DD
  8
0
 10
86.345064561043955
 20
55.720331047957821
 30
0.0
 11
87.14506456104391
 21
54.920331047957859
 31
0.0
  0
LINE
  5
13DE
  8
0
 10
86.345064561043955
 20
61.920331047957859
 30
0.0
 11
86.345064561043955
 21
55.720331047957821
 31
0.0
  0
LINE
  5
13DF
  8
1
 10
88.345064561043955
 20
52.420331047957859
 30
0.0
 11
88.345064561043955
 21
82.420331047957845
 31
0.0
  0
LINE
  5
13E0
  8
2
 10
84.345064561043955
 20
79.920331047957916
 30
0.0
 11
92.345064561043955
 21
79.920331047957916
 31
0.0
  0
LINE
  5
13E1
  8
2
 10
84.345064561043955
 20
79.620331047957961
 30
0.0
 11
84.345064561043955
 21
79.920331047957916
 31
0.0
  0
LINE
  5
13E2
  8
2
 10
92.345064561043955
 20
79.620331047957961
 30
0.0
 11
84.345064561043955
 21
79.620331047957961
 31
0.0
  0
LINE
  5
13E3
  8
2
 10
92.345064561043955
 20
79.920331047957916
 30
0.0
 11
92.345064561043955
 21
79.620331047957961
 31
0.0
  0
LINE
  5
13E4
  8
2
 10
92.345064561043955
 20
79.620331047957961
 30
0.0
 11
90.345064561043955
 21
77.620331047957961
 31
0.0
  0
LINE
  5
13E5
  8
2
 10
64.645064561043682
 20
79.620331047957961
 30
0.0
 11
66.645064561043682
 21
77.620331047957961
 31
0.0
  0
LINE
  5
13E6
  8
2
 10
64.645064561043682
 20
79.920331047957916
 30
0.0
 11
64.645064561043682
 21
79.620331047957961
 31
0.0
  0
LINE
  5
13E7
  8
2
 10
64.645064561043682
 20
79.620331047957961
 30
0.0
 11
72.645064561043682
 21
79.620331047957961
 31
0.0
  0
LINE
  5
13E8
  8
2
 10
72.645064561043682
 20
79.620331047957961
 30
0.0
 11
72.645064561043682
 21
79.920331047957916
 31
0.0
  0
LINE
  5
13E9
  8
2
 10
72.645064561043682
 20
79.920331047957916
 30
0.0
 11
64.645064561043682
 21
79.920331047957916
 31
0.0
  0
LINE
  5
13EA
  8
1
 10
68.645064561043682
 20
52.420331047957859
 30
0.0
 11
68.645064561043682
 21
82.420331047957845
 31
0.0
  0
LINE
  5
13EB
  8
0
 10
70.645064561043682
 20
61.920331047957859
 30
0.0
 11
70.645064561043682
 21
55.720331047957821
 31
0.0
  0
LINE
  5
13EC
  8
0
 10
70.645064561043682
 20
55.720331047957821
 30
0.0
 11
69.845064561043728
 21
54.920331047957859
 31
0.0
  0
LINE
  5
13ED
  8
3
 10
70.266064561042413
 20
61.920331047957859
 30
0.0
 11
70.266064561042413
 21
55.341331047956537
 31
0.0
  0
LINE
  5
13EE
  8
2
 10
70.266064561042413
 20
76.963883791886872
 30
0.0
 11
70.645064561043682
 21
77.620331047957905
 31
0.0
  0
LINE
  5
13EF
  8
2
 10
67.024064561044952
 20
76.963883791886872
 30
0.0
 11
66.645064561043682
 21
77.620331047957905
 31
0.0
  0
LINE
  5
13F0
  8
3
 10
67.024064561045179
 20
61.920331047957859
 30
0.0
 11
67.024064561044952
 21
55.341331047956537
 31
0.0
  0
LINE
  5
13F1
  8
2
 10
66.645064561043682
 20
76.963883791886872
 30
0.0
 11
70.645064561043682
 21
76.963883791886872
 31
0.0
  0
LINE
  5
13F2
  8
0
 10
70.645064561043682
 20
55.720331047957821
 30
0.0
 11
66.645064561043682
 21
55.720331047957821
 31
0.0
  0
LINE
  5
13F3
  8
0
 10
66.645064561043682
 20
55.720331047957821
 30
0.0
 11
67.445064561043637
 21
54.920331047957859
 31
0.0
  0
LINE
  5
13F4
  8
0
 10
67.445064561043637
 20
54.920331047957859
 30
0.0
 11
69.845064561043728
 21
54.920331047957859
 31
0.0
  0
LINE
  5
13F5
  8
0
 10
66.645064561043455
 20
61.920331047957859
 30
0.0
 11
66.645064561043682
 21
55.720331047957821
 31
0.0
  0
LINE
  5
13F6
  8
2
 10
72.645064561043682
 20
79.620331047957905
 30
0.0
 11
72.645064561043682
 21
79.920331047957859
 31
0.0
  0
LINE
  5
13F7
  8
2
 10
72.645064561043682
 20
79.620331047957905
 30
0.0
 11
70.645064561043682
 21
77.620331047957905
 31
0.0
  0
LINE
  5
13F8
  8
2
 10
66.645064561043682
 20
77.620331047957905
 30
0.0
 11
70.645064561043682
 21
77.620331047957905
 31
0.0
  0
LINE
  5
13F9
  8
2
 10
66.645064561043455
 20
61.920331047957859
 30
0.0
 11
66.645064561043455
 21
77.620331047957905
 31
0.0
  0
LINE
  5
13FA
  8
2
 10
67.024064561045179
 20
61.920331047957859
 30
0.0
 11
67.024064561045179
 21
76.963883791886872
 31
0.0
  0
LINE
  5
13FB
  8
2
 10
70.266064561042413
 20
61.920331047957859
 30
0.0
 11
70.266064561042413
 21
76.963883791886872
 31
0.0
  0
LINE
  5
13FC
  8
2
 10
70.645064561044137
 20
61.920331047957859
 30
0.0
 11
70.645064561044137
 21
77.620331047957905
 31
0.0
  0
LINE
  5
13FD
  8
2
 10
60.795064561044221
 20
61.920331047957909
 30
0.0
 11
60.795064561044221
 21
77.620331047957961
 31
0.0
  0
LINE
  5
13FE
  8
2
 10
60.416064561042511
 20
61.920331047957909
 30
0.0
 11
60.416064561042511
 21
76.963883791886929
 31
0.0
  0
LINE
  5
13FF
  8
2
 10
57.17406456104527
 20
61.920331047957909
 30
0.0
 11
57.17406456104527
 21
76.963883791886929
 31
0.0
  0
LINE
  5
1400
  8
2
 10
56.795064561043553
 20
61.920331047957909
 30
0.0
 11
56.795064561043553
 21
77.620331047957961
 31
0.0
  0
LINE
  5
1401
  8
2
 10
56.795064561043773
 20
77.620331047957961
 30
0.0
 11
60.795064561043773
 21
77.620331047957961
 31
0.0
  0
LINE
  5
1402
  8
2
 10
62.795064561043773
 20
79.620331047957961
 30
0.0
 11
60.795064561043773
 21
77.620331047957961
 31
0.0
  0
LINE
  5
1403
  8
2
 10
54.79506456104378
 20
79.620331047957961
 30
0.0
 11
56.795064561043773
 21
77.620331047957961
 31
0.0
  0
LINE
  5
1404
  8
2
 10
62.795064561043773
 20
79.920331047957916
 30
0.0
 11
54.79506456104378
 21
79.920331047957916
 31
0.0
  0
LINE
  5
1405
  8
2
 10
62.795064561043773
 20
79.620331047957961
 30
0.0
 11
62.795064561043773
 21
79.920331047957916
 31
0.0
  0
LINE
  5
1406
  8
2
 10
54.79506456104378
 20
79.620331047957961
 30
0.0
 11
62.795064561043773
 21
79.620331047957961
 31
0.0
  0
LINE
  5
1407
  8
2
 10
54.79506456104378
 20
79.920331047957916
 30
0.0
 11
54.79506456104378
 21
79.620331047957961
 31
0.0
  0
LINE
  5
1408
  8
0
 10
56.795064561043553
 20
61.920331047957909
 30
0.0
 11
56.795064561043773
 21
55.72033104795787
 31
0.0
  0
LINE
  5
1409
  8
0
 10
57.595064561043721
 20
54.920331047957909
 30
0.0
 11
59.995064561043819
 21
54.920331047957909
 31
0.0
  0
LINE
  5
140A
  8
0
 10
56.795064561043773
 20
55.72033104795787
 30
0.0
 11
57.595064561043721
 21
54.920331047957909
 31
0.0
  0
LINE
  5
140B
  8
0
 10
60.795064561043773
 20
55.72033104795787
 30
0.0
 11
56.795064561043773
 21
55.72033104795787
 31
0.0
  0
LINE
  5
140C
  8
2
 10
56.795064561043773
 20
76.963883791886929
 30
0.0
 11
60.795064561043773
 21
76.963883791886929
 31
0.0
  0
LINE
  5
140D
  8
3
 10
57.17406456104527
 20
61.920331047957909
 30
0.0
 11
57.174064561045043
 21
55.341331047956601
 31
0.0
  0
LINE
  5
140E
  8
2
 10
57.174064561045043
 20
76.963883791886929
 30
0.0
 11
56.795064561043773
 21
77.620331047957961
 31
0.0
  0
LINE
  5
140F
  8
2
 10
60.416064561042511
 20
76.963883791886929
 30
0.0
 11
60.795064561043773
 21
77.620331047957961
 31
0.0
  0
LINE
  5
1410
  8
3
 10
60.416064561042511
 20
61.920331047957909
 30
0.0
 11
60.416064561042511
 21
55.341331047956601
 31
0.0
  0
LINE
  5
1411
  8
0
 10
60.795064561043773
 20
55.72033104795787
 30
0.0
 11
59.995064561043819
 21
54.920331047957909
 31
0.0
  0
LINE
  5
1412
  8
0
 10
60.795064561043773
 20
61.920331047957909
 30
0.0
 11
60.795064561043773
 21
55.72033104795787
 31
0.0
  0
LINE
  5
1413
  8
1
 10
58.795064561043773
 20
52.420331047957909
 30
0.0
 11
58.795064561043773
 21
82.420331047957916
 31
0.0
  0
ARC
  5
1414
  8
0
 10
91.875064561043715
 20
83.320331047957879
 30
0.0
 40
3.3799999999999399
 50
134.76027010391621
 51
225.23972989608259
  0
ARC
  5
1415
  8
0
 10
65.115064561043937
 20
83.320331047957879
 30
0.0
 40
3.3799999999999399
 50
314.76027010391738
 51
45.23972989608373
  0
ARC
  5
1416
  8
0
 10
86.875064561043715
 20
83.320331047957879
 30
0.0
 40
3.3799999999999399
 50
134.76027010391621
 51
225.23972989608259
  0
ARC
  5
1417
  8
0
 10
85.576026455367128
 20
83.320331047957879
 30
0.0
 40
3.3799999999999399
 50
134.76027010391621
 51
225.23972989608259
  0
ARC
  5
1418
  8
0
 10
71.41410266672051
 20
83.320331047957879
 30
0.0
 40
3.3799999999999399
 50
314.76027010391738
 51
45.23972989608373
  0
ARC
  5
1419
  8
0
 10
70.115064561043937
 20
83.320331047957879
 30
0.0
 40
3.3799999999999399
 50
314.76027010391738
 51
45.23972989608373
  0
ARC
  5
141A
  8
0
 10
145.11506456104391
 20
83.320331047957879
 30
0.0
 40
3.3799999999999399
 50
314.76027010391738
 51
45.23972989608373
  0
ARC
  5
141B
  8
0
 10
171.8750645610437
 20
83.320331047957879
 30
0.0
 40
3.3799999999999399
 50
134.76027010391621
 51
225.23972989608259
  0
LINE
  5
141C
  8
1
 10
141.43436410649039
 20
52.420331047957909
 30
0.0
 11
141.43436410649039
 21
82.420331047957916
 31
0.0
  0
LINE
  5
141D
  8
0
 10
143.43436410649039
 20
61.920331047957909
 30
0.0
 11
143.43436410649039
 21
55.72033104795787
 31
0.0
  0
LINE
  5
141E
  8
0
 10
143.43436410649039
 20
55.72033104795787
 30
0.0
 11
142.63436410649041
 21
54.920331047957909
 31
0.0
  0
LINE
  5
141F
  8
3
 10
143.05536410648909
 20
61.920331047957909
 30
0.0
 11
143.05536410648909
 21
55.341331047956601
 31
0.0
  0
LINE
  5
1420
  8
2
 10
143.05536410648909
 20
76.963883791886929
 30
0.0
 11
143.43436410649039
 21
77.620331047957961
 31
0.0
  0
LINE
  5
1421
  8
2
 10
139.81336410649169
 20
76.963883791886929
 30
0.0
 11
139.43436410649039
 21
77.620331047957961
 31
0.0
  0
LINE
  5
1422
  8
3
 10
139.81336410649189
 20
61.920331047957909
 30
0.0
 11
139.81336410649169
 21
55.341331047956601
 31
0.0
  0
LINE
  5
1423
  8
2
 10
139.43436410649039
 20
76.963883791886929
 30
0.0
 11
143.43436410649039
 21
76.963883791886929
 31
0.0
  0
LINE
  5
1424
  8
0
 10
143.43436410649039
 20
55.72033104795787
 30
0.0
 11
139.43436410649039
 21
55.72033104795787
 31
0.0
  0
LINE
  5
1425
  8
0
 10
139.43436410649039
 20
55.72033104795787
 30
0.0
 11
140.23436410649029
 21
54.920331047957909
 31
0.0
  0
LINE
  5
1426
  8
0
 10
140.23436410649029
 20
54.920331047957909
 30
0.0
 11
142.63436410649041
 21
54.920331047957909
 31
0.0
  0
LINE
  5
1427
  8
0
 10
139.43436410649019
 20
61.920331047957909
 30
0.0
 11
139.43436410649039
 21
55.72033104795787
 31
0.0
  0
LINE
  5
1428
  8
2
 10
137.43436410649039
 20
79.920331047957916
 30
0.0
 11
137.43436410649039
 21
79.620331047957961
 31
0.0
  0
LINE
  5
1429
  8
2
 10
137.43436410649039
 20
79.620331047957961
 30
0.0
 11
145.43436410649039
 21
79.620331047957961
 31
0.0
  0
LINE
  5
142A
  8
2
 10
145.43436410649039
 20
79.620331047957961
 30
0.0
 11
145.43436410649039
 21
79.920331047957916
 31
0.0
  0
LINE
  5
142B
  8
2
 10
145.43436410649039
 20
79.920331047957916
 30
0.0
 11
137.43436410649039
 21
79.920331047957916
 31
0.0
  0
LINE
  5
142C
  8
2
 10
137.43436410649039
 20
79.620331047957961
 30
0.0
 11
139.43436410649039
 21
77.620331047957961
 31
0.0
  0
LINE
  5
142D
  8
2
 10
145.43436410649039
 20
79.620331047957961
 30
0.0
 11
143.43436410649039
 21
77.620331047957961
 31
0.0
  0
LINE
  5
142E
  8
2
 10
139.43436410649039
 20
77.620331047957961
 30
0.0
 11
143.43436410649039
 21
77.620331047957961
 31
0.0
  0
LINE
  5
142F
  8
2
 10
139.43436410649019
 20
61.920331047957909
 30
0.0
 11
139.43436410649019
 21
77.620331047957961
 31
0.0
  0
LINE
  5
1430
  8
2
 10
139.81336410649189
 20
61.920331047957909
 30
0.0
 11
139.81336410649189
 21
76.963883791886929
 31
0.0
  0
LINE
  5
1431
  8
2
 10
143.05536410648909
 20
61.920331047957909
 30
0.0
 11
143.05536410648909
 21
76.963883791886929
 31
0.0
  0
LINE
  5
1432
  8
2
 10
143.4343641064909
 20
61.920331047957909
 30
0.0
 11
143.4343641064909
 21
77.620331047957961
 31
0.0
  0
LINE
  5
1433
  8
2
 10
160.49506456104419
 20
61.920331047957859
 30
0.0
 11
160.49506456104419
 21
77.620331047957905
 31
0.0
  0
LINE
  5
1434
  8
2
 10
160.11606456104249
 20
61.920331047957859
 30
0.0
 11
160.11606456104249
 21
76.963883791886872
 31
0.0
  0
LINE
  5
1435
  8
2
 10
156.87406456104529
 20
61.920331047957859
 30
0.0
 11
156.87406456104529
 21
76.963883791886872
 31
0.0
  0
LINE
  5
1436
  8
2
 10
156.49506456104359
 20
61.920331047957859
 30
0.0
 11
156.49506456104359
 21
77.620331047957905
 31
0.0
  0
LINE
  5
1437
  8
2
 10
156.49506456104379
 20
77.620331047957905
 30
0.0
 11
160.49506456104379
 21
77.620331047957905
 31
0.0
  0
LINE
  5
1438
  8
2
 10
162.49506456104379
 20
79.620331047957905
 30
0.0
 11
160.49506456104379
 21
77.620331047957905
 31
0.0
  0
LINE
  5
1439
  8
2
 10
162.49506456104379
 20
79.620331047957905
 30
0.0
 11
162.49506456104379
 21
79.920331047957859
 31
0.0
  0
LINE
  5
143A
  8
0
 10
156.49506456104359
 20
61.920331047957859
 30
0.0
 11
156.49506456104379
 21
55.720331047957821
 31
0.0
  0
LINE
  5
143B
  8
0
 10
157.2950645610438
 20
54.920331047957859
 30
0.0
 11
159.69506456104381
 21
54.920331047957859
 31
0.0
  0
LINE
  5
143C
  8
0
 10
156.49506456104379
 20
55.720331047957821
 30
0.0
 11
157.2950645610438
 21
54.920331047957859
 31
0.0
  0
LINE
  5
143D
  8
0
 10
160.49506456104379
 20
55.720331047957821
 30
0.0
 11
156.49506456104379
 21
55.720331047957821
 31
0.0
  0
LINE
  5
143E
  8
2
 10
156.49506456104379
 20
76.963883791886872
 30
0.0
 11
160.49506456104379
 21
76.963883791886872
 31
0.0
  0
LINE
  5
143F
  8
3
 10
156.87406456104529
 20
61.920331047957859
 30
0.0
 11
156.87406456104509
 21
55.341331047956537
 31
0.0
  0
LINE
  5
1440
  8
2
 10
156.87406456104509
 20
76.963883791886872
 30
0.0
 11
156.49506456104379
 21
77.620331047957905
 31
0.0
  0
LINE
  5
1441
  8
2
 10
160.11606456104249
 20
76.963883791886872
 30
0.0
 11
160.49506456104379
 21
77.620331047957905
 31
0.0
  0
LINE
  5
1442
  8
3
 10
160.11606456104249
 20
61.920331047957859
 30
0.0
 11
160.11606456104249
 21
55.341331047956537
 31
0.0
  0
LINE
  5
1443
  8
0
 10
160.49506456104379
 20
55.720331047957821
 30
0.0
 11
159.69506456104381
 21
54.920331047957859
 31
0.0
  0
LINE
  5
1444
  8
0
 10
160.49506456104379
 20
61.920331047957859
 30
0.0
 11
160.49506456104379
 21
55.720331047957821
 31
0.0
  0
LINE
  5
1445
  8
2
 10
162.49506456104379
 20
79.920331047957916
 30
0.0
 11
154.49506456104379
 21
79.920331047957916
 31
0.0
  0
LINE
  5
1446
  8
2
 10
162.49506456104379
 20
79.620331047957961
 30
0.0
 11
162.49506456104379
 21
79.920331047957916
 31
0.0
  0
LINE
  5
1447
  8
2
 10
154.49506456104379
 20
79.620331047957961
 30
0.0
 11
162.49506456104379
 21
79.620331047957961
 31
0.0
  0
LINE
  5
1448
  8
2
 10
154.49506456104379
 20
79.920331047957916
 30
0.0
 11
154.49506456104379
 21
79.620331047957961
 31
0.0
  0
LINE
  5
1449
  8
2
 10
154.49506456104379
 20
79.620331047957961
 30
0.0
 11
156.49506456104379
 21
77.620331047957961
 31
0.0
  0
LINE
  5
144A
  8
0
 10
144.14506456104391
 20
85.720331047957913
 30
0.0
 11
172.8450645610439
 21
85.720331047957913
 31
0.0
  0
LINE
  5
144B
  8
0
 10
144.14506456104391
 20
103.2203310479579
 30
0.0
 11
172.8450645610439
 21
103.2203310479579
 31
0.0
  0
LINE
  5
144C
  8
0
 10
144.14506456104391
 20
103.2203310479579
 30
0.0
 11
144.14506456104391
 21
85.720331047957913
 31
0.0
  0
LINE
  5
144D
  8
0
 10
172.8450645610437
 20
103.2203310479579
 30
0.0
 11
172.8450645610439
 21
85.720331047957913
 31
0.0
  0
LINE
  5
144E
  8
0
 10
133.49506456104379
 20
61.920331047957909
 30
0.0
 11
183.49506456104399
 21
61.920331047957909
 31
0.0
  0
LINE
  5
144F
  8
0
 10
133.49506456104379
 20
80.920331047957916
 30
0.0
 11
183.49506456104399
 21
80.920331047957916
 31
0.0
  0
LINE
  5
1450
  8
1
 10
158.49506456104379
 20
108.2203310479578
 30
0.0
 11
158.49506456104379
 21
52.420331047957909
 31
0.0
  0
LINE
  5
1451
  8
0
 10
133.49506456104379
 20
80.920331047957859
 30
0.0
 11
133.49506456104399
 21
61.920331047957973
 31
0.0
  0
LINE
  5
1452
  8
0
 10
183.49506456104379
 20
80.920331047957859
 30
0.0
 11
183.49506456104399
 21
61.920331047957973
 31
0.0
  0
TEXT
  5
1505
  8
0
 62
     3
 10
0.0
 20
0.0
 30
0.0
 40
10.0
  1
MBSID-M
  7
STANDARD1
  0
ENDSEC
  0
EOF
