  0
SECTION
  2
HEADER
  9
$ACADVER
  1
AC1009
  9
$INSBASE
 10
0.0
 20
0.0
 30
0.0
  9
$EXTMIN
 10
0.0
 20
-2.960436562073669
 30
0.0
  9
$EXTMAX
 10
280.74973719148198
 20
250.87672182015729
 30
0.0
  9
$LIMMIN
 10
0.0
 20
0.0
  9
$LIMMAX
 10
192.5
 20
135.0
  9
$ORTHOMODE
 70
     0
  9
$REGENMODE
 70
     1
  9
$FILLMODE
 70
     1
  9
$QTEXTMODE
 70
     0
  9
$MIRRTEXT
 70
     0
  9
$DRAGMODE
 70
     2
  9
$LTSCALE
 40
10.0
  9
$OSMODE
 70
  3071
  9
$ATTMODE
 70
     1
  9
$TEXTSIZE
 40
0.2
  9
$TRACEWID
 40
0.05
  9
$TEXTSTYLE
  7
STANDARD
  9
$CLAYER
  8
0
  9
$CELTYPE
  6
BYLAYER
  9
$CECOLOR
 62
   256
  9
$DIMSCALE
 40
0.5
  9
$DIMASZ
 40
3.0
  9
$DIMEXO
 40
1.0
  9
$DIMDLI
 40
6.0
  9
$DIMRND
 40
0.0
  9
$DIMDLE
 40
0.0
  9
$DIMEXE
 40
1.0
  9
$DIMTP
 40
495.0
  9
$DIMTM
 40
0.0
  9
$DIMTXT
 40
3.0
  9
$DIMCEN
 40
0.0
  9
$DIMTSZ
 40
0.0
  9
$DIMTOL
 70
     0
  9
$DIMLIM
 70
     0
  9
$DIMTIH
 70
     0
  9
$DIMTOH
 70
     0
  9
$DIMSE1
 70
     0
  9
$DIMSE2
 70
     0
  9
$DIMTAD
 70
     1
  9
$DIMZIN
 70
     0
  9
$DIMBLK
  1

  9
$DIMASO
 70
     0
  9
$DIMSHO
 70
     0
  9
$DIMPOST
  1

  9
$DIMAPOST
  1

  9
$DIMALT
 70
     0
  9
$DIMALTD
 70
     2
  9
$DIMALTF
 40
25.399999999999999
  9
$DIMLFAC
 40
1.0
  9
$DIMTOFL
 70
     1
  9
$DIMTVP
 40
0.0
  9
$DIMTIX
 70
     1
  9
$DIMSOXD
 70
     0
  9
$DIMSAH
 70
     0
  9
$DIMBLK1
  1

  9
$DIMBLK2
  1

  9
$DIMSTYLE
  2
STANDARD
  9
$DIMCLRD
 70
     0
  9
$DIMCLRE
 70
     0
  9
$DIMCLRT
 70
     4
  9
$DIMTFAC
 40
1.0
  9
$DIMGAP
 40
1.0
  9
$LUNITS
 70
     2
  9
$LUPREC
 70
     4
  9
$SKETCHINC
 40
0.1
  9
$FILLETRAD
 40
0.0
  9
$AUNITS
 70
     0
  9
$AUPREC
 70
     0
  9
$MENU
  1
E:\r13\win\SUPPORT\ACAD
  9
$ELEVATION
 40
0.0
  9
$PELEVATION
 40
0.0
  9
$THICKNESS
 40
0.0
  9
$LIMCHECK
 70
     0
  9
$BLIPMODE
 70
     0
  9
$CHAMFERA
 40
0.5
  9
$CHAMFERB
 40
0.5
  9
$SKPOLY
 70
     0
  9
$TDCREATE
 40
2450647.4165519681
  9
$TDUPDATE
 40
2456597.6353132762
  9
$TDINDWG
 40
0.0126135532
  9
$TDUSRTIMER
 40
0.0126135532
  9
$USRTIMER
 70
     1
  9
$ANGBASE
 50
0.0
  9
$ANGDIR
 70
     0
  9
$PDMODE
 70
     0
  9
$PDSIZE
 40
0.0
  9
$PLINEWID
 40
0.0
  9
$COORDS
 70
     1
  9
$SPLFRAME
 70
     0
  9
$SPLINETYPE
 70
     6
  9
$SPLINESEGS
 70
     8
  9
$ATTDIA
 70
     0
  9
$ATTREQ
 70
     1
  9
$HANDLING
 70
     1
  9
$HANDSEED
  5
18A5
  9
$SURFTAB1
 70
     6
  9
$SURFTAB2
 70
     6
  9
$SURFTYPE
 70
     6
  9
$SURFU
 70
     6
  9
$SURFV
 70
     6
  9
$UCSNAME
  2

  9
$UCSORG
 10
0.0
 20
0.0
 30
0.0
  9
$UCSXDIR
 10
1.0
 20
0.0
 30
0.0
  9
$UCSYDIR
 10
0.0
 20
1.0
 30
0.0
  9
$PUCSNAME
  2

  9
$PUCSORG
 10
0.0
 20
0.0
 30
0.0
  9
$PUCSXDIR
 10
1.0
 20
0.0
 30
0.0
  9
$PUCSYDIR
 10
0.0
 20
1.0
 30
0.0
  9
$USERI1
 70
     3
  9
$USERI2
 70
     1
  9
$USERI3
 70
     0
  9
$USERI4
 70
     0
  9
$USERI5
 70
     0
  9
$USERR1
 40
0.5
  9
$USERR2
 40
3.0
  9
$USERR3
 40
3.0
  9
$USERR4
 40
3.0
  9
$USERR5
 40
10.0
  9
$WORLDVIEW
 70
     1
  9
$SHADEDGE
 70
     3
  9
$SHADEDIF
 70
    70
  9
$TILEMODE
 70
     1
  9
$MAXACTVP
 70
    16
  9
$PLIMCHECK
 70
     0
  9
$PEXTMIN
 10
1.0000000000000000E+020
 20
1.0000000000000000E+020
 30
1.0000000000000000E+020
  9
$PEXTMAX
 10
-1.0000000000000000E+020
 20
-1.0000000000000000E+020
 30
-1.0000000000000000E+020
  9
$PLIMMIN
 10
0.0
 20
0.0
  9
$PLIMMAX
 10
12.0
 20
9.0
  9
$UNITMODE
 70
     0
  9
$VISRETAIN
 70
     0
  9
$PLINEGEN
 70
     0
  9
$PSLTSCALE
 70
     0
  0
ENDSEC
  0
SECTION
  2
TABLES
  0
TABLE
  2
VPORT
 70
     1
  0
VPORT
  2
*ACTIVE
 70
     0
 10
0.0
 20
0.0
 11
1.0
 21
1.0
 12
140.37486924941231
 22
124.50453734235759
 13
0.0
 23
0.0
 14
2.5
 24
2.5
 15
10.0
 25
10.0
 16
0.0
 26
0.0
 36
1.0
 17
0.0
 27
0.0
 37
0.0
 40
257.87581919278028
 41
2.304913294797688
 42
50.0
 43
0.0
 44
0.0
 50
0.0
 51
0.0
 71
     0
 72
   100
 73
     1
 74
     0
 75
     0
 76
     0
 77
     0
 78
     0
  0
ENDTAB
  0
TABLE
  2
LTYPE
 70
     4
  0
LTYPE
  2
CONTINUOUS
 70
     0
  3
Solid Line
 72
    65
 73
     0
 40
0.0
  0
LTYPE
  2
CENTER
 70
     0
  3
____ _ ____ _ ____ _ ____ _ ____ _ ____ _ ____
 72
    65
 73
     4
 40
2.0
 49
1.25
 49
-0.25
 49
0.25
 49
-0.25
  0
LTYPE
  2
HIDDEN
 70
     0
  3
_ _ _ _ _ _ _ _ _ _ _ _ _ _ _ _ _ _ _ _ _ _ _
 72
    65
 73
     2
 40
0.375
 49
0.25
 49
-0.125
  0
LTYPE
  2
PHANTOM2
 70
     0
  3
___ _ _ ___ _ _ ___ _ _ ___ _ _
 72
    65
 73
     6
 40
1.25
 49
0.625
 49
-0.125
 49
0.125
 49
-0.125
 49
0.125
 49
-0.125
  0
ENDTAB
  0
TABLE
  2
LAYER
 70
     2
  0
LAYER
  2
0
 70
     0
 62
     7
  6
CONTINUOUS
  0
LAYER
  2
1
 70
     0
 62
     1
  6
CENTER
  0
ENDTAB
  0
TABLE
  2
STYLE
 70
     2
  0
STYLE
  2
STANDARD
 70
     0
 40
0.0
 41
1.0
 50
0.0
 71
     0
 42
0.2
  3
SIMPLEX
  4
BIGFONT
  0
STYLE
  2
STANDARD1
 70
     0
 40
0.0
 41
1.0
 50
0.0
 71
     0
 42
3.0
  3
txt
  4

  0
ENDTAB
  0
TABLE
  2
VIEW
 70
     0
  0
ENDTAB
  0
TABLE
  2
UCS
 70
     0
  0
ENDTAB
  0
TABLE
  2
APPID
 70
     3
  0
APPID
  2
ACAD
 70
     0
  0
APPID
  2
ACAD_MLEADERVER
 70
     0
  0
APPID
  2
ACAD_NAV_VCDISPLAY
 70
     0
  0
ENDTAB
  0
TABLE
  2
DIMSTYLE
 70
     1
  0
DIMSTYLE
  2
STANDARD
 70
     0
  3

  4

  5

  6

  7

 40
1.0
 41
0.18
 42
0.0625
 43
0.38
 44
0.18
 45
0.0
 46
0.0
 47
0.0
 48
0.0
140
0.18
141
0.09
142
0.0
143
25.399999999999999
144
1.0
145
0.0
146
1.0
147
0.09
 71
     0
 72
     0
 73
     1
 74
     1
 75
     0
 76
     0
 77
     0
 78
     0
170
     0
171
     2
172
     0
173
     0
174
     0
175
     0
176
     0
177
     0
178
     0
  0
ENDTAB
  0
ENDSEC
  0
SECTION
  2
BLOCKS
  0
BLOCK
  8
0
  2
$MODEL_SPACE
 70
     0
 10
0.0
 20
0.0
 30
0.0
  3
$MODEL_SPACE
  1

  0
ENDBLK
  5
329
  8
0
  0
BLOCK
 67
     1
  8
0
  2
$PAPER_SPACE
 70
     0
 10
0.0
 20
0.0
 30
0.0
  3
$PAPER_SPACE
  1

  0
ENDBLK
  5
327
 67
     1
  8
0
  0
ENDSEC
  0
SECTION
  2
ENTITIES
  0
CIRCLE
  5
15E3
  8
0
 10
271.99973719148193
 20
96.071729414040135
 30
0.0
 40
6.25
  0
CIRCLE
  5
15E4
  8
0
 10
271.99973719148193
 20
96.071729414040135
 30
0.0
 40
4.75
  0
LINE
  5
15E5
  8
1
 10
263.24973719148193
 20
96.071729414040135
 30
0.0
 11
280.74973719148198
 21
96.071729414040135
 31
0.0
  0
LINE
  5
15E6
  8
1
 10
271.99973719148193
 20
87.321729414040135
 30
0.0
 11
271.99973719148193
 21
104.82172941404011
 31
0.0
  0
LINE
  5
15E7
  8
0
 10
265.7497371914821
 20
74.821729414040192
 30
0.0
 11
265.74973719148193
 21
65.121729414040146
 31
0.0
  0
LINE
  5
15E8
  8
0
 10
278.2497371914821
 20
74.821729414040135
 30
0.0
 11
278.24973719148193
 21
65.121729414040146
 31
0.0
  0
LINE
  5
15E9
  8
0
 10
278.24973719148193
 20
65.121729414040146
 30
0.0
 11
265.7497371914821
 21
65.121729414040146
 31
0.0
  0
LINE
  5
15EA
  8
0
 10
278.24973719148193
 20
74.821729414040135
 30
0.0
 11
265.7497371914821
 21
74.821729414040192
 31
0.0
  0
LINE
  5
15EB
  8
1
 10
271.99973719148193
 20
77.321729414040135
 30
0.0
 11
271.9997371914817
 21
62.621729414040139
 31
0.0
  0
ARC
  5
15EC
  8
0
 10
172.7130600652678
 20
114.22672182015729
 30
0.0
 40
2.601250000000249
 50
307.99330831098757
 51
52.006691689014389
  0
ARC
  5
15ED
  8
0
 10
173.4630600652676
 20
114.22672182015729
 30
0.0
 40
2.601250000000249
 50
307.99330831098757
 51
52.006691689014389
  0
ARC
  5
15EE
  8
0
 10
194.16556006526889
 20
114.22672182015729
 30
0.0
 40
2.601250000000249
 50
127.9933083109856
 51
232.0066916890124
  0
ARC
  5
15EF
  8
0
 10
194.91556006526861
 20
114.22672182015729
 30
0.0
 40
2.601250000000249
 50
127.9933083109856
 51
232.0066916890124
  0
LINE
  5
15F0
  8
0
 10
183.0643100652683
 20
137.5767218201573
 30
0.0
 11
183.0643100652683
 21
112.1767218201574
 31
0.0
  0
LINE
  5
15F1
  8
0
 10
184.5643100652689
 20
137.5767218201573
 30
0.0
 11
184.5643100652689
 21
112.1767218201574
 31
0.0
  0
LINE
  5
15F2
  8
1
 10
183.81431006526819
 20
147.5767218201573
 30
0.0
 11
183.8143100652685
 21
38.676721820157361
 31
0.0
  0
LINE
  5
15F3
  8
0
 10
157.1643100652679
 20
116.27672182015731
 30
0.0
 11
210.46431006526839
 21
116.27672182015731
 31
0.0
  0
LINE
  5
15F4
  8
0
 10
157.1643100652679
 20
137.5767218201573
 30
0.0
 11
210.46431006526839
 21
137.5767218201573
 31
0.0
  0
LINE
  5
15F5
  8
0
 10
157.1643100652679
 20
93.176721820157354
 30
0.0
 11
210.46431006526839
 21
93.176721820157297
 31
0.0
  0
LINE
  5
15F6
  8
0
 10
157.1643100652679
 20
112.1767218201574
 30
0.0
 11
210.46431006526839
 21
112.1767218201573
 31
0.0
  0
LINE
  5
15F7
  8
0
 10
157.1643100652679
 20
137.5767218201573
 30
0.0
 11
157.1643100652677
 21
116.27672182015731
 31
0.0
  0
LINE
  5
15F8
  8
0
 10
210.46431006526839
 20
137.5767218201573
 30
0.0
 11
210.46431006526839
 21
116.27672182015731
 31
0.0
  0
LINE
  5
15F9
  8
0
 10
210.46431006526839
 20
112.1767218201573
 30
0.0
 11
210.46431006526839
 21
93.176721820157297
 31
0.0
  0
LINE
  5
15FA
  8
0
 10
157.1643100652677
 20
112.1767218201574
 30
0.0
 11
157.1643100652679
 21
93.176721820157354
 31
0.0
  0
LINE
  5
15FB
  8
0
 10
171.3143100652687
 20
48.676721820157347
 30
0.0
 11
196.3143100652685
 21
48.676721820157347
 31
0.0
  0
LINE
  5
15FC
  8
0
 10
196.31431006526819
 20
93.176721820157354
 30
0.0
 11
196.3143100652685
 21
48.676721820157347
 31
0.0
  0
LINE
  5
15FD
  8
0
 10
171.31431006526819
 20
93.176721820157354
 30
0.0
 11
171.3143100652685
 21
48.676721820157347
 31
0.0
  0
ARC
  5
15FE
  8
0
 10
196.41556006526861
 20
114.22672182015729
 30
0.0
 40
2.601250000000249
 50
127.9933083109856
 51
232.0066916890124
  0
ARC
  5
15FF
  8
0
 10
171.21306006526811
 20
114.22672182015729
 30
0.0
 40
2.601250000000249
 50
307.99330831098757
 51
52.006691689014389
  0
LINE
  5
1600
  8
0
 10
69.845068793104474
 20
137.5767218201573
 30
0.0
 11
69.845068793104474
 21
116.27672182015731
 31
0.0
  0
LINE
  5
1601
  8
0
 10
71.144106898781274
 20
137.5767218201573
 30
0.0
 11
71.144106898781502
 21
116.27672182015731
 31
0.0
  0
LINE
  5
1602
  8
0
 10
96.484513231755486
 20
137.57672182015739
 30
0.0
 11
96.484513231755287
 21
116.27672182015731
 31
0.0
  0
LINE
  5
1603
  8
0
 10
97.783551337431405
 20
137.57672182015719
 30
0.0
 11
97.783551337431405
 21
116.27672182015731
 31
0.0
  0
LINE
  5
1604
  8
0
 10
80.830573562976284
 20
100.8724075258628
 30
0.0
 11
79.939789138636797
 21
99.885915687787246
 31
0.0
  0
CIRCLE
  5
1605
  8
0
 10
81.537839477032776
 20
100.2337590993975
 30
0.0
 40
0.6
  0
ARC
  5
1606
  8
0
 10
81.537839477032776
 20
100.2337590993975
 30
0.0
 40
0.9529411764705686
 50
342.0814698847031
 51
137.918530115294
  0
LINE
  5
1607
  8
0
 10
82.444558195467152
 20
99.940573063826378
 30
0.0
 11
81.968323915374867
 21
98.467752111496964
 31
0.0
  0
LINE
  5
1608
  8
0
 10
85.184061935069394
 20
99.940573063826378
 30
0.0
 11
85.660296215161452
 21
98.467752111496964
 31
0.0
  0
LINE
  5
1609
  8
0
 10
86.798046567560277
 20
100.8724075258628
 30
0.0
 11
87.688830991899522
 21
99.885915687787246
 31
0.0
  0
ARC
  5
160A
  8
0
 10
86.090780653503543
 20
100.2337590993975
 30
0.0
 40
0.9529411764705686
 50
42.08146988470601
 51
197.91853011529679
  0
CIRCLE
  5
160B
  8
0
 10
86.090780653503543
 20
100.2337590993975
 30
0.0
 40
0.6
  0
ARC
  5
160C
  8
0
 10
83.814310065268273
 20
103.6473100554515
 30
0.0
 40
5.4000000000000643
 50
315.84877843453108
 51
224.1512215654688
  0
ARC
  5
160D
  8
0
 10
71.21306006526811
 20
114.22672182015729
 30
0.0
 40
2.601250000000249
 50
307.99330831098757
 51
52.006691689014389
  0
ARC
  5
160E
  8
0
 10
76.21306006526811
 20
114.22672182015729
 30
0.0
 40
2.601250000000249
 50
307.99330831098757
 51
52.006691689014389
  0
ARC
  5
160F
  8
0
 10
77.512098170944682
 20
114.22672182015729
 30
0.0
 40
2.601250000000249
 50
307.99330831098757
 51
52.006691689014389
  0
ARC
  5
1610
  8
0
 10
90.116521959592092
 20
114.22672182015729
 30
0.0
 40
2.601250000000249
 50
127.9933083109856
 51
232.0066916890124
  0
ARC
  5
1611
  8
0
 10
91.415560065268664
 20
114.22672182015729
 30
0.0
 40
2.601250000000249
 50
127.9933083109856
 51
232.0066916890124
  0
ARC
  5
1612
  8
0
 10
96.415560065268664
 20
114.22672182015729
 30
0.0
 40
2.601250000000249
 50
127.9933083109856
 51
232.0066916890124
  0
LINE
  5
1613
  8
0
 10
71.314310065268273
 20
93.176721820157354
 30
0.0
 11
71.314310065268501
 21
48.676721820157347
 31
0.0
  0
LINE
  5
1614
  8
0
 10
96.314310065268273
 20
93.176721820157354
 30
0.0
 11
96.314310065268515
 21
48.676721820157347
 31
0.0
  0
LINE
  5
1615
  8
0
 10
71.314310065268728
 20
48.676721820157347
 30
0.0
 11
96.314310065268515
 21
48.676721820157347
 31
0.0
  0
LINE
  5
1616
  8
0
 10
57.164310065267721
 20
112.1767218201574
 30
0.0
 11
57.164310065267962
 21
93.176721820157354
 31
0.0
  0
LINE
  5
1617
  8
0
 10
110.46431006526829
 20
112.1767218201573
 30
0.0
 11
110.46431006526829
 21
93.176721820157297
 31
0.0
  0
LINE
  5
1618
  8
0
 10
110.46431006526829
 20
137.5767218201573
 30
0.0
 11
110.46431006526829
 21
116.27672182015731
 31
0.0
  0
LINE
  5
1619
  8
0
 10
57.164310065267962
 20
137.5767218201573
 30
0.0
 11
57.164310065267721
 21
116.27672182015731
 31
0.0
  0
CIRCLE
  5
161A
  8
0
 10
83.814310065268273
 20
214.22672182015731
 30
0.0
 40
26.649999999999999
  0
LINE
  5
161B
  8
0
 10
57.164310065267962
 20
112.1767218201574
 30
0.0
 11
110.46431006526829
 21
112.1767218201573
 31
0.0
  0
LINE
  5
161C
  8
0
 10
57.164310065267962
 20
93.176721820157354
 30
0.0
 11
110.46431006526829
 21
93.176721820157297
 31
0.0
  0
LINE
  5
161D
  8
0
 10
57.164310065267962
 20
137.5767218201573
 30
0.0
 11
110.46431006526829
 21
137.5767218201573
 31
0.0
  0
CIRCLE
  5
161E
  8
0
 10
83.814310065268273
 20
104.1767218201573
 30
0.0
 40
6.0
  0
LINE
  5
161F
  8
0
 10
80.814310065267819
 20
105.9087726277259
 30
0.0
 11
80.814310065268728
 21
102.4446710125887
 31
0.0
  0
LINE
  5
1620
  8
0
 10
83.814310065268273
 20
107.6408234352952
 30
0.0
 11
80.814310065267819
 21
105.9087726277259
 31
0.0
  0
LINE
  5
1621
  8
0
 10
86.814310065268259
 20
105.908772627727
 30
0.0
 11
83.814310065268273
 21
107.6408234352952
 31
0.0
  0
LINE
  5
1622
  8
0
 10
86.814310065268259
 20
102.4446710125887
 30
0.0
 11
86.814310065268259
 21
105.908772627727
 31
0.0
  0
LINE
  5
1623
  8
0
 10
83.814310065268714
 20
100.7126202050198
 30
0.0
 11
86.814310065268259
 21
102.4446710125887
 31
0.0
  0
LINE
  5
1624
  8
0
 10
80.814310065268728
 20
102.4446710125887
 30
0.0
 11
83.814310065268714
 21
100.7126202050198
 31
0.0
  0
LINE
  5
1625
  8
0
 10
57.164310065267962
 20
116.27672182015731
 30
0.0
 11
110.46431006526829
 21
116.27672182015731
 31
0.0
  0
LINE
  5
1626
  8
1
 10
83.814310065268273
 20
147.5767218201573
 30
0.0
 11
83.814310065268515
 21
38.676721820157361
 31
0.0
  0
ARC
  5
1627
  8
0
 10
83.814310065268273
 20
214.22672182015731
 30
0.0
 40
6.25
 50
186.89210257934701
 51
233.10789742065401
  0
ARC
  5
1628
  8
0
 10
83.814310065268273
 20
214.22672182015731
 30
0.0
 40
4.75
 50
189.08472028739169
 51
230.91527971260641
  0
ARC
  5
1629
  8
0
 10
83.814310065268273
 20
214.22672182015731
 30
0.0
 40
6.25
 50
306.89210257934491
 51
353.10789742065299
  0
ARC
  5
162A
  8
0
 10
83.814310065268273
 20
214.22672182015731
 30
0.0
 40
4.75
 50
309.08472028738743
 51
350.91527971260831
  0
ARC
  5
162B
  8
0
 10
83.814310065268273
 20
214.22672182015731
 30
0.0
 40
6.25
 50
246.89210257934729
 51
293.10789742065271
  0
ARC
  5
162C
  8
0
 10
83.814310065268273
 20
214.22672182015731
 30
0.0
 40
4.75
 50
249.0847202873891
 51
290.91527971260399
  0
ARC
  5
162D
  8
0
 10
83.814310065268273
 20
214.22672182015731
 30
0.0
 40
6.25
 50
6.8921025793470534
 51
53.10789742065419
  0
ARC
  5
162E
  8
0
 10
83.814310065268273
 20
214.22672182015731
 30
0.0
 40
4.75
 50
9.0847202873917592
 51
50.915279712612588
  0
ARC
  5
162F
  8
0
 10
83.814310065268273
 20
214.22672182015731
 30
0.0
 40
4.75
 50
69.08472028738916
 51
110.9152797126108
  0
ARC
  5
1630
  8
0
 10
83.814310065268273
 20
214.22672182015731
 30
0.0
 40
6.25
 50
66.892102579347281
 51
113.10789742065271
  0
ARC
  5
1631
  8
0
 10
83.814310065268273
 20
214.22672182015731
 30
0.0
 40
4.75
 50
129.08472028739359
 51
170.9152797126082
  0
ARC
  5
1632
  8
0
 10
83.814310065268273
 20
214.22672182015731
 30
0.0
 40
6.25
 50
126.8921025793458
 51
173.1078974206529
  0
LINE
  5
1633
  8
0
 10
85.113348170944391
 20
213.47672182015739
 30
0.0
 11
110.4537545039197
 21
213.47672182015711
 31
0.0
  0
LINE
  5
1634
  8
0
 10
85.113348170945073
 20
214.97672182015731
 30
0.0
 11
110.4537545039197
 21
214.97672182015731
 31
0.0
  0
LINE
  5
1635
  8
0
 10
83.814310065268046
 20
212.72672182015731
 30
0.0
 11
96.484513231755287
 21
190.78128619358071
 31
0.0
  0
LINE
  5
1636
  8
0
 10
82.515271959591701
 20
213.47672182015731
 30
0.0
 11
69.845068793104474
 21
191.5312861935808
 31
0.0
  0
LINE
  5
1637
  8
0
 10
85.113348170944619
 20
213.47672182015731
 30
0.0
 11
97.783551337431405
 21
191.5312861935804
 31
0.0
  0
LINE
  5
1638
  8
0
 10
83.814310065268046
 20
212.72672182015731
 30
0.0
 11
71.144106898781502
 21
190.7812861935806
 31
0.0
  0
LINE
  5
1639
  8
0
 10
69.845068793105156
 20
236.9221574467341
 30
0.0
 11
82.515271959591459
 21
214.97672182015731
 31
0.0
  0
LINE
  5
163A
  8
0
 10
71.144106898780819
 20
237.67215744673359
 30
0.0
 11
83.814310065268046
 21
215.72672182015719
 31
0.0
  0
LINE
  5
163B
  8
0
 10
96.484513231755955
 20
237.67215744673339
 30
0.0
 11
83.814310065268046
 21
215.72672182015719
 31
0.0
  0
LINE
  5
163C
  8
0
 10
97.783551337432982
 20
236.92215744673311
 30
0.0
 11
85.113348170944846
 21
214.97672182015731
 31
0.0
  0
LINE
  5
163D
  8
0
 10
57.174865626616793
 20
213.4767218201568
 30
0.0
 11
82.515271959591701
 21
213.47672182015739
 31
0.0
  0
LINE
  5
163E
  8
0
 10
57.174865626616793
 20
214.97672182015731
 30
0.0
 11
82.515271959591459
 21
214.97672182015731
 31
0.0
  0
LINE
  5
163F
  8
1
 10
47.164310065268289
 20
214.22672182015731
 30
0.0
 11
120.46431006526819
 21
214.22672182015731
 31
0.0
  0
LINE
  5
1640
  8
1
 10
83.814310065268273
 20
177.5767218201573
 30
0.0
 11
83.814310065268273
 21
250.87672182015729
 31
0.0
  0
TEXT
  5
1817
  8
0
 62
     3
 10
0.0
 20
0.0
 30
0.0
 40
10.0
  1
MBSID-L
  7
STANDARD1
  0
ENDSEC
  0
EOF
